999
dxflib 3.17.0.0
  0
SECTION
  2
HEADER
  9
$ACADVER
  1
AC1015
  9
$HANDSEED
  5
FFFF
  9
$ANGBASE
 50
0.0
  9
$ANGDIR
 70
0
  9
$ATTMODE
 70
0
  9
$AUNITS
 70
0
  9
$AUPREC
 70
2
  9
$CECOLOR
 62
256
  9
$CELTSCALE
 40
1.0
  9
$CHAMFERA
 40
0.0
  9
$CHAMFERB
 40
0.0
  9
$CHAMFERC
 40
0.0
  9
$CHAMFERD
 40
0.0
  9
$CMLJUST
 70
0
  9
$CMLSCALE
 40
20.0
  9
$DIMADEC
 70
0
  9
$DIMALT
 70
0
  9
$DIMALTD
 70
3
  9
$DIMALTF
 40
0.03937
  9
$DIMALTRND
 40
0.0
  9
$DIMALTTD
 70
3
  9
$DIMALTTZ
 70
0
  9
$DIMALTU
 70
2
  9
$DIMALTZ
 70
0
  9
$DIMAPOST
  1

  9
$DIMASZ
 40
2.5
  9
$DIMATFIT
 70
3
  9
$DIMAUNIT
 70
0
  9
$DIMAZIN
 70
2
  9
$DIMBLK
  1

  9
$DIMBLK1
  1

  9
$DIMBLK2
  1

  9
$DIMCEN
 40
2.5
  9
$DIMCLRD
 70
0
  9
$DIMCLRE
 70
0
  9
$DIMCLRT
 70
0
  9
$DIMDEC
 70
2
  9
$DIMDLE
 40
0.0
  9
$DIMDLI
 40
3.75
  9
$DIMDSEP
 70
46
  9
$DIMEXE
 40
1.25
  9
$DIMEXO
 40
0.625
  9
$DIMFRAC
 70
0
  9
$DIMGAP
 40
0.625
  9
$DIMJUST
 70
0
  9
$DIMLDRBLK
  1
STANDARD
  9
$DIMLFAC
 40
1.0
  9
$DIMLIM
 70
0
  9
$DIMLUNIT
 70
2
  9
$DIMLWD
 70
-2
  9
$DIMLWE
 70
-2
  9
$DIMPOST
  1

  9
$DIMRND
 40
0.0
  9
$DIMSAH
 70
0
  9
$DIMSCALE
 40
1.0
  9
$DIMSD1
 70
0
  9
$DIMSD2
 70
0
  9
$DIMSE1
 70
0
  9
$DIMSE2
 70
0
  9
$DIMSOXD
 70
0
  9
$DIMTAD
 70
1
  9
$DIMTDEC
 70
2
  9
$DIMTFAC
 40
1.0
  9
$DIMTIH
 70
0
  9
$DIMTIX
 70
0
  9
$DIMTM
 40
0.0
  9
$DIMTOFL
 70
1
  9
$DIMTOH
 70
0
  9
$DIMTOL
 70
0
  9
$DIMTOLJ
 70
0
  9
$DIMTP
 40
0.0
  9
$DIMTSZ
 40
0.0
  9
$DIMTVP
 40
0.0
  9
$DIMTXSTY
  7
STANDARD
  9
$DIMTXT
 40
2.5
  9
$DIMTZIN
 70
8
  9
$DIMUPT
 70
0
  9
$DIMZIN
 70
8
  9
$DISPSILH
 70
0
  9
$DWGCODEPAGE
  3
ANSI_1252
  9
$ELEVATION
 40
0.0
  9
$EXTMAX
 10
576.0
 20
380.0000000000001137
 30
0.0
  9
$EXTMIN
 10
-2.5500000000001091
 20
-2.5500000000005039
 30
0.0
  9
$FILLETRAD
 40
0.0
  9
$FILLMODE
 70
1
  9
$INSBASE
 10
0.0
 20
0.0
 30
0.0
  9
$INSUNITS
 70
4
  9
$LIMCHECK
 70
0
  9
$LIMMAX
 10
420.0
 20
297.0
  9
$LIMMIN
 10
0.0
 20
0.0
  9
$LTSCALE
 40
1.0
  9
$LUNITS
 70
2
  9
$LUPREC
 70
4
  9
$MAXACTVP
 70
64
  9
$MEASUREMENT
 70
1
  9
$MIRRTEXT
 70
0
  9
$ORTHOMODE
 70
0
  9
$PDMODE
 70
0
  9
$PDSIZE
 40
0.0
  9
$PELEVATION
 40
0.0
  9
$PEXTMAX
 10
0.0
 20
0.0
 30
0.0
  9
$PEXTMIN
 10
0.0
 20
0.0
 30
0.0
  9
$PINSBASE
 10
0.0
 20
0.0
 30
0.0
  9
$PLIMCHECK
 70
0
  9
$PLIMMAX
 10
210.0
 20
297.0
  9
$PLIMMIN
 10
0.0
 20
0.0
  9
$PLINEGEN
 70
0
  9
$PLINEWID
 40
0.0
  9
$PROXYGRAPHICS
 70
1
  9
$PSLTSCALE
 70
1
  9
$PUCSNAME
  2

  9
$PUCSORG
 10
0.0
 20
0.0
 30
0.0
  9
$PUCSXDIR
 10
1.0
 20
0.0
 30
0.0
  9
$PUCSYDIR
 10
0.0
 20
1.0
 30
0.0
  9
$QTEXTMODE
 70
0
  9
$REGENMODE
 70
1
  9
$SHADEDGE
 70
3
  9
$SHADEDIF
 70
70
  9
$SKETCHINC
 40
1.0
  9
$SKPOLY
 70
0
  9
$SPLFRAME
 70
0
  9
$SPLINESEGS
 70
8
  9
$SPLINETYPE
 70
2
  9
$SURFTAB1
 70
6
  9
$SURFTAB2
 70
6
  9
$SURFTYPE
 70
6
  9
$SURFU
 70
6
  9
$SURFV
 70
6
  9
$TEXTSIZE
 40
2.5
  9
$TEXTSTYLE
  7
STANDARD
  9
$THICKNESS
 40
0.0
  9
$TILEMODE
 70
1
  9
$TRACEWID
 40
15.6799999999999997
  9
$TREEDEPTH
 70
3020
  9
$UCSNAME
  2

  9
$UCSORG
 10
0.0
 20
0.0
 30
0.0
  9
$UCSXDIR
 10
1.0
 20
0.0
 30
0.0
  9
$UCSYDIR
 10
0.0
 20
1.0
 30
0.0
  9
$UNITMODE
 70
0
  9
$USERI1
 70
0
  9
$USERI2
 70
0
  9
$USERI3
 70
0
  9
$USERI4
 70
0
  9
$USERI5
 70
0
  9
$USERR1
 40
0.0
  9
$USERR2
 40
0.0
  9
$USERR3
 40
0.0
  9
$USERR4
 40
0.0
  9
$USERR5
 40
0.0
  9
$USRTIMER
 70
1
  9
$VISRETAIN
 70
1
  0
ENDSEC
  0
SECTION
  2
TABLES
  0
TABLE
  2
VPORT
  5
8
100
AcDbSymbolTable
 70
1
  0
VPORT
  5
30
100
AcDbSymbolTableRecord
100
AcDbViewportTableRecord
  2
*Active
 70
0
 10
0.0
 20
0.0
 11
1.0
 21
1.0
 12
286.3055555555554861
 22
148.5
 13
0.0
 23
0.0
 14
10.0
 24
10.0
 15
10.0
 25
10.0
 16
0.0
 26
0.0
 36
1.0
 17
0.0
 27
0.0
 37
0.0
 40
297.0
 41
1.92798353909465
 42
50.0
 43
0.0
 44
0.0
 50
0.0
 51
0.0
 71
0
 72
100
 73
1
 74
3
 75
1
 76
1
 77
0
 78
0
281
0
 65
1
110
0.0
120
0.0
130
0.0
111
1.0
121
0.0
131
0.0
112
0.0
122
1.0
132
0.0
 79
0
146
0.0
  0
ENDTAB
  0
TABLE
  2
LTYPE
  5
5
100
AcDbSymbolTable
 70
47
  0
LTYPE
  5
16
100
AcDbSymbolTableRecord
100
AcDbLinetypeTableRecord
  2
Continuous
 70
0
  3
Solid line
 72
65
 73
0
 40
0.0
  0
LTYPE
  5
31
100
AcDbSymbolTableRecord
100
AcDbLinetypeTableRecord
  2
ACAD_ISO15W100
 70
0
  3
ISO double-dash triple-dot __ __ . . . __ __ . .
 72
65
 73
10
 40
39.0
 49
12.0
 74
0
 49
-3.0
 74
0
 49
12.0
 74
0
 49
-3.0
 74
0
 49
0.0
 74
0
 49
-3.0
 74
0
 49
0.0
 74
0
 49
-3.0
 74
0
 49
0.0
 74
0
 49
-3.0
 74
0
  0
LTYPE
  5
32
100
AcDbSymbolTableRecord
100
AcDbLinetypeTableRecord
  2
DIVIDE
 70
0
  3
Divide ____ . . ____ . . ____ . . ____ . . ____
 72
65
 73
6
 40
31.7500000000000036
 49
12.6999999999999993
 74
0
 49
-6.2999999999999998
 74
0
 49
0.1
 74
0
 49
-6.25
 74
0
 49
0.1
 74
0
 49
-6.2999999999999998
 74
0
  0
LTYPE
  5
33
100
AcDbSymbolTableRecord
100
AcDbLinetypeTableRecord
  2
ACAD_ISO10W100
 70
0
  3
ISO dash dot __ . __ . __ . __ . __ . __ . __ . 
 72
65
 73
4
 40
18.0
 49
12.0
 74
0
 49
-3.0
 74
0
 49
0.0
 74
0
 49
-3.0
 74
0
  0
LTYPE
  5
34
100
AcDbSymbolTableRecord
100
AcDbLinetypeTableRecord
  2
DOTTINY
 70
0
  3
Dot (.15x) .....................................
 72
65
 73
2
 40
0.9525
 49
0.1
 74
0
 49
-0.8525
 74
0
  0
LTYPE
  5
35
100
AcDbSymbolTableRecord
100
AcDbLinetypeTableRecord
  2
ACAD_ISO04W100
 70
0
  3
ISO long-dash dot ____ . ____ . ____ . ____ . _
 72
65
 73
4
 40
30.0
 49
24.0
 74
0
 49
-3.0
 74
0
 49
0.0
 74
0
 49
-3.0
 74
0
  0
LTYPE
  5
14
100
AcDbSymbolTableRecord
100
AcDbLinetypeTableRecord
  2
ByBlock
 70
0
  3

 72
65
 73
0
 40
0.0
  0
LTYPE
  5
36
100
AcDbSymbolTableRecord
100
AcDbLinetypeTableRecord
  2
CENTER2
 70
0
  3
Center (.5x) ___ _ ___ _ ___ _ ___ _ ___ _ ___
 72
65
 73
4
 40
28.5750000000000028
 49
19.0500000000000007
 74
0
 49
-3.1749999999999998
 74
0
 49
3.1749999999999998
 74
0
 49
-3.1749999999999998
 74
0
  0
LTYPE
  5
37
100
AcDbSymbolTableRecord
100
AcDbLinetypeTableRecord
  2
ACAD_ISO11W100
 70
0
  3
ISO double-dash dot __ __ . __ __ . __ __ . __ _
 72
65
 73
6
 40
33.0
 49
12.0
 74
0
 49
-3.0
 74
0
 49
12.0
 74
0
 49
-3.0
 74
0
 49
0.0
 74
0
 49
-3.0
 74
0
  0
LTYPE
  5
38
100
AcDbSymbolTableRecord
100
AcDbLinetypeTableRecord
  2
HIDDEN2
 70
0
  3
Hidden (.5x) _ _ _ _ _ _ _ _ _ _ _ _ _ _ _ _ _ 
 72
65
 73
2
 40
4.7624999999999993
 49
3.1749999999999998
 74
0
 49
-1.5874999999999999
 74
0
  0
LTYPE
  5
39
100
AcDbSymbolTableRecord
100
AcDbLinetypeTableRecord
  2
BORDERX2
 70
0
  3
Border (2x) ____  ____  .  ____  ____  .  ___
 72
65
 73
6
 40
88.8999999999999773
 49
25.3999999999999986
 74
0
 49
-12.6999999999999993
 74
0
 49
25.3999999999999986
 74
0
 49
-12.6499999999999986
 74
0
 49
0.1
 74
0
 49
-12.6499999999999986
 74
0
  0
LTYPE
  5
3A
100
AcDbSymbolTableRecord
100
AcDbLinetypeTableRecord
  2
BORDERTINY
 70
0
  3
Border (.15x) __.__.__.__.__.__.__.__.__.__.__.
 72
65
 73
6
 40
6.6674999999999995
 49
1.905
 74
0
 49
-0.9525
 74
0
 49
1.905
 74
0
 49
-0.9025
 74
0
 49
0.1
 74
0
 49
-0.9025
 74
0
  0
LTYPE
  5
3B
100
AcDbSymbolTableRecord
100
AcDbLinetypeTableRecord
  2
CENTERTINY
 70
0
  3
Center (.15x) ___ _ ___ _ ___ _ ___ _ ___ _ ___
 72
65
 73
4
 40
7.6199999999999992
 49
4.7625000000000002
 74
0
 49
-0.9525
 74
0
 49
0.9525
 74
0
 49
-0.9525
 74
0
  0
LTYPE
  5
3C
100
AcDbSymbolTableRecord
100
AcDbLinetypeTableRecord
  2
ACAD_ISO05W100
 70
0
  3
ISO long-dash double-dot ____ .. ____ .. ____ . 
 72
65
 73
6
 40
33.0
 49
24.0
 74
0
 49
-3.0
 74
0
 49
0.0
 74
0
 49
-3.0
 74
0
 49
0.0
 74
0
 49
-3.0
 74
0
  0
LTYPE
  5
3D
100
AcDbSymbolTableRecord
100
AcDbLinetypeTableRecord
  2
DASHDOTX2
 70
0
  3
Dash dot (2x) ____  .  ____  .  ____  .  ___
 72
65
 73
4
 40
50.7999999999999972
 49
25.3999999999999986
 74
0
 49
-12.6499999999999986
 74
0
 49
0.1
 74
0
 49
-12.6499999999999986
 74
0
  0
LTYPE
  5
3E
100
AcDbSymbolTableRecord
100
AcDbLinetypeTableRecord
  2
HIDDENX2
 70
0
  3
Hidden (2x) ____ ____ ____ ____ ____ ____ ____ 
 72
65
 73
2
 40
19.0499999999999972
 49
12.6999999999999993
 74
0
 49
-6.3499999999999996
 74
0
  0
LTYPE
  5
3F
100
AcDbSymbolTableRecord
100
AcDbLinetypeTableRecord
  2
CENTERX2
 70
0
  3
Center (2x) ________  __  ________  __  _____
 72
65
 73
4
 40
101.6000000000000085
 49
63.5
 74
0
 49
-12.6999999999999993
 74
0
 49
12.6999999999999993
 74
0
 49
-12.6999999999999993
 74
0
  0
LTYPE
  5
40
100
AcDbSymbolTableRecord
100
AcDbLinetypeTableRecord
  2
BORDER2
 70
0
  3
Border (.5x) __.__.__.__.__.__.__.__.__.__.__.
 72
65
 73
6
 40
22.2250000000000014
 49
6.3499999999999996
 74
0
 49
-3.1749999999999998
 74
0
 49
6.3499999999999996
 74
0
 49
-3.125
 74
0
 49
0.1
 74
0
 49
-3.125
 74
0
  0
LTYPE
  5
41
100
AcDbSymbolTableRecord
100
AcDbLinetypeTableRecord
  2
DASHDOT2
 70
0
  3
Dash dot (.5x) _._._._._._._._._._._._._._._.
 72
65
 73
4
 40
12.6999999999999993
 49
6.3499999999999996
 74
0
 49
-3.125
 74
0
 49
0.1
 74
0
 49
-3.125
 74
0
  0
LTYPE
  5
42
100
AcDbSymbolTableRecord
100
AcDbLinetypeTableRecord
  2
ACAD_ISO12W100
 70
0
  3
ISO dash double-dot __ . . __ . . __ . . __ . . 
 72
65
 73
6
 40
21.0
 49
12.0
 74
0
 49
-3.0
 74
0
 49
0.0
 74
0
 49
-3.0
 74
0
 49
0.0
 74
0
 49
-3.0
 74
0
  0
LTYPE
  5
43
100
AcDbSymbolTableRecord
100
AcDbLinetypeTableRecord
  2
ACAD_ISO07W100
 70
0
  3
ISO dot . . . . . . . . . . . . . . . . . . . . 
 72
65
 73
2
 40
3.0
 49
0.0
 74
0
 49
-3.0
 74
0
  0
LTYPE
  5
44
100
AcDbSymbolTableRecord
100
AcDbLinetypeTableRecord
  2
HIDDEN
 70
0
  3
Hidden __ __ __ __ __ __ __ __ __ __ __ __ __ __
 72
65
 73
2
 40
9.5249999999999986
 49
6.3499999999999996
 74
0
 49
-3.1749999999999998
 74
0
  0
LTYPE
  5
45
100
AcDbSymbolTableRecord
100
AcDbLinetypeTableRecord
  2
ACAD_ISO06W100
 70
0
  3
ISO long-dash triple-dot ____ ... ____ ... ____
 72
65
 73
8
 40
36.0
 49
24.0
 74
0
 49
-3.0
 74
0
 49
0.0
 74
0
 49
-3.0
 74
0
 49
0.0
 74
0
 49
-3.0
 74
0
 49
0.0
 74
0
 49
-3.0
 74
0
  0
LTYPE
  5
46
100
AcDbSymbolTableRecord
100
AcDbLinetypeTableRecord
  2
CENTER
 70
0
  3
Center ____ _ ____ _ ____ _ ____ _ ____ _ ____
 72
65
 73
4
 40
50.8000000000000043
 49
31.75
 74
0
 49
-6.3499999999999996
 74
0
 49
6.3499999999999996
 74
0
 49
-6.3499999999999996
 74
0
  0
LTYPE
  5
47
100
AcDbSymbolTableRecord
100
AcDbLinetypeTableRecord
  2
DOTX2
 70
0
  3
Dot (2x) .  .  .  .  .  .  .  .  .  .  .  .  .
 72
65
 73
2
 40
12.6999999999999993
 49
0.1
 74
0
 49
-12.5999999999999996
 74
0
  0
LTYPE
  5
48
100
AcDbSymbolTableRecord
100
AcDbLinetypeTableRecord
  2
PHANTOM
 70
0
  3
Phantom ______  __  __  ______  __  __  ______ 
 72
65
 73
6
 40
63.5000000000000071
 49
31.75
 74
0
 49
-6.3499999999999996
 74
0
 49
6.3499999999999996
 74
0
 49
-6.3499999999999996
 74
0
 49
6.3499999999999996
 74
0
 49
-6.3499999999999996
 74
0
  0
LTYPE
  5
49
100
AcDbSymbolTableRecord
100
AcDbLinetypeTableRecord
  2
ACAD_ISO08W100
 70
0
  3
ISO long-dash short-dash ____ __ ____ __ ____ _
 72
65
 73
4
 40
36.0
 49
24.0
 74
0
 49
-3.0
 74
0
 49
6.0
 74
0
 49
-3.0
 74
0
  0
LTYPE
  5
4A
100
AcDbSymbolTableRecord
100
AcDbLinetypeTableRecord
  2
DASHEDX2
 70
0
  3
Dashed (2x) ____  ____  ____  ____  ____  ___
 72
65
 73
2
 40
38.0999999999999943
 49
25.3999999999999986
 74
0
 49
-12.6999999999999993
 74
0
  0
LTYPE
  5
4B
100
AcDbSymbolTableRecord
100
AcDbLinetypeTableRecord
  2
ACAD_ISO02W100
 70
0
  3
ISO dash __ __ __ __ __ __ __ __ __ __ __ __ __
 72
65
 73
2
 40
15.0
 49
12.0
 74
0
 49
-3.0
 74
0
  0
LTYPE
  5
4C
100
AcDbSymbolTableRecord
100
AcDbLinetypeTableRecord
  2
PHANTOM2
 70
0
  3
Phantom (.5x) ___ _ _ ___ _ _ ___ _ _ ___ _ _
 72
65
 73
6
 40
31.7500000000000036
 49
15.875
 74
0
 49
-3.1749999999999998
 74
0
 49
3.1749999999999998
 74
0
 49
-3.1749999999999998
 74
0
 49
3.1749999999999998
 74
0
 49
-3.1749999999999998
 74
0
  0
LTYPE
  5
4D
100
AcDbSymbolTableRecord
100
AcDbLinetypeTableRecord
  2
DASHED2
 70
0
  3
Dashed (.5x) _ _ _ _ _ _ _ _ _ _ _ _ _ _ _ _ _
 72
65
 73
2
 40
9.5249999999999986
 49
6.3499999999999996
 74
0
 49
-3.1749999999999998
 74
0
  0
LTYPE
  5
4E
100
AcDbSymbolTableRecord
100
AcDbLinetypeTableRecord
  2
DASHDOTTINY
 70
0
  3
Dash dot (.15x) _._._._._._._._._._._._._._._.
 72
65
 73
4
 40
3.8100000000000001
 49
1.905
 74
0
 49
-0.9025
 74
0
 49
0.1
 74
0
 49
-0.9025
 74
0
  0
LTYPE
  5
4F
100
AcDbSymbolTableRecord
100
AcDbLinetypeTableRecord
  2
ACAD_ISO09W100
 70
0
  3
ISO long-dash double-short-dash ____ __ __ ____
 72
65
 73
6
 40
45.0
 49
24.0
 74
0
 49
-3.0
 74
0
 49
6.0
 74
0
 49
-3.0
 74
0
 49
6.0
 74
0
 49
-3.0
 74
0
  0
LTYPE
  5
50
100
AcDbSymbolTableRecord
100
AcDbLinetypeTableRecord
  2
ACAD_ISO13W100
 70
0
  3
ISO double-dash double-dot __ __ . . __ __ . . _
 72
65
 73
8
 40
36.0
 49
12.0
 74
0
 49
-3.0
 74
0
 49
12.0
 74
0
 49
-3.0
 74
0
 49
0.0
 74
0
 49
-3.0
 74
0
 49
0.0
 74
0
 49
-3.0
 74
0
  0
LTYPE
  5
51
100
AcDbSymbolTableRecord
100
AcDbLinetypeTableRecord
  2
DIVIDETINY
 70
0
  3
Divide (.15x) __..__..__..__..__..__..__..__.._
 72
65
 73
6
 40
4.7625000000000002
 49
1.905
 74
0
 49
-0.9025
 74
0
 49
0.1
 74
0
 49
-0.8524999999999999
 74
0
 49
0.1
 74
0
 49
-0.9025
 74
0
  0
LTYPE
  5
52
100
AcDbSymbolTableRecord
100
AcDbLinetypeTableRecord
  2
DOT2
 70
0
  3
Dot (.5x) .....................................
 72
65
 73
2
 40
3.1749999999999998
 49
0.1
 74
0
 49
-3.0749999999999997
 74
0
  0
LTYPE
  5
53
100
AcDbSymbolTableRecord
100
AcDbLinetypeTableRecord
  2
DASHED
 70
0
  3
Dashed _ _ _ _ _ _ _ _ _ _ _ _ _ _ _ _ _
 72
65
 73
2
 40
19.0499999999999972
 49
12.6999999999999993
 74
0
 49
-6.3499999999999996
 74
0
  0
LTYPE
  5
54
100
AcDbSymbolTableRecord
100
AcDbLinetypeTableRecord
  2
ACAD_ISO14W100
 70
0
  3
ISO dash triple-dot __ . . . __ . . . __ . . . _
 72
65
 73
8
 40
24.0
 49
12.0
 74
0
 49
-3.0
 74
0
 49
0.0
 74
0
 49
-3.0
 74
0
 49
0.0
 74
0
 49
-3.0
 74
0
 49
0.0
 74
0
 49
-3.0
 74
0
  0
LTYPE
  5
55
100
AcDbSymbolTableRecord
100
AcDbLinetypeTableRecord
  2
PHANTOMX2
 70
0
  3
Phantom (2x) ____________    ____    ____   _
 72
65
 73
6
 40
127.0000000000000142
 49
63.5
 74
0
 49
-12.6999999999999993
 74
0
 49
12.6999999999999993
 74
0
 49
-12.6999999999999993
 74
0
 49
12.6999999999999993
 74
0
 49
-12.6999999999999993
 74
0
  0
LTYPE
  5
56
100
AcDbSymbolTableRecord
100
AcDbLinetypeTableRecord
  2
DIVIDEX2
 70
0
  3
Divide (2x) ________  .  .  ________  .  .  _
 72
65
 73
6
 40
63.5
 49
25.3999999999999986
 74
0
 49
-12.6499999999999986
 74
0
 49
0.1
 74
0
 49
-12.5999999999999979
 74
0
 49
0.1
 74
0
 49
-12.6499999999999986
 74
0
  0
LTYPE
  5
57
100
AcDbSymbolTableRecord
100
AcDbLinetypeTableRecord
  2
BORDER
 70
0
  3
Border __ __ . __ __ . __ __ . __ __ . __ __ .
 72
65
 73
6
 40
44.4499999999999957
 49
12.6999999999999993
 74
0
 49
-6.3499999999999996
 74
0
 49
12.6999999999999993
 74
0
 49
-6.2999999999999998
 74
0
 49
0.1
 74
0
 49
-6.2999999999999998
 74
0
  0
LTYPE
  5
58
100
AcDbSymbolTableRecord
100
AcDbLinetypeTableRecord
  2
DIVIDE2
 70
0
  3
Divide (.5x) __..__..__..__..__..__..__..__.._
 72
65
 73
6
 40
15.8749999999999982
 49
6.3499999999999996
 74
0
 49
-3.125
 74
0
 49
0.1
 74
0
 49
-3.0750000000000002
 74
0
 49
0.1
 74
0
 49
-3.125
 74
0
  0
LTYPE
  5
59
100
AcDbSymbolTableRecord
100
AcDbLinetypeTableRecord
  2
DOT
 70
0
  3
Dot . . . . . . . . . . . . . . . . . . . . . .
 72
65
 73
2
 40
6.3499999999999996
 49
0.1
 74
0
 49
-6.25
 74
0
  0
LTYPE
  5
5A
100
AcDbSymbolTableRecord
100
AcDbLinetypeTableRecord
  2
DASHEDTINY
 70
0
  3
Dashed (.15x) _ _ _ _ _ _ _ _ _ _ _ _ _ _ _ _ _
 72
65
 73
2
 40
2.8574999999999999
 49
1.905
 74
0
 49
-0.9525
 74
0
  0
LTYPE
  5
5B
100
AcDbSymbolTableRecord
100
AcDbLinetypeTableRecord
  2
DASHDOT
 70
0
  3
Dash dot __ . __ . __ . __ . __ . __ . __ . __
 72
65
 73
4
 40
25.4000000000000021
 49
12.6999999999999993
 74
0
 49
-6.2999999999999998
 74
0
 49
0.1
 74
0
 49
-6.2999999999999998
 74
0
  0
LTYPE
  5
5C
100
AcDbSymbolTableRecord
100
AcDbLinetypeTableRecord
  2
ACAD_ISO03W100
 70
0
  3
ISO dash space __    __    __    __    __    __
 72
65
 73
2
 40
30.0
 49
12.0
 74
0
 49
-18.0
 74
0
  0
LTYPE
  5
15
100
AcDbSymbolTableRecord
100
AcDbLinetypeTableRecord
  2
ByLayer
 70
0
  3

 72
65
 73
0
 40
0.0
  0
ENDTAB
  0
TABLE
  2
LAYER
  5
2
100
AcDbSymbolTable
 70
2
  0
LAYER
  5
5D
100
AcDbSymbolTableRecord
100
AcDbLayerTableRecord
  2
decoupe
 70
0
 62
7
420
16777215
  6
Continuous
370
9
390
F
  0
LAYER
  5
10
100
AcDbSymbolTableRecord
100
AcDbLayerTableRecord
  2
0
 70
1
 62
7
420
16777215
  6
Continuous
370
25
390
F
  0
ENDTAB
  0
TABLE
  2
STYLE
  5
3
100
AcDbSymbolTable
 70
1
  0
STYLE
  5
5E
100
AcDbSymbolTableRecord
100
AcDbTextStyleTableRecord
  2
Standard
 70
0
 40
0.0
 41
1.0
 50
0.0
 71
0
 42
2.5
  3

  4

1001
ACAD
1000
txt
1071
0
  0
ENDTAB
  0
TABLE
  2
VIEW
  5
6
100
AcDbSymbolTable
 70
0
  0
ENDTAB
  0
TABLE
  2
UCS
  5
7
100
AcDbSymbolTable
 70
0
  0
ENDTAB
  0
TABLE
  2
APPID
  5
9
100
AcDbSymbolTable
 70
1
  0
APPID
  5
12
100
AcDbSymbolTableRecord
100
AcDbRegAppTableRecord
  2
ACAD
 70
0
  0
APPID
  5
5F
100
AcDbSymbolTableRecord
100
AcDbRegAppTableRecord
  2
QCAD
 70
0
  0
ENDTAB
  0
TABLE
  2
DIMSTYLE
  5
A
100
AcDbSymbolTable
 70
1
100
AcDbDimStyleTable
 71
0
  0
DIMSTYLE
105
27
100
AcDbSymbolTableRecord
100
AcDbDimStyleTableRecord
  2
Standard
 41
2.5
 42
0.625
 43
3.75
 44
1.25
 70
0
 73
0
 74
0
 77
1
 78
8
140
2.5
141
2.5
143
0.03937007874016
147
0.625
171
3
172
1
271
2
272
2
274
3
278
44
283
0
284
8
340
5E
  0
ENDTAB
  0
TABLE
  2
BLOCK_RECORD
  5
1
100
AcDbSymbolTable
 70
1
  0
BLOCK_RECORD
  5
1F
100
AcDbSymbolTableRecord
100
AcDbBlockTableRecord
  2
*Model_Space
340
22
  0
BLOCK_RECORD
  5
1B
100
AcDbSymbolTableRecord
100
AcDbBlockTableRecord
  2
*Paper_Space
340
1E
  0
BLOCK_RECORD
  5
23
100
AcDbSymbolTableRecord
100
AcDbBlockTableRecord
  2
*Paper_Space0
340
26
  0
ENDTAB
  0
ENDSEC
  0
SECTION
  2
BLOCKS
  0
BLOCK
  5
20
100
AcDbEntity
  8
0
100
AcDbBlockBegin
  2
*Model_Space
 70
0
 10
0.0
 20
0.0
 30
0.0
  3
*Model_Space
  1

  0
ENDBLK
  5
21
100
AcDbEntity
  8
0
100
AcDbBlockEnd
  0
BLOCK
  5
1C
100
AcDbEntity
 67
1
  8
0
100
AcDbBlockBegin
  2
*Paper_Space
 70
0
 10
0.0
 20
0.0
 30
0.0
  3
*Paper_Space
  1

  0
ENDBLK
  5
1D
100
AcDbEntity
 67
1
  8
0
100
AcDbBlockEnd
  0
BLOCK
  5
24
100
AcDbEntity
  8
0
100
AcDbBlockBegin
  2
*Paper_Space0
 70
0
 10
0.0
 20
0.0
 30
0.0
  3
*Paper_Space0
  1

  0
ENDBLK
  5
25
100
AcDbEntity
  8
0
100
AcDbBlockEnd
  0
ENDSEC
  0
SECTION
  2
ENTITIES
  0
LINE
  5
60
100
AcDbEntity
  8
decoupe
 62
256
370
13
 48
1.0
  6
ByLayer
100
AcDbLine
 10
82.4500000000000455
 20
167.4499999999999034
 30
0.0
 11
2.5500000000000851
 21
167.4499999999999034
 31
0.0
  0
LINE
  5
61
100
AcDbEntity
  8
decoupe
 62
256
370
13
 48
1.0
  6
ByLayer
100
AcDbLine
 10
82.4500000000002586
 20
337.4499999999997044
 30
0.0
 11
2.5500000000002929
 21
337.4499999999997044
 31
0.0
  0
LINE
  5
62
100
AcDbEntity
  8
decoupe
 62
256
370
13
 48
1.0
  6
ByLayer
100
AcDbLine
 10
252.4500000000003013
 20
167.4499999999997044
 30
0.0
 11
172.5500000000002956
 21
167.4499999999997044
 31
0.0
  0
LINE
  5
63
100
AcDbEntity
  8
decoupe
 62
256
370
13
 48
1.0
  6
ByLayer
100
AcDbLine
 10
252.4500000000005002
 20
337.449999999999477
 30
0.0
 11
172.5500000000004945
 21
337.449999999999477
 31
0.0
  0
LINE
  5
64
100
AcDbEntity
  8
decoupe
 62
256
370
13
 48
1.0
  6
ByLayer
100
AcDbLine
 10
422.4500000000005002
 20
167.4499999999995055
 30
0.0
 11
342.550000000000523
 21
167.4499999999995055
 31
0.0
  0
LINE
  5
65
100
AcDbEntity
  8
decoupe
 62
256
370
13
 48
1.0
  6
ByLayer
100
AcDbLine
 10
422.4500000000007276
 20
337.4499999999993065
 30
0.0
 11
342.5500000000008072
 21
337.4499999999993065
 31
0.0
  0
LINE
  5
66
100
AcDbEntity
  8
decoupe
 62
256
370
13
 48
1.0
  6
ByLayer
100
AcDbLine
 10
172.5500000000004093
 20
82.4499999999998892
 30
0.0
 11
172.5500000000000966
 21
2.5499999999999048
 31
0.0
  0
LINE
  5
67
100
AcDbEntity
  8
decoupe
 62
256
370
13
 48
1.0
  6
ByLayer
100
AcDbLine
 10
172.5500000000006082
 20
252.4499999999995907
 30
0.0
 11
172.5500000000002956
 21
172.5499999999996987
 31
0.0
  0
LINE
  5
68
100
AcDbEntity
  8
decoupe
 62
256
370
13
 48
1.0
  6
ByLayer
100
AcDbLine
 10
342.5500000000005798
 20
82.4499999999996902
 30
0.0
 11
342.5500000000002956
 21
2.549999999999701
 31
0.0
  0
LINE
  5
69
100
AcDbEntity
  8
decoupe
 62
256
370
13
 48
1.0
  6
ByLayer
100
AcDbLine
 10
342.5500000000008072
 20
252.4499999999993918
 30
0.0
 11
342.550000000000523
 21
172.5499999999994998
 31
0.0
  0
LINE
  5
6A
100
AcDbEntity
  8
decoupe
 62
256
370
13
 48
1.0
  6
ByLayer
100
AcDbLine
 10
512.550000000000864
 20
82.449999999999477
 30
0.0
 11
512.550000000000523
 21
2.5499999999994949
 31
0.0
  0
LINE
  5
6B
100
AcDbEntity
  8
decoupe
 62
256
370
13
 48
1.0
  6
ByLayer
100
AcDbLine
 10
512.5500000000009777
 20
252.4499999999991928
 30
0.0
 11
512.5500000000007503
 21
172.5499999999993008
 31
0.0
  0
LINE
  5
6C
100
AcDbEntity
  8
decoupe
 62
256
370
13
 48
1.0
  6
ByLayer
100
AcDbLine
 10
87.5499999999998835
 20
2.5500000000000989
 30
0.0
 11
167.4499999999999034
 21
2.54999999999976
 31
0.0
  0
LINE
  5
6D
100
AcDbEntity
  8
decoupe
 62
256
370
13
 48
1.0
  6
ByLayer
100
AcDbLine
 10
257.5500000000001251
 20
2.5499999999998941
 30
0.0
 11
337.450000000000216
 21
2.5499999999995562
 31
0.0
  0
LINE
  5
6E
100
AcDbEntity
  8
decoupe
 62
256
370
13
 48
1.0
  6
ByLayer
100
AcDbLine
 10
427.5500000000004093
 20
2.549999999999689
 30
0.0
 11
507.4500000000003865
 21
2.549999999999351
 31
0.0
  0
LINE
  5
6F
100
AcDbEntity
  8
decoupe
 62
256
370
13
 48
1.0
  6
ByLayer
100
AcDbLine
 10
-2.5500000000001091
 20
87.5499999999998977
 30
0.0
 11
-2.5500000000000118
 21
167.4499999999999034
 31
0.0
  0
LINE
  5
70
100
AcDbEntity
  8
decoupe
 62
256
370
13
 48
1.0
  6
ByLayer
100
AcDbLine
 10
-2.5499999999998999
 20
257.5499999999997272
 30
0.0
 11
-2.549999999999804
 21
337.4499999999997044
 31
0.0
  0
LINE
  5
71
100
AcDbEntity
  8
decoupe
 62
256
370
13
 48
1.0
  6
ByLayer
100
AcDbLine
 10
87.549999999999855
 20
172.5500000000002956
 30
0.0
 11
167.4499999999999034
 21
172.5500000000002956
 31
0.0
  0
LINE
  5
72
100
AcDbEntity
  8
decoupe
 62
256
370
13
 48
1.0
  6
ByLayer
100
AcDbLine
 10
87.5500000000000682
 20
342.5500000000001251
 30
0.0
 11
167.4500000000001023
 21
342.5500000000001251
 31
0.0
  0
LINE
  5
73
100
AcDbEntity
  8
decoupe
 62
256
370
13
 48
1.0
  6
ByLayer
100
AcDbLine
 10
257.5500000000001251
 20
172.5500000000000966
 30
0.0
 11
337.4500000000001023
 21
172.5500000000000966
 31
0.0
  0
LINE
  5
74
100
AcDbEntity
  8
decoupe
 62
256
370
13
 48
1.0
  6
ByLayer
100
AcDbLine
 10
257.5500000000002956
 20
342.549999999999784
 30
0.0
 11
337.4500000000002728
 21
342.549999999999784
 31
0.0
  0
LINE
  5
75
100
AcDbEntity
  8
decoupe
 62
256
370
13
 48
1.0
  6
ByLayer
100
AcDbLine
 10
427.5500000000002956
 20
172.5499999999998977
 30
0.0
 11
507.4500000000002728
 21
172.5499999999998977
 31
0.0
  0
LINE
  5
76
100
AcDbEntity
  8
decoupe
 62
256
370
13
 48
1.0
  6
ByLayer
100
AcDbLine
 10
427.550000000000523
 20
342.5499999999997272
 30
0.0
 11
507.4500000000005002
 21
342.5499999999997272
 31
0.0
  0
LINE
  5
77
100
AcDbEntity
  8
decoupe
 62
256
370
13
 48
1.0
  6
ByLayer
100
AcDbLine
 10
167.4500000000006992
 20
167.4500000000005002
 30
0.0
 11
167.4500000000001876
 21
87.5499999999999261
 31
0.0
  0
LINE
  5
78
100
AcDbEntity
  8
decoupe
 62
256
370
13
 48
1.0
  6
ByLayer
100
AcDbLine
 10
167.4500000000008981
 20
337.4500000000002728
 30
0.0
 11
167.4500000000003865
 21
257.5499999999997272
 31
0.0
  0
LINE
  5
79
100
AcDbEntity
  8
decoupe
 62
256
370
13
 48
1.0
  6
ByLayer
100
AcDbLine
 10
337.4500000000010118
 20
167.4500000000003013
 30
0.0
 11
337.4500000000003865
 21
87.5499999999997272
 31
0.0
  0
LINE
  5
7A
100
AcDbEntity
  8
decoupe
 62
256
370
13
 48
1.0
  6
ByLayer
100
AcDbLine
 10
337.4500000000011823
 20
337.4499999999999886
 30
0.0
 11
337.4500000000006139
 21
257.5499999999994998
 31
0.0
  0
LINE
  5
7B
100
AcDbEntity
  8
decoupe
 62
256
370
13
 48
1.0
  6
ByLayer
100
AcDbLine
 10
507.4500000000011823
 20
167.4500000000001023
 30
0.0
 11
507.4500000000006139
 21
87.549999999999514
 31
0.0
  0
LINE
  5
7C
100
AcDbEntity
  8
decoupe
 62
256
370
13
 48
1.0
  6
ByLayer
100
AcDbLine
 10
507.4500000000014097
 20
337.4499999999998749
 30
0.0
 11
507.4500000000007844
 21
257.5499999999992724
 31
0.0
  0
LINE
  5
7D
100
AcDbEntity
  8
decoupe
 62
256
370
13
 48
1.0
  6
ByLayer
100
AcDbLine
 10
2.549999999999021
 20
-2.54999999999949
 30
0.0
 11
82.4499999999998323
 21
-2.550000000000094
 31
0.0
  0
LINE
  5
7E
100
AcDbEntity
  8
decoupe
 62
256
370
13
 48
1.0
  6
ByLayer
100
AcDbLine
 10
172.5499999999991871
 20
-2.5499999999996952
 30
0.0
 11
252.4499999999999886
 21
-2.5500000000002991
 31
0.0
  0
LINE
  5
7F
100
AcDbEntity
  8
decoupe
 62
256
370
13
 48
1.0
  6
ByLayer
100
AcDbLine
 10
342.5499999999994998
 20
-2.5499999999998999
 30
0.0
 11
422.4500000000002728
 21
-2.5500000000005039
 31
0.0
  0
LINE
  5
80
100
AcDbEntity
  8
decoupe
 62
256
370
13
 48
1.0
  6
ByLayer
100
AcDbLine
 10
2.5499999999983451
 20
2.5499999999980929
 30
0.0
 11
2.5500000000000358
 21
82.4499999999998892
 31
0.0
  0
LINE
  5
81
100
AcDbEntity
  8
decoupe
 62
256
370
13
 48
1.0
  6
ByLayer
100
AcDbLine
 10
2.549999999998553
 20
172.5499999999979082
 30
0.0
 11
2.550000000000245
 21
252.4499999999995907
 31
0.0
  0
LINE
  5
82
100
AcDbEntity
  8
decoupe
 62
256
370
13
 48
1.0
  6
ByLayer
100
AcDbLine
 10
82.4500000000000455
 20
167.4499999999999034
 30
0.0
 11
87.5500000000000682
 21
172.5499999999998977
 31
0.0
  0
LINE
  5
83
100
AcDbEntity
  8
decoupe
 62
256
370
13
 48
1.0
  6
ByLayer
100
AcDbLine
 10
82.4500000000002586
 20
337.4499999999997044
 30
0.0
 11
87.5500000000002814
 21
342.5499999999997272
 31
0.0
  0
LINE
  5
84
100
AcDbEntity
  8
decoupe
 62
256
370
13
 48
1.0
  6
ByLayer
100
AcDbLine
 10
252.4500000000003013
 20
167.4499999999997044
 30
0.0
 11
257.5500000000002956
 21
172.5499999999996987
 31
0.0
  0
LINE
  5
85
100
AcDbEntity
  8
decoupe
 62
256
370
13
 48
1.0
  6
ByLayer
100
AcDbLine
 10
252.4500000000005002
 20
337.449999999999477
 30
0.0
 11
257.550000000000523
 21
342.5499999999994998
 31
0.0
  0
LINE
  5
86
100
AcDbEntity
  8
decoupe
 62
256
370
13
 48
1.0
  6
ByLayer
100
AcDbLine
 10
422.4500000000005002
 20
167.4499999999995055
 30
0.0
 11
427.550000000000523
 21
172.5499999999994998
 31
0.0
  0
LINE
  5
87
100
AcDbEntity
  8
decoupe
 62
256
370
13
 48
1.0
  6
ByLayer
100
AcDbLine
 10
422.4500000000007276
 20
337.4499999999993065
 30
0.0
 11
427.5500000000008072
 21
342.5499999999992724
 31
0.0
  0
LINE
  5
88
100
AcDbEntity
  8
decoupe
 62
256
370
13
 48
1.0
  6
ByLayer
100
AcDbLine
 10
87.5499999999998835
 20
2.5500000000000989
 30
0.0
 11
82.4499999999998323
 21
-2.550000000000094
 31
0.0
  0
LINE
  5
89
100
AcDbEntity
  8
decoupe
 62
256
370
13
 48
1.0
  6
ByLayer
100
AcDbLine
 10
87.5500000000000966
 20
172.5499999999998977
 30
0.0
 11
82.4500000000000455
 21
167.4499999999997044
 31
0.0
  0
LINE
  5
8A
100
AcDbEntity
  8
decoupe
 62
256
370
13
 48
1.0
  6
ByLayer
100
AcDbLine
 10
257.5500000000001251
 20
2.5499999999998941
 30
0.0
 11
252.4499999999999886
 21
-2.5500000000002991
 31
0.0
  0
LINE
  5
8B
100
AcDbEntity
  8
decoupe
 62
256
370
13
 48
1.0
  6
ByLayer
100
AcDbLine
 10
257.5500000000002956
 20
172.5499999999996987
 30
0.0
 11
252.4500000000003013
 21
167.4499999999995055
 31
0.0
  0
LINE
  5
8C
100
AcDbEntity
  8
decoupe
 62
256
370
13
 48
1.0
  6
ByLayer
100
AcDbLine
 10
427.5500000000004093
 20
2.549999999999689
 30
0.0
 11
422.4500000000002728
 21
-2.5500000000005039
 31
0.0
  0
LINE
  5
8D
100
AcDbEntity
  8
decoupe
 62
256
370
13
 48
1.0
  6
ByLayer
100
AcDbLine
 10
427.550000000000523
 20
172.5499999999994998
 30
0.0
 11
422.4500000000005002
 21
167.4499999999993065
 31
0.0
  0
LINE
  5
8E
100
AcDbEntity
  8
decoupe
 62
256
370
13
 48
1.0
  6
ByLayer
100
AcDbLine
 10
-2.5500000000001091
 20
87.5499999999998977
 30
0.0
 11
2.5500000000000358
 21
82.4499999999998892
 31
0.0
  0
LINE
  5
8F
100
AcDbEntity
  8
decoupe
 62
256
370
13
 48
1.0
  6
ByLayer
100
AcDbLine
 10
-2.5499999999998999
 20
257.5499999999997272
 30
0.0
 11
2.550000000000245
 21
252.4499999999995907
 31
0.0
  0
LINE
  5
90
100
AcDbEntity
  8
decoupe
 62
256
370
13
 48
1.0
  6
ByLayer
100
AcDbLine
 10
167.4500000000001023
 20
87.5499999999996987
 30
0.0
 11
172.5500000000002956
 21
82.4499999999996902
 31
0.0
  0
LINE
  5
91
100
AcDbEntity
  8
decoupe
 62
256
370
13
 48
1.0
  6
ByLayer
100
AcDbLine
 10
167.4500000000003013
 20
257.5499999999993861
 30
0.0
 11
172.5500000000004945
 21
252.4499999999993918
 31
0.0
  0
LINE
  5
92
100
AcDbEntity
  8
decoupe
 62
256
370
13
 48
1.0
  6
ByLayer
100
AcDbLine
 10
337.4500000000002728
 20
87.5499999999994856
 30
0.0
 11
342.550000000000523
 21
82.449999999999477
 31
0.0
  0
LINE
  5
93
100
AcDbEntity
  8
decoupe
 62
256
370
13
 48
1.0
  6
ByLayer
100
AcDbLine
 10
337.4500000000006139
 20
257.5499999999992724
 30
0.0
 11
342.5500000000006935
 21
252.4499999999991928
 31
0.0
  0
LINE
  5
94
100
AcDbEntity
  8
decoupe
 62
256
370
13
 48
1.0
  6
ByLayer
100
AcDbLine
 10
172.5500000000002956
 20
82.4499999999998749
 30
0.0
 11
167.4500000000001876
 21
87.5499999999998693
 31
0.0
  0
LINE
  5
95
100
AcDbEntity
  8
decoupe
 62
256
370
13
 48
1.0
  6
ByLayer
100
AcDbLine
 10
172.5500000000004945
 20
252.4499999999995907
 30
0.0
 11
167.4500000000003865
 21
257.5499999999996135
 31
0.0
  0
LINE
  5
96
100
AcDbEntity
  8
decoupe
 62
256
370
13
 48
1.0
  6
ByLayer
100
AcDbLine
 10
342.550000000000523
 20
82.449999999999676
 30
0.0
 11
337.4500000000003865
 21
87.5499999999996703
 31
0.0
  0
LINE
  5
97
100
AcDbEntity
  8
decoupe
 62
256
370
13
 48
1.0
  6
ByLayer
100
AcDbLine
 10
342.5500000000008072
 20
252.4499999999993918
 30
0.0
 11
337.4500000000006139
 21
257.5499999999993861
 31
0.0
  0
LINE
  5
98
100
AcDbEntity
  8
decoupe
 62
256
370
13
 48
1.0
  6
ByLayer
100
AcDbLine
 10
512.5500000000007503
 20
82.4499999999994628
 30
0.0
 11
507.4500000000006139
 21
87.5499999999994571
 31
0.0
  0
LINE
  5
99
100
AcDbEntity
  8
decoupe
 62
256
370
13
 48
1.0
  6
ByLayer
100
AcDbLine
 10
512.5500000000009777
 20
252.4499999999991928
 30
0.0
 11
507.4500000000007844
 21
257.5499999999992156
 31
0.0
  0
LINE
  5
9A
100
AcDbEntity
  8
decoupe
 62
256
370
13
 48
1.0
  6
ByLayer
100
AcDbLine
 10
167.4500000000006992
 20
167.4500000000005002
 30
0.0
 11
170.0000000000001137
 21
169.9999999999998863
 31
0.0
  0
LINE
  5
9B
100
AcDbEntity
  8
decoupe
 62
256
370
13
 48
1.0
  6
ByLayer
100
AcDbLine
 10
167.4500000000008981
 20
337.4500000000002728
 30
0.0
 11
170.0000000000003126
 21
339.9999999999997158
 31
0.0
  0
LINE
  5
9C
100
AcDbEntity
  8
decoupe
 62
256
370
13
 48
1.0
  6
ByLayer
100
AcDbLine
 10
337.4500000000010118
 20
167.4500000000003013
 30
0.0
 11
340.0000000000002842
 21
169.9999999999996874
 31
0.0
  0
LINE
  5
9D
100
AcDbEntity
  8
decoupe
 62
256
370
13
 48
1.0
  6
ByLayer
100
AcDbLine
 10
337.4500000000011823
 20
337.4499999999999886
 30
0.0
 11
340.0000000000006253
 21
339.9999999999994884
 31
0.0
  0
LINE
  5
9E
100
AcDbEntity
  8
decoupe
 62
256
370
13
 48
1.0
  6
ByLayer
100
AcDbLine
 10
507.4500000000011823
 20
167.4500000000001023
 30
0.0
 11
510.0000000000006253
 21
169.9999999999994884
 31
0.0
  0
LINE
  5
9F
100
AcDbEntity
  8
decoupe
 62
256
370
13
 48
1.0
  6
ByLayer
100
AcDbLine
 10
507.4500000000014097
 20
337.4499999999998749
 30
0.0
 11
510.0000000000007958
 21
339.9999999999993179
 31
0.0
  0
LINE
  5
A0
100
AcDbEntity
  8
decoupe
 62
256
370
13
 48
1.0
  6
ByLayer
100
AcDbLine
 10
0.0000000000000842
 20
169.9999999999998863
 30
0.0
 11
2.5500000000001082
 21
167.4499999999999034
 31
0.0
  0
LINE
  5
A1
100
AcDbEntity
  8
decoupe
 62
256
370
13
 48
1.0
  6
ByLayer
100
AcDbLine
 10
0.0000000000002924
 20
339.9999999999997158
 30
0.0
 11
2.550000000000316
 21
337.4499999999997044
 31
0.0
  0
LINE
  5
A2
100
AcDbEntity
  8
decoupe
 62
256
370
13
 48
1.0
  6
ByLayer
100
AcDbLine
 10
170.0000000000003126
 20
169.9999999999996874
 30
0.0
 11
172.5500000000002956
 21
167.4499999999997044
 31
0.0
  0
LINE
  5
A3
100
AcDbEntity
  8
decoupe
 62
256
370
13
 48
1.0
  6
ByLayer
100
AcDbLine
 10
170.0000000000005116
 20
339.9999999999993747
 30
0.0
 11
172.5500000000006082
 21
337.449999999999477
 31
0.0
  0
LINE
  5
A4
100
AcDbEntity
  8
decoupe
 62
256
370
13
 48
1.0
  6
ByLayer
100
AcDbLine
 10
340.0000000000005116
 20
169.9999999999994884
 30
0.0
 11
342.5500000000005798
 21
167.4499999999995055
 31
0.0
  0
LINE
  5
A5
100
AcDbEntity
  8
decoupe
 62
256
370
13
 48
1.0
  6
ByLayer
100
AcDbLine
 10
340.0000000000006821
 20
339.9999999999993179
 30
0.0
 11
342.5500000000008072
 21
337.4499999999993065
 31
0.0
  0
LINE
  5
A6
100
AcDbEntity
  8
decoupe
 62
256
370
13
 48
1.0
  6
ByLayer
100
AcDbLine
 10
170.0000000000001137
 20
-0.0000000000000945
 30
0.0
 11
172.5500000000000966
 21
2.5499999999999301
 31
0.0
  0
LINE
  5
A7
100
AcDbEntity
  8
decoupe
 62
256
370
13
 48
1.0
  6
ByLayer
100
AcDbLine
 10
170.0000000000003126
 20
169.9999999999996874
 30
0.0
 11
172.5500000000002956
 21
172.5499999999996987
 31
0.0
  0
LINE
  5
A8
100
AcDbEntity
  8
decoupe
 62
256
370
13
 48
1.0
  6
ByLayer
100
AcDbLine
 10
340.0000000000002842
 20
-0.0000000000002994
 30
0.0
 11
342.5500000000004093
 21
2.5499999999997249
 31
0.0
  0
LINE
  5
A9
100
AcDbEntity
  8
decoupe
 62
256
370
13
 48
1.0
  6
ByLayer
100
AcDbLine
 10
340.0000000000005116
 20
169.9999999999994884
 30
0.0
 11
342.550000000000523
 21
172.5499999999994998
 31
0.0
  0
LINE
  5
AA
100
AcDbEntity
  8
decoupe
 62
256
370
13
 48
1.0
  6
ByLayer
100
AcDbLine
 10
510.0000000000006253
 20
-0.0000000000005044
 30
0.0
 11
512.5500000000006366
 21
2.5499999999995202
 31
0.0
  0
LINE
  5
AB
100
AcDbEntity
  8
decoupe
 62
256
370
13
 48
1.0
  6
ByLayer
100
AcDbLine
 10
510.0000000000006821
 20
169.9999999999992895
 30
0.0
 11
512.5500000000007503
 21
172.5499999999993008
 31
0.0
  0
LINE
  5
AC
100
AcDbEntity
  8
decoupe
 62
256
370
13
 48
1.0
  6
ByLayer
100
AcDbLine
 10
0.0000000000000846
 20
169.9999999999998863
 30
0.0
 11
-2.5500000000000118
 21
167.4499999999999034
 31
0.0
  0
LINE
  5
AD
100
AcDbEntity
  8
decoupe
 62
256
370
13
 48
1.0
  6
ByLayer
100
AcDbLine
 10
0.0000000000002928
 20
339.9999999999997158
 30
0.0
 11
-2.549999999999804
 21
337.4499999999997044
 31
0.0
  0
LINE
  5
AE
100
AcDbEntity
  8
decoupe
 62
256
370
13
 48
1.0
  6
ByLayer
100
AcDbLine
 10
-0.0000000000001208
 20
0.000000000000135
 30
0.0
 11
2.549999999999903
 21
2.5500000000001828
 31
0.0
  0
LINE
  5
AF
100
AcDbEntity
  8
decoupe
 62
256
370
13
 48
1.0
  6
ByLayer
100
AcDbLine
 10
0.0000000000000874
 20
169.9999999999998863
 30
0.0
 11
2.5500000000001122
 21
172.5500000000000114
 31
0.0
  0
LINE
  5
B0
100
AcDbEntity
  8
decoupe
 62
256
370
13
 48
1.0
  6
ByLayer
100
AcDbLine
 10
-0.0000000000001208
 20
0.000000000000135
 30
0.0
 11
2.549999999999879
 21
-2.5499999999999501
 31
0.0
  0
LINE
  5
B1
100
AcDbEntity
  8
decoupe
 62
256
370
13
 48
1.0
  6
ByLayer
100
AcDbLine
 10
170.0000000000001137
 20
-0.0000000000000699
 30
0.0
 11
172.5500000000000966
 21
-2.5500000000001539
 31
0.0
  0
LINE
  5
B2
100
AcDbEntity
  8
decoupe
 62
256
370
13
 48
1.0
  6
ByLayer
100
AcDbLine
 10
340.0000000000002842
 20
-0.0000000000002749
 30
0.0
 11
342.5500000000004093
 21
-2.55000000000036
 31
0.0
  0
LINE
  5
B3
100
AcDbEntity
  8
decoupe
 62
256
370
13
 48
1.0
  6
ByLayer
100
AcDbLine
 10
170.0000000000001137
 20
-0.0000000000001186
 30
0.0
 11
167.4500000000001876
 21
2.5499999999999048
 31
0.0
  0
LINE
  5
B4
100
AcDbEntity
  8
decoupe
 62
256
370
13
 48
1.0
  6
ByLayer
100
AcDbLine
 10
340.0000000000002842
 20
-0.0000000000003236
 30
0.0
 11
337.4500000000003865
 21
2.549999999999701
 31
0.0
  0
LINE
  5
B5
100
AcDbEntity
  8
decoupe
 62
256
370
13
 48
1.0
  6
ByLayer
100
AcDbLine
 10
510.0000000000006253
 20
-0.0000000000005285
 30
0.0
 11
507.4500000000006139
 21
2.5499999999994949
 31
0.0
  0
LINE
  5
B6
100
AcDbEntity
  8
decoupe
 62
256
370
13
 48
1.0
  6
ByLayer
100
AcDbLine
 10
170.0000000000001137
 20
170.000000000000199
 30
0.0
 11
167.4499999999997897
 21
172.5500000000000966
 31
0.0
  0
LINE
  5
B7
100
AcDbEntity
  8
decoupe
 62
256
370
13
 48
1.0
  6
ByLayer
100
AcDbLine
 10
170.0000000000003126
 20
340.0
 30
0.0
 11
167.4499999999999886
 21
342.549999999999784
 31
0.0
  0
LINE
  5
B8
100
AcDbEntity
  8
decoupe
 62
256
370
13
 48
1.0
  6
ByLayer
100
AcDbLine
 10
340.0000000000002842
 20
170.0
 30
0.0
 11
337.4499999999999886
 21
172.5499999999998977
 31
0.0
  0
LINE
  5
B9
100
AcDbEntity
  8
decoupe
 62
256
370
13
 48
1.0
  6
ByLayer
100
AcDbLine
 10
340.0000000000005116
 20
339.9999999999997726
 30
0.0
 11
337.4500000000002728
 21
342.5499999999996135
 31
0.0
  0
LINE
  5
BA
100
AcDbEntity
  8
decoupe
 62
256
370
13
 48
1.0
  6
ByLayer
100
AcDbLine
 10
510.0000000000006253
 20
169.999999999999801
 30
0.0
 11
507.4500000000002728
 21
172.5499999999996987
 31
0.0
  0
LINE
  5
BB
100
AcDbEntity
  8
decoupe
 62
256
370
13
 48
1.0
  6
ByLayer
100
AcDbLine
 10
510.0000000000006821
 20
339.9999999999996021
 30
0.0
 11
507.4500000000005002
 21
342.5499999999993861
 31
0.0
  0
ENDSEC
  0
SECTION
  2
OBJECTS
  0
DICTIONARY
  5
C
100
AcDbDictionary
280
0
281
1
  3
ACAD_GROUP
350
D
  3
ACAD_LAYOUT
350
1A
  3
ACAD_MLINESTYLE
350
17
  3
ACAD_PLOTSETTINGS
350
19
  3
ACAD_PLOTSTYLENAME
350
E
  3
AcDbVariableDictionary
350
BC
  3
QCAD_OBJECTS
350
BD
  0
DICTIONARY
  5
D
100
AcDbDictionary
280
0
281
1
  0
ACDBDICTIONARYWDFLT
  5
E
100
AcDbDictionary
281
1
  3
Normal
350
F
100
AcDbDictionaryWithDefault
340
F
  0
ACDBPLACEHOLDER
  5
F
  0
DICTIONARY
  5
17
100
AcDbDictionary
280
0
281
1
  3
Standard
350
18
  0
MLINESTYLE
  5
18
100
AcDbMlineStyle
  2
STANDARD
 70
0
  3

 62
256
 51
90.0
 52
90.0
 71
2
 49
0.5
 62
256
  6
BYLAYER
 49
-0.5
 62
256
  6
BYLAYER
  0
DICTIONARY
  5
19
100
AcDbDictionary
280
0
281
1
  0
DICTIONARY
  5
1A
100
AcDbDictionary
281
1
  3
Layout1
350
1E
  3
Layout2
350
26
  3
Model
350
22
  0
LAYOUT
  5
1E
100
AcDbPlotSettings
  1

  2
none_device
  4

  6

 40
0.0
 41
0.0
 42
0.0
 43
0.0
 44
0.0
 45
0.0
 46
0.0
 47
0.0
 48
0.0
 49
0.0
140
0.0
141
0.0
142
1.0
143
1.0
 70
688
 72
0
 73
0
 74
5
  7

 75
16
147
1.0
148
0.0
149
0.0
100
AcDbLayout
  1
Layout1
 70
1
 71
1
 10
0.0
 20
0.0
 11
420.0
 21
297.0
 12
0.0
 22
0.0
 32
0.0
 14
100000000000000000000.0
 24
100000000000000000000.0
 34
100000000000000000000.0
 15
-100000000000000000000.0
 25
-100000000000000000000.0
 35
-100000000000000000000.0
146
0.0
 13
0.0
 23
0.0
 33
0.0
 16
1.0
 26
0.0
 36
0.0
 17
0.0
 27
1.0
 37
0.0
 76
0
330
1B
  0
LAYOUT
  5
22
100
AcDbPlotSettings
  1

  2
none_device
  4

  6

 40
0.0
 41
0.0
 42
0.0
 43
0.0
 44
0.0
 45
0.0
 46
0.0
 47
0.0
 48
0.0
 49
0.0
140
0.0
141
0.0
142
1.0
143
1.0
 70
1712
 72
0
 73
0
 74
0
  7

 75
0
147
1.0
148
0.0
149
0.0
100
AcDbLayout
  1
Model
 70
1
 71
0
 10
0.0
 20
0.0
 11
12.0
 21
9.0
 12
0.0
 22
0.0
 32
0.0
 14
0.0
 24
0.0
 34
0.0
 15
0.0
 25
0.0
 35
0.0
146
0.0
 13
0.0
 23
0.0
 33
0.0
 16
1.0
 26
0.0
 36
0.0
 17
0.0
 27
1.0
 37
0.0
 76
0
330
1F
  0
LAYOUT
  5
26
100
AcDbPlotSettings
  1

  2
none_device
  4

  6

 40
0.0
 41
0.0
 42
0.0
 43
0.0
 44
0.0
 45
0.0
 46
0.0
 47
0.0
 48
0.0
 49
0.0
140
0.0
141
0.0
142
1.0
143
1.0
 70
688
 72
0
 73
0
 74
5
  7

 75
16
147
1.0
148
0.0
149
0.0
100
AcDbLayout
  1
Layout2
 70
1
 71
2
 10
0.0
 20
0.0
 11
12.0
 21
9.0
 12
0.0
 22
0.0
 32
0.0
 14
0.0
 24
0.0
 34
0.0
 15
0.0
 25
0.0
 35
0.0
146
0.0
 13
0.0
 23
0.0
 33
0.0
 16
1.0
 26
0.0
 36
0.0
 17
0.0
 27
1.0
 37
0.0
 76
0
330
23
  0
DICTIONARY
  5
BC
100
AcDbDictionary
281
1
  3
DIMASSOC
350
BF
  3
HIDETEXT
350
BE
  0
DICTIONARYVAR
  5
BE
100
DictionaryVariables
280
0
  1
2
  0
DICTIONARYVAR
  5
BF
100
DictionaryVariables
280
0
  1
1
  0
DICTIONARY
  5
BD
100
AcDbDictionary
281
1
  3
ColorSettings/BackgroundColor
350
C0
  3
ColorSettings/ColorMode
350
C1
  3
Grid/DisplayGrid00
350
C2
  3
Grid/DisplayGrid01
350
C3
  3
Grid/DisplayGrid02
350
C4
  3
Grid/DisplayGrid03
350
C5
  3
Grid/GridSpacingX00
350
C6
  3
Grid/GridSpacingX01
350
C7
  3
Grid/GridSpacingX02
350
C8
  3
Grid/GridSpacingX03
350
C9
  3
Grid/GridSpacingY00
350
CA
  3
Grid/GridSpacingY01
350
CB
  3
Grid/GridSpacingY02
350
CC
  3
Grid/GridSpacingY03
350
CD
  3
Grid/IsometricGrid00
350
CE
  3
Grid/IsometricGrid01
350
CF
  3
Grid/IsometricGrid02
350
D0
  3
Grid/IsometricGrid03
350
D1
  3
Grid/IsometricProjection00
350
D2
  3
Grid/IsometricProjection01
350
D3
  3
Grid/IsometricProjection02
350
D4
  3
Grid/IsometricProjection03
350
D5
  3
Grid/MetaGridSpacingX00
350
D6
  3
Grid/MetaGridSpacingX01
350
D7
  3
Grid/MetaGridSpacingX02
350
D8
  3
Grid/MetaGridSpacingX03
350
D9
  3
Grid/MetaGridSpacingY00
350
DA
  3
Grid/MetaGridSpacingY01
350
DB
  3
Grid/MetaGridSpacingY02
350
DC
  3
Grid/MetaGridSpacingY03
350
DD
  3
MultiPageSettings/Columns
350
DE
  3
MultiPageSettings/GlueMarginsBottom
350
DF
  3
MultiPageSettings/GlueMarginsLeft
350
E0
  3
MultiPageSettings/GlueMarginsRight
350
E1
  3
MultiPageSettings/GlueMarginsTop
350
E2
  3
MultiPageSettings/PrintCropMarks
350
E3
  3
MultiPageSettings/Rows
350
E4
  3
PageSettings/OffsetX
350
E5
  3
PageSettings/OffsetY
350
E6
  3
PageSettings/PageOrientation
350
E7
  3
PageSettings/PaperHeight
350
E8
  3
PageSettings/PaperWidth
350
E9
  3
PageSettings/Scale
350
EA
  3
PageSettings/ShowPaperBorders
350
EB
  3
UnitSettings/PaperUnit
350
EC
  3
ViewportCenter
350
ED
  3
ViewportHeight
350
EE
  3
ViewportWidth
350
EF
  0
XRECORD
  5
C0
330
BD
100
AcDbXrecord
280
1
1000
Blanc
  0
XRECORD
  5
C1
330
BD
100
AcDbXrecord
280
1
1000
FullColor
  0
XRECORD
  5
C2
330
BD
100
AcDbXrecord
280
1
290
1
  0
XRECORD
  5
C3
330
BD
100
AcDbXrecord
280
1
290
1
  0
XRECORD
  5
C4
330
BD
100
AcDbXrecord
280
1
290
1
  0
XRECORD
  5
C5
330
BD
100
AcDbXrecord
280
1
290
1
  0
XRECORD
  5
C6
330
BD
100
AcDbXrecord
280
1
1000
auto
  0
XRECORD
  5
C7
330
BD
100
AcDbXrecord
280
1
1000
auto
  0
XRECORD
  5
C8
330
BD
100
AcDbXrecord
280
1
1000
auto
  0
XRECORD
  5
C9
330
BD
100
AcDbXrecord
280
1
1000
auto
  0
XRECORD
  5
CA
330
BD
100
AcDbXrecord
280
1
1000
auto
  0
XRECORD
  5
CB
330
BD
100
AcDbXrecord
280
1
1000
auto
  0
XRECORD
  5
CC
330
BD
100
AcDbXrecord
280
1
1000
auto
  0
XRECORD
  5
CD
330
BD
100
AcDbXrecord
280
1
1000
auto
  0
XRECORD
  5
CE
330
BD
100
AcDbXrecord
280
1
290
0
  0
XRECORD
  5
CF
330
BD
100
AcDbXrecord
280
1
290
0
  0
XRECORD
  5
D0
330
BD
100
AcDbXrecord
280
1
290
0
  0
XRECORD
  5
D1
330
BD
100
AcDbXrecord
280
1
290
0
  0
XRECORD
  5
D2
330
BD
100
AcDbXrecord
280
1
 90
65537
  0
XRECORD
  5
D3
330
BD
100
AcDbXrecord
280
1
 90
65537
  0
XRECORD
  5
D4
330
BD
100
AcDbXrecord
280
1
 90
65537
  0
XRECORD
  5
D5
330
BD
100
AcDbXrecord
280
1
 90
65537
  0
XRECORD
  5
D6
330
BD
100
AcDbXrecord
280
1
1000
auto
  0
XRECORD
  5
D7
330
BD
100
AcDbXrecord
280
1
1000
auto
  0
XRECORD
  5
D8
330
BD
100
AcDbXrecord
280
1
1000
auto
  0
XRECORD
  5
D9
330
BD
100
AcDbXrecord
280
1
1000
auto
  0
XRECORD
  5
DA
330
BD
100
AcDbXrecord
280
1
1000
auto
  0
XRECORD
  5
DB
330
BD
100
AcDbXrecord
280
1
1000
auto
  0
XRECORD
  5
DC
330
BD
100
AcDbXrecord
280
1
1000
auto
  0
XRECORD
  5
DD
330
BD
100
AcDbXrecord
280
1
1000
auto
  0
XRECORD
  5
DE
330
BD
100
AcDbXrecord
280
1
 90
1
  0
XRECORD
  5
DF
330
BD
100
AcDbXrecord
280
1
 40
0.0
  0
XRECORD
  5
E0
330
BD
100
AcDbXrecord
280
1
 40
0.0
  0
XRECORD
  5
E1
330
BD
100
AcDbXrecord
280
1
 40
0.0
  0
XRECORD
  5
E2
330
BD
100
AcDbXrecord
280
1
 40
0.0
  0
XRECORD
  5
E3
330
BD
100
AcDbXrecord
280
1
290
0
  0
XRECORD
  5
E4
330
BD
100
AcDbXrecord
280
1
 90
1
  0
XRECORD
  5
E5
330
BD
100
AcDbXrecord
280
1
 40
0.0
  0
XRECORD
  5
E6
330
BD
100
AcDbXrecord
280
1
 40
0.0
  0
XRECORD
  5
E7
330
BD
100
AcDbXrecord
280
1
1000
Portrait
  0
XRECORD
  5
E8
330
BD
100
AcDbXrecord
280
1
 40
297.0
  0
XRECORD
  5
E9
330
BD
100
AcDbXrecord
280
1
 40
210.0
  0
XRECORD
  5
EA
330
BD
100
AcDbXrecord
280
1
1000
1:1
  0
XRECORD
  5
EB
330
BD
100
AcDbXrecord
280
1
290
1
  0
XRECORD
  5
EC
330
BD
100
AcDbXrecord
280
1
 90
4
  0
XRECORD
  5
EE
330
BD
100
AcDbXrecord
280
1
 40
419.3751274362818435
  0
XRECORD
  5
EF
330
BD
100
AcDbXrecord
280
1
 40
932.3346626686657146
  0
ENDSEC
  0
EOF
