999
dxflib 3.17.0.0
  0
SECTION
  2
HEADER
  9
$ACADVER
  1
AC1015
  9
$HANDSEED
  5
FFFF
  9
$DIMADEC
 70
0
  9
$DIMASZ
 40
2.5
  9
$DIMAUNIT
 70
0
  9
$DIMAZIN
 70
2
  9
$DIMDEC
 70
4
  9
$DIMDSEP
 70
46
  9
$DIMEXE
 40
1.25
  9
$DIMEXO
 40
0.625
  9
$DIMGAP
 40
0.625
  9
$DIMLUNIT
 70
2
  9
$DIMSCALE
 40
1.0
  9
$DIMTSZ
 40
0.0
  9
$DIMTXT
 40
2.5
  9
$DIMZIN
 70
8
  9
$DWGCODEPAGE
  3
ANSI_1252
  9
$INSUNITS
 70
4
  9
$LTSCALE
 40
1.0
  9
$MAXACTVP
 70
64
  9
$MEASUREMENT
 70
1
  9
$PDMODE
 70
0
  9
$PDSIZE
 40
0.0
  0
ENDSEC
  0
SECTION
  2
TABLES
  0
TABLE
  2
VPORT
  5
8
100
AcDbSymbolTable
 70
1
  0
VPORT
  5
30
100
AcDbSymbolTableRecord
100
AcDbViewportTableRecord
  2
*Active
 70
0
 10
0.0
 20
0.0
 11
1.0
 21
1.0
 12
286.3055555555554861
 22
148.5
 13
0.0
 23
0.0
 14
10.0
 24
10.0
 15
10.0
 25
10.0
 16
0.0
 26
0.0
 36
1.0
 17
0.0
 27
0.0
 37
0.0
 40
297.0
 41
1.92798353909465
 42
50.0
 43
0.0
 44
0.0
 50
0.0
 51
0.0
 71
0
 72
100
 73
1
 74
3
 75
1
 76
1
 77
0
 78
0
281
0
 65
1
110
0.0
120
0.0
130
0.0
111
1.0
121
0.0
131
0.0
112
0.0
122
1.0
132
0.0
 79
0
146
0.0
  0
ENDTAB
  0
TABLE
  2
LTYPE
  5
5
100
AcDbSymbolTable
 70
41
  0
LTYPE
  5
16
100
AcDbSymbolTableRecord
100
AcDbLinetypeTableRecord
  2
Continuous
 70
0
  3
Solid line
 72
65
 73
0
 40
0.0
  0
LTYPE
  5
31
100
AcDbSymbolTableRecord
100
AcDbLinetypeTableRecord
  2
ACAD_ISO15W100
 70
0
  3
ISO double-dash triple-dot __ __ . . . __ __ . .
 72
65
 73
10
 40
39.0
 49
12.0
 74
0
 49
-3.0
 74
0
 49
12.0
 74
0
 49
-3.0
 74
0
 49
0.0
 74
0
 49
-3.0
 74
0
 49
0.0
 74
0
 49
-3.0
 74
0
 49
0.0
 74
0
 49
-3.0
 74
0
  0
LTYPE
  5
32
100
AcDbSymbolTableRecord
100
AcDbLinetypeTableRecord
  2
DIVIDE
 70
0
  3
Divide ____ . . ____ . . ____ . . ____ . . ____
 72
65
 73
6
 40
31.75
 49
12.6999999999999993
 74
0
 49
-6.3499999999999996
 74
0
 49
0.0
 74
0
 49
-6.3499999999999996
 74
0
 49
0.0
 74
0
 49
-6.3499999999999996
 74
0
  0
LTYPE
  5
33
100
AcDbSymbolTableRecord
100
AcDbLinetypeTableRecord
  2
ACAD_ISO10W100
 70
0
  3
ISO dash dot __ . __ . __ . __ . __ . __ . __ . 
 72
65
 73
4
 40
18.0
 49
12.0
 74
0
 49
-3.0
 74
0
 49
0.0
 74
0
 49
-3.0
 74
0
  0
LTYPE
  5
34
100
AcDbSymbolTableRecord
100
AcDbLinetypeTableRecord
  2
ACAD_ISO04W100
 70
0
  3
ISO long-dash dot ____ . ____ . ____ . ____ . _
 72
65
 73
4
 40
30.0
 49
24.0
 74
0
 49
-3.0
 74
0
 49
0.0
 74
0
 49
-3.0
 74
0
  0
LTYPE
  5
35
100
AcDbSymbolTableRecord
100
AcDbLinetypeTableRecord
  2
CENTER2
 70
0
  3
Center (.5x) ___ _ ___ _ ___ _ ___ _ ___ _ ___
 72
65
 73
4
 40
28.5750000000000028
 49
19.0500000000000007
 74
0
 49
-3.1749999999999998
 74
0
 49
3.1749999999999998
 74
0
 49
-3.1749999999999998
 74
0
  0
LTYPE
  5
36
100
AcDbSymbolTableRecord
100
AcDbLinetypeTableRecord
  2
ACAD_ISO11W100
 70
0
  3
ISO double-dash dot __ __ . __ __ . __ __ . __ _
 72
65
 73
6
 40
33.0
 49
12.0
 74
0
 49
-3.0
 74
0
 49
12.0
 74
0
 49
-3.0
 74
0
 49
0.0
 74
0
 49
-3.0
 74
0
  0
LTYPE
  5
37
100
AcDbSymbolTableRecord
100
AcDbLinetypeTableRecord
  2
HIDDEN2
 70
0
  3
Hidden (.5x) _ _ _ _ _ _ _ _ _ _ _ _ _ _ _ _ _ 
 72
65
 73
2
 40
4.7624999999999993
 49
3.1749999999999998
 74
0
 49
-1.5874999999999999
 74
0
  0
LTYPE
  5
38
100
AcDbSymbolTableRecord
100
AcDbLinetypeTableRecord
  2
BORDERX2
 70
0
  3
Border (2x) ____  ____  .  ____  ____  .  ___
 72
65
 73
6
 40
88.8999999999999915
 49
25.3999999999999986
 74
0
 49
-12.6999999999999993
 74
0
 49
25.3999999999999986
 74
0
 49
-12.6999999999999993
 74
0
 49
0.0
 74
0
 49
-12.6999999999999993
 74
0
  0
LTYPE
  5
39
100
AcDbSymbolTableRecord
100
AcDbLinetypeTableRecord
  2
ACAD_ISO05W100
 70
0
  3
ISO long-dash double-dot ____ .. ____ .. ____ . 
 72
65
 73
6
 40
33.0
 49
24.0
 74
0
 49
-3.0
 74
0
 49
0.0
 74
0
 49
-3.0
 74
0
 49
0.0
 74
0
 49
-3.0
 74
0
  0
LTYPE
  5
3A
100
AcDbSymbolTableRecord
100
AcDbLinetypeTableRecord
  2
DASHDOTX2
 70
0
  3
Dash dot (2x) ____  .  ____  .  ____  .  ___
 72
65
 73
4
 40
50.7999999999999972
 49
25.3999999999999986
 74
0
 49
-12.6999999999999993
 74
0
 49
0.0
 74
0
 49
-12.6999999999999993
 74
0
  0
LTYPE
  5
3B
100
AcDbSymbolTableRecord
100
AcDbLinetypeTableRecord
  2
HIDDENX2
 70
0
  3
Hidden (2x) ____ ____ ____ ____ ____ ____ ____ 
 72
65
 73
2
 40
19.0499999999999972
 49
12.6999999999999993
 74
0
 49
-6.3499999999999996
 74
0
  0
LTYPE
  5
3C
100
AcDbSymbolTableRecord
100
AcDbLinetypeTableRecord
  2
CENTERX2
 70
0
  3
Center (2x) ________  __  ________  __  _____
 72
65
 73
4
 40
101.6000000000000085
 49
63.5
 74
0
 49
-12.6999999999999993
 74
0
 49
12.6999999999999993
 74
0
 49
-12.6999999999999993
 74
0
  0
LTYPE
  5
3D
100
AcDbSymbolTableRecord
100
AcDbLinetypeTableRecord
  2
BORDER2
 70
0
  3
Border (.5x) __.__.__.__.__.__.__.__.__.__.__.
 72
65
 73
6
 40
22.2249999999999979
 49
6.3499999999999996
 74
0
 49
-3.1749999999999998
 74
0
 49
6.3499999999999996
 74
0
 49
-3.1749999999999998
 74
0
 49
0.0
 74
0
 49
-3.1749999999999998
 74
0
  0
LTYPE
  5
3E
100
AcDbSymbolTableRecord
100
AcDbLinetypeTableRecord
  2
DASHDOT2
 70
0
  3
Dash dot (.5x) _._._._._._._._._._._._._._._.
 72
65
 73
4
 40
12.6999999999999993
 49
6.3499999999999996
 74
0
 49
-3.1749999999999998
 74
0
 49
0.0
 74
0
 49
-3.1749999999999998
 74
0
  0
LTYPE
  5
3F
100
AcDbSymbolTableRecord
100
AcDbLinetypeTableRecord
  2
ACAD_ISO12W100
 70
0
  3
ISO dash double-dot __ . . __ . . __ . . __ . . 
 72
65
 73
6
 40
21.0
 49
12.0
 74
0
 49
-3.0
 74
0
 49
0.0
 74
0
 49
-3.0
 74
0
 49
0.0
 74
0
 49
-3.0
 74
0
  0
LTYPE
  5
40
100
AcDbSymbolTableRecord
100
AcDbLinetypeTableRecord
  2
ACAD_ISO07W100
 70
0
  3
ISO dot . . . . . . . . . . . . . . . . . . . . 
 72
65
 73
2
 40
3.0
 49
0.0
 74
0
 49
-3.0
 74
0
  0
LTYPE
  5
41
100
AcDbSymbolTableRecord
100
AcDbLinetypeTableRecord
  2
HIDDEN
 70
0
  3
Hidden __ __ __ __ __ __ __ __ __ __ __ __ __ __
 72
65
 73
2
 40
9.5249999999999986
 49
6.3499999999999996
 74
0
 49
-3.1749999999999998
 74
0
  0
LTYPE
  5
42
100
AcDbSymbolTableRecord
100
AcDbLinetypeTableRecord
  2
ACAD_ISO06W100
 70
0
  3
ISO long-dash triple-dot ____ ... ____ ... ____
 72
65
 73
8
 40
36.0
 49
24.0
 74
0
 49
-3.0
 74
0
 49
0.0
 74
0
 49
-3.0
 74
0
 49
0.0
 74
0
 49
-3.0
 74
0
 49
0.0
 74
0
 49
-3.0
 74
0
  0
LTYPE
  5
43
100
AcDbSymbolTableRecord
100
AcDbLinetypeTableRecord
  2
CENTER
 70
0
  3
Center ____ _ ____ _ ____ _ ____ _ ____ _ ____
 72
65
 73
4
 40
50.8000000000000043
 49
31.75
 74
0
 49
-6.3499999999999996
 74
0
 49
6.3499999999999996
 74
0
 49
-6.3499999999999996
 74
0
  0
LTYPE
  5
44
100
AcDbSymbolTableRecord
100
AcDbLinetypeTableRecord
  2
DOTX2
 70
0
  3
Dot (2x) .  .  .  .  .  .  .  .  .  .  .  .  .  .
 72
65
 73
2
 40
12.6999999999999993
 49
0.0
 74
0
 49
-12.6999999999999993
 74
0
  0
LTYPE
  5
45
100
AcDbSymbolTableRecord
100
AcDbLinetypeTableRecord
  2
PHANTOM
 70
0
  3
Phantom ______  __  __  ______  __  __  ______ 
 72
65
 73
6
 40
63.5000000000000071
 49
31.75
 74
0
 49
-6.3499999999999996
 74
0
 49
6.3499999999999996
 74
0
 49
-6.3499999999999996
 74
0
 49
6.3499999999999996
 74
0
 49
-6.3499999999999996
 74
0
  0
LTYPE
  5
46
100
AcDbSymbolTableRecord
100
AcDbLinetypeTableRecord
  2
ACAD_ISO08W100
 70
0
  3
ISO long-dash short-dash ____ __ ____ __ ____ _
 72
65
 73
4
 40
36.0
 49
24.0
 74
0
 49
-3.0
 74
0
 49
6.0
 74
0
 49
-3.0
 74
0
  0
LTYPE
  5
47
100
AcDbSymbolTableRecord
100
AcDbLinetypeTableRecord
  2
DASHEDX2
 70
0
  3
Dashed (2x) ____  ____  ____  ____  ____  ___
 72
65
 73
2
 40
38.0999999999999943
 49
25.3999999999999986
 74
0
 49
-12.6999999999999993
 74
0
  0
LTYPE
  5
48
100
AcDbSymbolTableRecord
100
AcDbLinetypeTableRecord
  2
ACAD_ISO02W100
 70
0
  3
ISO dash __ __ __ __ __ __ __ __ __ __ __ __ __
 72
65
 73
2
 40
15.0
 49
12.0
 74
0
 49
-3.0
 74
0
  0
LTYPE
  5
49
100
AcDbSymbolTableRecord
100
AcDbLinetypeTableRecord
  2
PHANTOM2
 70
0
  3
Phantom (.5x) ___ _ _ ___ _ _ ___ _ _ ___ _ _
 72
65
 73
6
 40
31.7500000000000036
 49
15.875
 74
0
 49
-3.1749999999999998
 74
0
 49
3.1749999999999998
 74
0
 49
-3.1749999999999998
 74
0
 49
3.1749999999999998
 74
0
 49
-3.1749999999999998
 74
0
  0
LTYPE
  5
4A
100
AcDbSymbolTableRecord
100
AcDbLinetypeTableRecord
  2
DASHED2
 70
0
  3
Dashed (.5x) _ _ _ _ _ _ _ _ _ _ _ _ _ _ _ _ _ 
 72
65
 73
2
 40
9.5249999999999986
 49
6.3499999999999996
 74
0
 49
-3.1749999999999998
 74
0
  0
LTYPE
  5
4B
100
AcDbSymbolTableRecord
100
AcDbLinetypeTableRecord
  2
ACAD_ISO09W100
 70
0
  3
ISO long-dash double-short-dash ____ __ __ ____
 72
65
 73
6
 40
45.0
 49
24.0
 74
0
 49
-3.0
 74
0
 49
6.0
 74
0
 49
-3.0
 74
0
 49
6.0
 74
0
 49
-3.0
 74
0
  0
LTYPE
  5
4C
100
AcDbSymbolTableRecord
100
AcDbLinetypeTableRecord
  2
ACAD_ISO13W100
 70
0
  3
ISO double-dash double-dot __ __ . . __ __ . . _
 72
65
 73
8
 40
36.0
 49
12.0
 74
0
 49
-3.0
 74
0
 49
12.0
 74
0
 49
-3.0
 74
0
 49
0.0
 74
0
 49
-3.0
 74
0
 49
0.0
 74
0
 49
-3.0
 74
0
  0
LTYPE
  5
4D
100
AcDbSymbolTableRecord
100
AcDbLinetypeTableRecord
  2
DOT2
 70
0
  3
Dot (.5x) ........................................
 72
65
 73
2
 40
3.1749999999999998
 49
0.0
 74
0
 49
-3.1749999999999998
 74
0
  0
LTYPE
  5
4E
100
AcDbSymbolTableRecord
100
AcDbLinetypeTableRecord
  2
DASHED
 70
0
  3
Dashed __ __ __ __ __ __ __ __ __ __ __ __ __ _
 72
65
 73
2
 40
19.0499999999999972
 49
12.6999999999999993
 74
0
 49
-6.3499999999999996
 74
0
  0
LTYPE
  5
4F
100
AcDbSymbolTableRecord
100
AcDbLinetypeTableRecord
  2
ACAD_ISO14W100
 70
0
  3
ISO dash triple-dot __ . . . __ . . . __ . . . _
 72
65
 73
8
 40
24.0
 49
12.0
 74
0
 49
-3.0
 74
0
 49
0.0
 74
0
 49
-3.0
 74
0
 49
0.0
 74
0
 49
-3.0
 74
0
 49
0.0
 74
0
 49
-3.0
 74
0
  0
LTYPE
  5
15
100
AcDbSymbolTableRecord
100
AcDbLinetypeTableRecord
  2
BYLAYER
 70
0
  3

 72
65
 73
0
 40
0.0
  0
LTYPE
  5
50
100
AcDbSymbolTableRecord
100
AcDbLinetypeTableRecord
  2
PHANTOMX2
 70
0
  3
Phantom (2x) ____________    ____    ____   _
 72
65
 73
6
 40
127.0000000000000142
 49
63.5
 74
0
 49
-12.6999999999999993
 74
0
 49
12.6999999999999993
 74
0
 49
-12.6999999999999993
 74
0
 49
12.6999999999999993
 74
0
 49
-12.6999999999999993
 74
0
  0
LTYPE
  5
14
100
AcDbSymbolTableRecord
100
AcDbLinetypeTableRecord
  2
BYBLOCK
 70
0
  3

 72
65
 73
0
 40
0.0
  0
LTYPE
  5
51
100
AcDbSymbolTableRecord
100
AcDbLinetypeTableRecord
  2
DIVIDEX2
 70
0
  3
Divide (2x) ________  .  .  ________  .  .  _
 72
65
 73
6
 40
63.5
 49
25.3999999999999986
 74
0
 49
-12.6999999999999993
 74
0
 49
0.0
 74
0
 49
-12.6999999999999993
 74
0
 49
0.0
 74
0
 49
-12.6999999999999993
 74
0
  0
LTYPE
  5
52
100
AcDbSymbolTableRecord
100
AcDbLinetypeTableRecord
  2
BORDER
 70
0
  3
Border __ __ . __ __ . __ __ . __ __ . __ __ .
 72
65
 73
6
 40
44.4499999999999957
 49
12.6999999999999993
 74
0
 49
-6.3499999999999996
 74
0
 49
12.6999999999999993
 74
0
 49
-6.3499999999999996
 74
0
 49
0.0
 74
0
 49
-6.3499999999999996
 74
0
  0
LTYPE
  5
53
100
AcDbSymbolTableRecord
100
AcDbLinetypeTableRecord
  2
DIVIDE2
 70
0
  3
Divide (.5x) __..__..__..__..__..__..__..__.._
 72
65
 73
6
 40
15.875
 49
6.3499999999999996
 74
0
 49
-3.1749999999999998
 74
0
 49
0.0
 74
0
 49
-3.1749999999999998
 74
0
 49
0.0
 74
0
 49
-3.1749999999999998
 74
0
  0
LTYPE
  5
54
100
AcDbSymbolTableRecord
100
AcDbLinetypeTableRecord
  2
DOT
 70
0
  3
Dot . . . . . . . . . . . . . . . . . . . . . . . .
 72
65
 73
2
 40
6.3499999999999996
 49
0.0
 74
0
 49
-6.3499999999999996
 74
0
  0
LTYPE
  5
55
100
AcDbSymbolTableRecord
100
AcDbLinetypeTableRecord
  2
DASHDOT
 70
0
  3
Dash dot __ . __ . __ . __ . __ . __ . __ . __
 72
65
 73
4
 40
25.3999999999999986
 49
12.6999999999999993
 74
0
 49
-6.3499999999999996
 74
0
 49
0.0
 74
0
 49
-6.3499999999999996
 74
0
  0
LTYPE
  5
56
100
AcDbSymbolTableRecord
100
AcDbLinetypeTableRecord
  2
ACAD_ISO03W100
 70
0
  3
ISO dash space __    __    __    __    __    __
 72
65
 73
2
 40
30.0
 49
12.0
 74
0
 49
-18.0
 74
0
  0
ENDTAB
  0
TABLE
  2
LAYER
  5
2
100
AcDbSymbolTable
 70
2
  0
LAYER
  5
57
100
AcDbSymbolTableRecord
100
AcDbLayerTableRecord
  2
layer 1
 70
0
 62
3
420
65280
  6
Continuous
370
9
390
F
  0
LAYER
  5
10
100
AcDbSymbolTableRecord
100
AcDbLayerTableRecord
  2
0
 70
0
 62
7
420
16777215
  6
Continuous
370
25
390
F
  0
ENDTAB
  0
TABLE
  2
STYLE
  5
3
100
AcDbSymbolTable
 70
1
  0
STYLE
  5
58
100
AcDbSymbolTableRecord
100
AcDbTextStyleTableRecord
  2
Standard
 70
0
 40
0.0
 41
1.0
 50
0.0
 71
0
 42
2.5
  3

  4

1001
ACAD
1000
txt
1071
0
  0
ENDTAB
  0
TABLE
  2
VIEW
  5
6
100
AcDbSymbolTable
 70
0
  0
ENDTAB
  0
TABLE
  2
UCS
  5
7
100
AcDbSymbolTable
 70
0
  0
ENDTAB
  0
TABLE
  2
APPID
  5
9
100
AcDbSymbolTable
 70
1
  0
APPID
  5
12
100
AcDbSymbolTableRecord
100
AcDbRegAppTableRecord
  2
ACAD
 70
0
  0
APPID
  5
59
100
AcDbSymbolTableRecord
100
AcDbRegAppTableRecord
  2
QCAD
 70
0
  0
ENDTAB
  0
TABLE
  2
DIMSTYLE
  5
A
100
AcDbSymbolTable
 70
1
100
AcDbDimStyleTable
 71
0
  0
DIMSTYLE
105
27
100
AcDbSymbolTableRecord
100
AcDbDimStyleTableRecord
  2
Standard
 41
2.5
 42
0.625
 43
3.75
 44
1.25
 70
0
 73
0
 74
0
 77
1
 78
8
140
2.5
141
2.5
143
0.03937007874016
147
0.625
171
3
172
1
271
2
272
2
274
3
278
44
283
0
284
8
340
58
  0
ENDTAB
  0
TABLE
  2
BLOCK_RECORD
  5
1
100
AcDbSymbolTable
 70
1
  0
BLOCK_RECORD
  5
1F
100
AcDbSymbolTableRecord
100
AcDbBlockTableRecord
  2
*Model_Space
340
22
  0
BLOCK_RECORD
  5
1B
100
AcDbSymbolTableRecord
100
AcDbBlockTableRecord
  2
*Paper_Space
340
1E
  0
BLOCK_RECORD
  5
23
100
AcDbSymbolTableRecord
100
AcDbBlockTableRecord
  2
*Paper_Space0
340
26
  0
ENDTAB
  0
ENDSEC
  0
SECTION
  2
BLOCKS
  0
BLOCK
  5
20
100
AcDbEntity
  8
0
100
AcDbBlockBegin
  2
*Model_Space
 70
0
 10
0.0
 20
0.0
 30
0.0
  3
*Model_Space
  1

  0
ENDBLK
  5
21
100
AcDbEntity
  8
0
100
AcDbBlockEnd
  0
BLOCK
  5
1C
100
AcDbEntity
 67
1
  8
0
100
AcDbBlockBegin
  2
*Paper_Space
 70
0
 10
0.0
 20
0.0
 30
0.0
  3
*Paper_Space
  1

  0
ENDBLK
  5
1D
100
AcDbEntity
 67
1
  8
0
100
AcDbBlockEnd
  0
BLOCK
  5
24
100
AcDbEntity
  8
0
100
AcDbBlockBegin
  2
*Paper_Space0
 70
0
 10
0.0
 20
0.0
 30
0.0
  3
*Paper_Space0
  1

  0
ENDBLK
  5
25
100
AcDbEntity
  8
0
100
AcDbBlockEnd
  0
ENDSEC
  0
SECTION
  2
ENTITIES
  0
LINE
  5
5A
100
AcDbEntity
  8
0
 62
256
370
13
 48
1.0
  6
BYLAYER
100
AcDbLine
 10
30.0
 20
22.4000000000000057
 30
0.0
 11
30.0
 21
27.5
 31
0.0
  0
LINE
  5
5B
100
AcDbEntity
  8
0
 62
256
370
13
 48
1.0
  6
BYLAYER
100
AcDbLine
 10
62.0000000000000284
 20
22.4000000000000057
 30
0.0
 11
62.0000000000000284
 21
27.5
 31
0.0
  0
LINE
  5
5C
100
AcDbEntity
  8
0
 62
256
370
13
 48
1.0
  6
BYLAYER
100
AcDbLine
 10
30.0
 20
54.4000000000000057
 30
0.0
 11
30.0
 21
59.5
 31
0.0
  0
LINE
  5
5D
100
AcDbEntity
  8
0
 62
256
370
13
 48
1.0
  6
BYLAYER
100
AcDbLine
 10
62.0000000000000284
 20
54.4000000000000057
 30
0.0
 11
62.0000000000000284
 21
59.5
 31
0.0
  0
LINE
  5
5E
100
AcDbEntity
  8
0
 62
256
370
13
 48
1.0
  6
BYLAYER
100
AcDbLine
 10
30.0
 20
87.4000000000000057
 30
0.0
 11
30.0
 21
92.5
 31
0.0
  0
LINE
  5
5F
100
AcDbEntity
  8
0
 62
256
370
13
 48
1.0
  6
BYLAYER
100
AcDbLine
 10
62.0000000000000284
 20
87.4000000000000057
 30
0.0
 11
62.0000000000000284
 21
92.5
 31
0.0
  0
LINE
  5
60
100
AcDbEntity
  8
0
 62
256
370
13
 48
1.0
  6
BYLAYER
100
AcDbLine
 10
30.0
 20
119.4000000000000057
 30
0.0
 11
30.0
 21
124.5
 31
0.0
  0
LINE
  5
61
100
AcDbEntity
  8
0
 62
256
370
13
 48
1.0
  6
BYLAYER
100
AcDbLine
 10
62.0000000000000284
 20
119.4000000000000057
 30
0.0
 11
62.0000000000000284
 21
124.5
 31
0.0
  0
LINE
  5
62
100
AcDbEntity
  8
0
 62
256
370
13
 48
1.0
  6
BYLAYER
100
AcDbLine
 10
30.0
 20
151.4000000000000057
 30
0.0
 11
30.0
 21
156.5
 31
0.0
  0
LINE
  5
63
100
AcDbEntity
  8
0
 62
256
370
13
 48
1.0
  6
BYLAYER
100
AcDbLine
 10
62.0000000000000284
 20
151.4000000000000057
 30
0.0
 11
62.0000000000000284
 21
156.5
 31
0.0
  0
LINE
  5
64
100
AcDbEntity
  8
0
 62
256
370
13
 48
1.0
  6
BYLAYER
100
AcDbLine
 10
30.0
 20
183.4000000000000057
 30
0.0
 11
30.0
 21
188.5
 31
0.0
  0
LINE
  5
65
100
AcDbEntity
  8
0
 62
256
370
13
 48
1.0
  6
BYLAYER
100
AcDbLine
 10
62.0000000000000284
 20
183.4000000000000057
 30
0.0
 11
62.0000000000000284
 21
188.5
 31
0.0
  0
LINE
  5
66
100
AcDbEntity
  8
0
 62
256
370
13
 48
1.0
  6
BYLAYER
100
AcDbLine
 10
30.0
 20
216.4000000000000057
 30
0.0
 11
30.0
 21
221.5
 31
0.0
  0
LINE
  5
67
100
AcDbEntity
  8
0
 62
256
370
13
 48
1.0
  6
BYLAYER
100
AcDbLine
 10
62.0000000000000284
 20
216.4000000000000057
 30
0.0
 11
62.0000000000000284
 21
221.5
 31
0.0
  0
LINE
  5
68
100
AcDbEntity
  8
0
 62
256
370
13
 48
1.0
  6
BYLAYER
100
AcDbLine
 10
30.0
 20
248.4000000000000057
 30
0.0
 11
30.0
 21
253.5
 31
0.0
  0
LINE
  5
69
100
AcDbEntity
  8
0
 62
256
370
13
 48
1.0
  6
BYLAYER
100
AcDbLine
 10
62.0000000000000284
 20
248.4000000000000057
 30
0.0
 11
62.0000000000000284
 21
253.5
 31
0.0
  0
LINE
  5
6A
100
AcDbEntity
  8
0
 62
256
370
13
 48
1.0
  6
BYLAYER
100
AcDbLine
 10
94.0
 20
22.4000000000000057
 30
0.0
 11
94.0
 21
27.5
 31
0.0
  0
LINE
  5
6B
100
AcDbEntity
  8
0
 62
256
370
13
 48
1.0
  6
BYLAYER
100
AcDbLine
 10
126.0000000000000284
 20
22.4000000000000057
 30
0.0
 11
126.0000000000000284
 21
27.5
 31
0.0
  0
LINE
  5
6C
100
AcDbEntity
  8
0
 62
256
370
13
 48
1.0
  6
BYLAYER
100
AcDbLine
 10
94.0
 20
54.4000000000000057
 30
0.0
 11
94.0
 21
59.5
 31
0.0
  0
LINE
  5
6D
100
AcDbEntity
  8
0
 62
256
370
13
 48
1.0
  6
BYLAYER
100
AcDbLine
 10
126.0000000000000284
 20
54.4000000000000057
 30
0.0
 11
126.0000000000000284
 21
59.5
 31
0.0
  0
LINE
  5
6E
100
AcDbEntity
  8
0
 62
256
370
13
 48
1.0
  6
BYLAYER
100
AcDbLine
 10
94.0
 20
87.4000000000000057
 30
0.0
 11
94.0
 21
92.5
 31
0.0
  0
LINE
  5
6F
100
AcDbEntity
  8
0
 62
256
370
13
 48
1.0
  6
BYLAYER
100
AcDbLine
 10
126.0000000000000284
 20
87.4000000000000057
 30
0.0
 11
126.0000000000000284
 21
92.5
 31
0.0
  0
LINE
  5
70
100
AcDbEntity
  8
0
 62
256
370
13
 48
1.0
  6
BYLAYER
100
AcDbLine
 10
94.0
 20
119.4000000000000057
 30
0.0
 11
94.0
 21
124.5
 31
0.0
  0
LINE
  5
71
100
AcDbEntity
  8
0
 62
256
370
13
 48
1.0
  6
BYLAYER
100
AcDbLine
 10
126.0000000000000284
 20
119.4000000000000057
 30
0.0
 11
126.0000000000000284
 21
124.5
 31
0.0
  0
LINE
  5
72
100
AcDbEntity
  8
0
 62
256
370
13
 48
1.0
  6
BYLAYER
100
AcDbLine
 10
94.0
 20
151.4000000000000057
 30
0.0
 11
94.0
 21
156.5
 31
0.0
  0
LINE
  5
73
100
AcDbEntity
  8
0
 62
256
370
13
 48
1.0
  6
BYLAYER
100
AcDbLine
 10
126.0000000000000284
 20
151.4000000000000057
 30
0.0
 11
126.0000000000000284
 21
156.5
 31
0.0
  0
LINE
  5
74
100
AcDbEntity
  8
0
 62
256
370
13
 48
1.0
  6
BYLAYER
100
AcDbLine
 10
94.0
 20
183.4000000000000057
 30
0.0
 11
94.0
 21
188.5
 31
0.0
  0
LINE
  5
75
100
AcDbEntity
  8
0
 62
256
370
13
 48
1.0
  6
BYLAYER
100
AcDbLine
 10
126.0000000000000284
 20
183.4000000000000057
 30
0.0
 11
126.0000000000000284
 21
188.5
 31
0.0
  0
LINE
  5
76
100
AcDbEntity
  8
0
 62
256
370
13
 48
1.0
  6
BYLAYER
100
AcDbLine
 10
94.0
 20
216.4000000000000057
 30
0.0
 11
94.0
 21
221.5
 31
0.0
  0
LINE
  5
77
100
AcDbEntity
  8
0
 62
256
370
13
 48
1.0
  6
BYLAYER
100
AcDbLine
 10
126.0000000000000284
 20
216.4000000000000057
 30
0.0
 11
126.0000000000000284
 21
221.5
 31
0.0
  0
LINE
  5
78
100
AcDbEntity
  8
0
 62
256
370
13
 48
1.0
  6
BYLAYER
100
AcDbLine
 10
94.0
 20
248.4000000000000057
 30
0.0
 11
94.0
 21
253.5
 31
0.0
  0
LINE
  5
79
100
AcDbEntity
  8
0
 62
256
370
13
 48
1.0
  6
BYLAYER
100
AcDbLine
 10
126.0000000000000284
 20
248.4000000000000057
 30
0.0
 11
126.0000000000000284
 21
253.5
 31
0.0
  0
LINE
  5
7A
100
AcDbEntity
  8
0
 62
256
370
13
 48
1.0
  6
BYLAYER
100
AcDbLine
 10
30.0
 20
7.3999999999999986
 30
0.0
 11
30.0
 21
15.1000000000000014
 31
0.0
  0
LINE
  5
7B
100
AcDbEntity
  8
0
 62
256
370
13
 48
1.0
  6
BYLAYER
100
AcDbLine
 10
62.0000000000000284
 20
7.3999999999999986
 30
0.0
 11
62.0000000000000284
 21
15.1000000000000014
 31
0.0
  0
LINE
  5
7C
100
AcDbEntity
  8
0
 62
256
370
13
 48
1.0
  6
BYLAYER
100
AcDbLine
 10
30.0
 20
39.3999999999999915
 30
0.0
 11
30.0
 21
47.0999999999999943
 31
0.0
  0
LINE
  5
7D
100
AcDbEntity
  8
0
 62
256
370
13
 48
1.0
  6
BYLAYER
100
AcDbLine
 10
62.0000000000000284
 20
39.3999999999999915
 30
0.0
 11
62.0000000000000284
 21
47.0999999999999943
 31
0.0
  0
LINE
  5
7E
100
AcDbEntity
  8
0
 62
256
370
13
 48
1.0
  6
BYLAYER
100
AcDbLine
 10
30.0
 20
72.4000000000000057
 30
0.0
 11
30.0
 21
80.0999999999999943
 31
0.0
  0
LINE
  5
7F
100
AcDbEntity
  8
0
 62
256
370
13
 48
1.0
  6
BYLAYER
100
AcDbLine
 10
62.0000000000000284
 20
72.4000000000000057
 30
0.0
 11
62.0000000000000284
 21
80.0999999999999943
 31
0.0
  0
LINE
  5
80
100
AcDbEntity
  8
0
 62
256
370
13
 48
1.0
  6
BYLAYER
100
AcDbLine
 10
30.0
 20
104.3999999999999915
 30
0.0
 11
30.0
 21
112.0999999999999943
 31
0.0
  0
LINE
  5
81
100
AcDbEntity
  8
0
 62
256
370
13
 48
1.0
  6
BYLAYER
100
AcDbLine
 10
62.0000000000000284
 20
104.3999999999999915
 30
0.0
 11
62.0000000000000284
 21
112.0999999999999943
 31
0.0
  0
LINE
  5
82
100
AcDbEntity
  8
0
 62
256
370
13
 48
1.0
  6
BYLAYER
100
AcDbLine
 10
30.0
 20
136.4000000000000057
 30
0.0
 11
30.0
 21
144.0999999999999943
 31
0.0
  0
LINE
  5
83
100
AcDbEntity
  8
0
 62
256
370
13
 48
1.0
  6
BYLAYER
100
AcDbLine
 10
62.0000000000000284
 20
136.4000000000000057
 30
0.0
 11
62.0000000000000284
 21
144.0999999999999943
 31
0.0
  0
LINE
  5
84
100
AcDbEntity
  8
0
 62
256
370
13
 48
1.0
  6
BYLAYER
100
AcDbLine
 10
30.0
 20
168.3999999999999773
 30
0.0
 11
30.0
 21
176.0999999999999943
 31
0.0
  0
LINE
  5
85
100
AcDbEntity
  8
0
 62
256
370
13
 48
1.0
  6
BYLAYER
100
AcDbLine
 10
62.0000000000000284
 20
168.3999999999999773
 30
0.0
 11
62.0000000000000284
 21
176.0999999999999943
 31
0.0
  0
LINE
  5
86
100
AcDbEntity
  8
0
 62
256
370
13
 48
1.0
  6
BYLAYER
100
AcDbLine
 10
30.0
 20
201.4000000000000057
 30
0.0
 11
30.0
 21
209.0999999999999943
 31
0.0
  0
LINE
  5
87
100
AcDbEntity
  8
0
 62
256
370
13
 48
1.0
  6
BYLAYER
100
AcDbLine
 10
62.0000000000000284
 20
201.4000000000000057
 30
0.0
 11
62.0000000000000284
 21
209.0999999999999943
 31
0.0
  0
LINE
  5
88
100
AcDbEntity
  8
0
 62
256
370
13
 48
1.0
  6
BYLAYER
100
AcDbLine
 10
30.0
 20
233.3999999999999773
 30
0.0
 11
30.0
 21
241.0999999999999943
 31
0.0
  0
LINE
  5
89
100
AcDbEntity
  8
0
 62
256
370
13
 48
1.0
  6
BYLAYER
100
AcDbLine
 10
62.0000000000000284
 20
233.3999999999999773
 30
0.0
 11
62.0000000000000284
 21
241.0999999999999943
 31
0.0
  0
LINE
  5
8A
100
AcDbEntity
  8
0
 62
256
370
13
 48
1.0
  6
BYLAYER
100
AcDbLine
 10
94.0
 20
7.3999999999999986
 30
0.0
 11
94.0
 21
15.1000000000000014
 31
0.0
  0
LINE
  5
8B
100
AcDbEntity
  8
0
 62
256
370
13
 48
1.0
  6
BYLAYER
100
AcDbLine
 10
126.0000000000000284
 20
7.3999999999999986
 30
0.0
 11
126.0000000000000284
 21
15.1000000000000014
 31
0.0
  0
LINE
  5
8C
100
AcDbEntity
  8
0
 62
256
370
13
 48
1.0
  6
BYLAYER
100
AcDbLine
 10
94.0
 20
39.3999999999999915
 30
0.0
 11
94.0
 21
47.0999999999999943
 31
0.0
  0
LINE
  5
8D
100
AcDbEntity
  8
0
 62
256
370
13
 48
1.0
  6
BYLAYER
100
AcDbLine
 10
126.0000000000000284
 20
39.3999999999999915
 30
0.0
 11
126.0000000000000284
 21
47.0999999999999943
 31
0.0
  0
LINE
  5
8E
100
AcDbEntity
  8
0
 62
256
370
13
 48
1.0
  6
BYLAYER
100
AcDbLine
 10
94.0
 20
72.4000000000000057
 30
0.0
 11
94.0
 21
80.0999999999999943
 31
0.0
  0
LINE
  5
8F
100
AcDbEntity
  8
0
 62
256
370
13
 48
1.0
  6
BYLAYER
100
AcDbLine
 10
126.0000000000000284
 20
72.4000000000000057
 30
0.0
 11
126.0000000000000284
 21
80.0999999999999943
 31
0.0
  0
LINE
  5
90
100
AcDbEntity
  8
0
 62
256
370
13
 48
1.0
  6
BYLAYER
100
AcDbLine
 10
94.0
 20
104.3999999999999915
 30
0.0
 11
94.0
 21
112.0999999999999943
 31
0.0
  0
LINE
  5
91
100
AcDbEntity
  8
0
 62
256
370
13
 48
1.0
  6
BYLAYER
100
AcDbLine
 10
126.0000000000000284
 20
104.3999999999999915
 30
0.0
 11
126.0000000000000284
 21
112.0999999999999943
 31
0.0
  0
LINE
  5
92
100
AcDbEntity
  8
0
 62
256
370
13
 48
1.0
  6
BYLAYER
100
AcDbLine
 10
94.0
 20
136.4000000000000057
 30
0.0
 11
94.0
 21
144.0999999999999943
 31
0.0
  0
LINE
  5
93
100
AcDbEntity
  8
0
 62
256
370
13
 48
1.0
  6
BYLAYER
100
AcDbLine
 10
126.0000000000000284
 20
136.4000000000000057
 30
0.0
 11
126.0000000000000284
 21
144.0999999999999943
 31
0.0
  0
LINE
  5
94
100
AcDbEntity
  8
0
 62
256
370
13
 48
1.0
  6
BYLAYER
100
AcDbLine
 10
94.0
 20
168.3999999999999773
 30
0.0
 11
94.0
 21
176.0999999999999943
 31
0.0
  0
LINE
  5
95
100
AcDbEntity
  8
0
 62
256
370
13
 48
1.0
  6
BYLAYER
100
AcDbLine
 10
126.0000000000000284
 20
168.3999999999999773
 30
0.0
 11
126.0000000000000284
 21
176.0999999999999943
 31
0.0
  0
LINE
  5
96
100
AcDbEntity
  8
0
 62
256
370
13
 48
1.0
  6
BYLAYER
100
AcDbLine
 10
94.0
 20
201.4000000000000057
 30
0.0
 11
94.0
 21
209.0999999999999943
 31
0.0
  0
LINE
  5
97
100
AcDbEntity
  8
0
 62
256
370
13
 48
1.0
  6
BYLAYER
100
AcDbLine
 10
126.0000000000000284
 20
201.4000000000000057
 30
0.0
 11
126.0000000000000284
 21
209.0999999999999943
 31
0.0
  0
LINE
  5
98
100
AcDbEntity
  8
0
 62
256
370
13
 48
1.0
  6
BYLAYER
100
AcDbLine
 10
94.0
 20
233.3999999999999773
 30
0.0
 11
94.0
 21
241.0999999999999943
 31
0.0
  0
LINE
  5
99
100
AcDbEntity
  8
0
 62
256
370
13
 48
1.0
  6
BYLAYER
100
AcDbLine
 10
126.0000000000000284
 20
233.3999999999999773
 30
0.0
 11
126.0000000000000284
 21
241.0999999999999943
 31
0.0
  0
LINE
  5
9A
100
AcDbEntity
  8
0
 62
256
370
13
 48
1.0
  6
BYLAYER
100
AcDbLine
 10
7.5999999999999943
 20
0.0
 30
0.0
 11
2.4999999999999716
 21
0.0
 31
0.0
  0
LINE
  5
9B
100
AcDbEntity
  8
0
 62
256
370
13
 48
1.0
  6
BYLAYER
100
AcDbLine
 10
39.5999999999999943
 20
-0.0000000000000071
 30
0.0
 11
34.4999999999999716
 21
0.0
 31
0.0
  0
LINE
  5
9C
100
AcDbEntity
  8
0
 62
256
370
13
 48
1.0
  6
BYLAYER
100
AcDbLine
 10
7.5999999999999943
 20
32.0
 30
0.0
 11
2.4999999999999716
 21
32.0
 31
0.0
  0
LINE
  5
9D
100
AcDbEntity
  8
0
 62
256
370
13
 48
1.0
  6
BYLAYER
100
AcDbLine
 10
39.5999999999999943
 20
31.9999999999999858
 30
0.0
 11
34.4999999999999716
 21
32.0
 31
0.0
  0
LINE
  5
9E
100
AcDbEntity
  8
0
 62
256
370
13
 48
1.0
  6
BYLAYER
100
AcDbLine
 10
7.5999999999999943
 20
65.0
 30
0.0
 11
2.4999999999999716
 21
65.0
 31
0.0
  0
LINE
  5
9F
100
AcDbEntity
  8
0
 62
256
370
13
 48
1.0
  6
BYLAYER
100
AcDbLine
 10
39.5999999999999943
 20
65.0
 30
0.0
 11
34.4999999999999716
 21
65.0
 31
0.0
  0
LINE
  5
A0
100
AcDbEntity
  8
0
 62
256
370
13
 48
1.0
  6
BYLAYER
100
AcDbLine
 10
7.5999999999999943
 20
97.0
 30
0.0
 11
2.4999999999999716
 21
97.0
 31
0.0
  0
LINE
  5
A1
100
AcDbEntity
  8
0
 62
256
370
13
 48
1.0
  6
BYLAYER
100
AcDbLine
 10
39.5999999999999943
 20
96.9999999999999858
 30
0.0
 11
34.4999999999999716
 21
97.0
 31
0.0
  0
LINE
  5
A2
100
AcDbEntity
  8
0
 62
256
370
13
 48
1.0
  6
BYLAYER
100
AcDbLine
 10
7.5999999999999943
 20
129.0
 30
0.0
 11
2.4999999999999716
 21
129.0
 31
0.0
  0
LINE
  5
A3
100
AcDbEntity
  8
0
 62
256
370
13
 48
1.0
  6
BYLAYER
100
AcDbLine
 10
39.5999999999999943
 20
129.0
 30
0.0
 11
34.4999999999999716
 21
129.0
 31
0.0
  0
LINE
  5
A4
100
AcDbEntity
  8
0
 62
256
370
13
 48
1.0
  6
BYLAYER
100
AcDbLine
 10
7.5999999999999943
 20
161.0
 30
0.0
 11
2.4999999999999716
 21
161.0
 31
0.0
  0
LINE
  5
A5
100
AcDbEntity
  8
0
 62
256
370
13
 48
1.0
  6
BYLAYER
100
AcDbLine
 10
39.5999999999999943
 20
161.0
 30
0.0
 11
34.4999999999999716
 21
161.0
 31
0.0
  0
LINE
  5
A6
100
AcDbEntity
  8
0
 62
256
370
13
 48
1.0
  6
BYLAYER
100
AcDbLine
 10
7.5999999999999943
 20
194.0
 30
0.0
 11
2.4999999999999716
 21
194.0
 31
0.0
  0
LINE
  5
A7
100
AcDbEntity
  8
0
 62
256
370
13
 48
1.0
  6
BYLAYER
100
AcDbLine
 10
39.5999999999999943
 20
194.0
 30
0.0
 11
34.4999999999999716
 21
194.0
 31
0.0
  0
LINE
  5
A8
100
AcDbEntity
  8
0
 62
256
370
13
 48
1.0
  6
BYLAYER
100
AcDbLine
 10
7.5999999999999943
 20
226.0
 30
0.0
 11
2.4999999999999716
 21
226.0
 31
0.0
  0
LINE
  5
A9
100
AcDbEntity
  8
0
 62
256
370
13
 48
1.0
  6
BYLAYER
100
AcDbLine
 10
39.5999999999999943
 20
226.0
 30
0.0
 11
34.4999999999999716
 21
226.0
 31
0.0
  0
LINE
  5
AA
100
AcDbEntity
  8
0
 62
256
370
13
 48
1.0
  6
BYLAYER
100
AcDbLine
 10
71.5999999999999943
 20
0.0
 30
0.0
 11
66.4999999999999716
 21
0.0
 31
0.0
  0
LINE
  5
AB
100
AcDbEntity
  8
0
 62
256
370
13
 48
1.0
  6
BYLAYER
100
AcDbLine
 10
103.5999999999999943
 20
-0.0000000000000071
 30
0.0
 11
98.4999999999999716
 21
0.0
 31
0.0
  0
LINE
  5
AC
100
AcDbEntity
  8
0
 62
256
370
13
 48
1.0
  6
BYLAYER
100
AcDbLine
 10
71.5999999999999943
 20
32.0
 30
0.0
 11
66.4999999999999716
 21
32.0
 31
0.0
  0
LINE
  5
AD
100
AcDbEntity
  8
0
 62
256
370
13
 48
1.0
  6
BYLAYER
100
AcDbLine
 10
103.5999999999999943
 20
31.9999999999999858
 30
0.0
 11
98.4999999999999716
 21
32.0
 31
0.0
  0
LINE
  5
AE
100
AcDbEntity
  8
0
 62
256
370
13
 48
1.0
  6
BYLAYER
100
AcDbLine
 10
71.5999999999999943
 20
65.0
 30
0.0
 11
66.4999999999999716
 21
65.0
 31
0.0
  0
LINE
  5
AF
100
AcDbEntity
  8
0
 62
256
370
13
 48
1.0
  6
BYLAYER
100
AcDbLine
 10
103.5999999999999943
 20
65.0
 30
0.0
 11
98.4999999999999716
 21
65.0
 31
0.0
  0
LINE
  5
B0
100
AcDbEntity
  8
0
 62
256
370
13
 48
1.0
  6
BYLAYER
100
AcDbLine
 10
71.5999999999999943
 20
97.0
 30
0.0
 11
66.4999999999999716
 21
97.0
 31
0.0
  0
LINE
  5
B1
100
AcDbEntity
  8
0
 62
256
370
13
 48
1.0
  6
BYLAYER
100
AcDbLine
 10
103.5999999999999943
 20
96.9999999999999858
 30
0.0
 11
98.4999999999999716
 21
97.0
 31
0.0
  0
LINE
  5
B2
100
AcDbEntity
  8
0
 62
256
370
13
 48
1.0
  6
BYLAYER
100
AcDbLine
 10
71.5999999999999943
 20
129.0
 30
0.0
 11
66.4999999999999716
 21
129.0
 31
0.0
  0
LINE
  5
B3
100
AcDbEntity
  8
0
 62
256
370
13
 48
1.0
  6
BYLAYER
100
AcDbLine
 10
103.5999999999999943
 20
129.0
 30
0.0
 11
98.4999999999999716
 21
129.0
 31
0.0
  0
LINE
  5
B4
100
AcDbEntity
  8
0
 62
256
370
13
 48
1.0
  6
BYLAYER
100
AcDbLine
 10
71.5999999999999943
 20
161.0
 30
0.0
 11
66.4999999999999716
 21
161.0
 31
0.0
  0
LINE
  5
B5
100
AcDbEntity
  8
0
 62
256
370
13
 48
1.0
  6
BYLAYER
100
AcDbLine
 10
103.5999999999999943
 20
161.0
 30
0.0
 11
98.4999999999999716
 21
161.0
 31
0.0
  0
LINE
  5
B6
100
AcDbEntity
  8
0
 62
256
370
13
 48
1.0
  6
BYLAYER
100
AcDbLine
 10
71.5999999999999943
 20
194.0
 30
0.0
 11
66.4999999999999716
 21
194.0
 31
0.0
  0
LINE
  5
B7
100
AcDbEntity
  8
0
 62
256
370
13
 48
1.0
  6
BYLAYER
100
AcDbLine
 10
103.5999999999999943
 20
194.0
 30
0.0
 11
98.4999999999999716
 21
194.0
 31
0.0
  0
LINE
  5
B8
100
AcDbEntity
  8
0
 62
256
370
13
 48
1.0
  6
BYLAYER
100
AcDbLine
 10
71.5999999999999943
 20
226.0
 30
0.0
 11
66.4999999999999716
 21
226.0
 31
0.0
  0
LINE
  5
B9
100
AcDbEntity
  8
0
 62
256
370
13
 48
1.0
  6
BYLAYER
100
AcDbLine
 10
103.5999999999999943
 20
226.0
 30
0.0
 11
98.4999999999999716
 21
226.0
 31
0.0
  0
LINE
  5
BA
100
AcDbEntity
  8
0
 62
256
370
13
 48
1.0
  6
BYLAYER
100
AcDbLine
 10
22.6000000000000227
 20
0.0000000000000071
 30
0.0
 11
14.9000000000000057
 21
0.0
 31
0.0
  0
LINE
  5
BB
100
AcDbEntity
  8
0
 62
256
370
13
 48
1.0
  6
BYLAYER
100
AcDbLine
 10
54.6000000000000512
 20
0.0000000000000071
 30
0.0
 11
46.9000000000000057
 21
0.0
 31
0.0
  0
LINE
  5
BC
100
AcDbEntity
  8
0
 62
256
370
13
 48
1.0
  6
BYLAYER
100
AcDbLine
 10
22.6000000000000227
 20
32.0
 30
0.0
 11
14.9000000000000057
 21
32.0
 31
0.0
  0
LINE
  5
BD
100
AcDbEntity
  8
0
 62
256
370
13
 48
1.0
  6
BYLAYER
100
AcDbLine
 10
54.6000000000000512
 20
32.0
 30
0.0
 11
46.9000000000000057
 21
32.0
 31
0.0
  0
LINE
  5
BE
100
AcDbEntity
  8
0
 62
256
370
13
 48
1.0
  6
BYLAYER
100
AcDbLine
 10
22.6000000000000227
 20
65.0
 30
0.0
 11
14.9000000000000057
 21
65.0
 31
0.0
  0
LINE
  5
BF
100
AcDbEntity
  8
0
 62
256
370
13
 48
1.0
  6
BYLAYER
100
AcDbLine
 10
54.6000000000000512
 20
65.0
 30
0.0
 11
46.9000000000000057
 21
65.0
 31
0.0
  0
LINE
  5
C0
100
AcDbEntity
  8
0
 62
256
370
13
 48
1.0
  6
BYLAYER
100
AcDbLine
 10
22.6000000000000227
 20
97.0
 30
0.0
 11
14.9000000000000057
 21
97.0
 31
0.0
  0
LINE
  5
C1
100
AcDbEntity
  8
0
 62
256
370
13
 48
1.0
  6
BYLAYER
100
AcDbLine
 10
54.6000000000000512
 20
97.0
 30
0.0
 11
46.9000000000000057
 21
97.0
 31
0.0
  0
LINE
  5
C2
100
AcDbEntity
  8
0
 62
256
370
13
 48
1.0
  6
BYLAYER
100
AcDbLine
 10
22.6000000000000227
 20
129.0
 30
0.0
 11
14.9000000000000057
 21
129.0
 31
0.0
  0
LINE
  5
C3
100
AcDbEntity
  8
0
 62
256
370
13
 48
1.0
  6
BYLAYER
100
AcDbLine
 10
54.6000000000000512
 20
129.0
 30
0.0
 11
46.9000000000000057
 21
129.0
 31
0.0
  0
LINE
  5
C4
100
AcDbEntity
  8
0
 62
256
370
13
 48
1.0
  6
BYLAYER
100
AcDbLine
 10
22.6000000000000227
 20
161.0
 30
0.0
 11
14.9000000000000057
 21
161.0
 31
0.0
  0
LINE
  5
C5
100
AcDbEntity
  8
0
 62
256
370
13
 48
1.0
  6
BYLAYER
100
AcDbLine
 10
54.6000000000000512
 20
161.0
 30
0.0
 11
46.9000000000000057
 21
161.0
 31
0.0
  0
LINE
  5
C6
100
AcDbEntity
  8
0
 62
256
370
13
 48
1.0
  6
BYLAYER
100
AcDbLine
 10
22.6000000000000227
 20
194.0
 30
0.0
 11
14.9000000000000057
 21
194.0
 31
0.0
  0
LINE
  5
C7
100
AcDbEntity
  8
0
 62
256
370
13
 48
1.0
  6
BYLAYER
100
AcDbLine
 10
54.6000000000000512
 20
194.0
 30
0.0
 11
46.9000000000000057
 21
194.0
 31
0.0
  0
LINE
  5
C8
100
AcDbEntity
  8
0
 62
256
370
13
 48
1.0
  6
BYLAYER
100
AcDbLine
 10
22.6000000000000227
 20
226.0
 30
0.0
 11
14.9000000000000057
 21
226.0
 31
0.0
  0
LINE
  5
C9
100
AcDbEntity
  8
0
 62
256
370
13
 48
1.0
  6
BYLAYER
100
AcDbLine
 10
54.6000000000000512
 20
226.0
 30
0.0
 11
46.9000000000000057
 21
226.0
 31
0.0
  0
LINE
  5
CA
100
AcDbEntity
  8
0
 62
256
370
13
 48
1.0
  6
BYLAYER
100
AcDbLine
 10
86.6000000000000227
 20
0.0000000000000071
 30
0.0
 11
78.9000000000000057
 21
0.0
 31
0.0
  0
LINE
  5
CB
100
AcDbEntity
  8
0
 62
256
370
13
 48
1.0
  6
BYLAYER
100
AcDbLine
 10
118.6000000000000512
 20
0.0000000000000071
 30
0.0
 11
110.9000000000000057
 21
0.0
 31
0.0
  0
LINE
  5
CC
100
AcDbEntity
  8
0
 62
256
370
13
 48
1.0
  6
BYLAYER
100
AcDbLine
 10
86.6000000000000227
 20
32.0
 30
0.0
 11
78.9000000000000057
 21
32.0
 31
0.0
  0
LINE
  5
CD
100
AcDbEntity
  8
0
 62
256
370
13
 48
1.0
  6
BYLAYER
100
AcDbLine
 10
118.6000000000000512
 20
32.0
 30
0.0
 11
110.9000000000000057
 21
32.0
 31
0.0
  0
LINE
  5
CE
100
AcDbEntity
  8
0
 62
256
370
13
 48
1.0
  6
BYLAYER
100
AcDbLine
 10
86.6000000000000227
 20
65.0
 30
0.0
 11
78.9000000000000057
 21
65.0
 31
0.0
  0
LINE
  5
CF
100
AcDbEntity
  8
0
 62
256
370
13
 48
1.0
  6
BYLAYER
100
AcDbLine
 10
118.6000000000000512
 20
65.0
 30
0.0
 11
110.9000000000000057
 21
65.0
 31
0.0
  0
LINE
  5
D0
100
AcDbEntity
  8
0
 62
256
370
13
 48
1.0
  6
BYLAYER
100
AcDbLine
 10
86.6000000000000227
 20
97.0
 30
0.0
 11
78.9000000000000057
 21
97.0
 31
0.0
  0
LINE
  5
D1
100
AcDbEntity
  8
0
 62
256
370
13
 48
1.0
  6
BYLAYER
100
AcDbLine
 10
118.6000000000000512
 20
97.0
 30
0.0
 11
110.9000000000000057
 21
97.0
 31
0.0
  0
LINE
  5
D2
100
AcDbEntity
  8
0
 62
256
370
13
 48
1.0
  6
BYLAYER
100
AcDbLine
 10
86.6000000000000227
 20
129.0
 30
0.0
 11
78.9000000000000057
 21
129.0
 31
0.0
  0
LINE
  5
D3
100
AcDbEntity
  8
0
 62
256
370
13
 48
1.0
  6
BYLAYER
100
AcDbLine
 10
118.6000000000000512
 20
129.0
 30
0.0
 11
110.9000000000000057
 21
129.0
 31
0.0
  0
LINE
  5
D4
100
AcDbEntity
  8
0
 62
256
370
13
 48
1.0
  6
BYLAYER
100
AcDbLine
 10
86.6000000000000227
 20
161.0
 30
0.0
 11
78.9000000000000057
 21
161.0
 31
0.0
  0
LINE
  5
D5
100
AcDbEntity
  8
0
 62
256
370
13
 48
1.0
  6
BYLAYER
100
AcDbLine
 10
118.6000000000000512
 20
161.0
 30
0.0
 11
110.9000000000000057
 21
161.0
 31
0.0
  0
LINE
  5
D6
100
AcDbEntity
  8
0
 62
256
370
13
 48
1.0
  6
BYLAYER
100
AcDbLine
 10
86.6000000000000227
 20
194.0
 30
0.0
 11
78.9000000000000057
 21
194.0
 31
0.0
  0
LINE
  5
D7
100
AcDbEntity
  8
0
 62
256
370
13
 48
1.0
  6
BYLAYER
100
AcDbLine
 10
118.6000000000000512
 20
194.0
 30
0.0
 11
110.9000000000000057
 21
194.0
 31
0.0
  0
LINE
  5
D8
100
AcDbEntity
  8
0
 62
256
370
13
 48
1.0
  6
BYLAYER
100
AcDbLine
 10
86.6000000000000227
 20
226.0
 30
0.0
 11
78.9000000000000057
 21
226.0
 31
0.0
  0
LINE
  5
D9
100
AcDbEntity
  8
0
 62
256
370
13
 48
1.0
  6
BYLAYER
100
AcDbLine
 10
118.6000000000000512
 20
226.0
 30
0.0
 11
110.9000000000000057
 21
226.0
 31
0.0
  0
LINE
  5
DA
100
AcDbEntity
  8
0
 62
256
370
13
 48
1.0
  6
BYLAYER
100
AcDbLine
 10
7.6000000000000227
 20
30.0
 30
0.0
 11
0.0
 21
30.0
 31
0.0
  0
LINE
  5
DB
100
AcDbEntity
  8
0
 62
256
370
13
 48
1.0
  6
BYLAYER
100
AcDbLine
 10
39.6000000000000227
 20
30.0
 30
0.0
 11
32.0
 21
30.0
 31
0.0
  0
LINE
  5
DC
100
AcDbEntity
  8
0
 62
256
370
13
 48
1.0
  6
BYLAYER
100
AcDbLine
 10
7.6000000000000227
 20
62.0
 30
0.0
 11
0.0
 21
62.0
 31
0.0
  0
LINE
  5
DD
100
AcDbEntity
  8
0
 62
256
370
13
 48
1.0
  6
BYLAYER
100
AcDbLine
 10
39.6000000000000227
 20
62.0
 30
0.0
 11
32.0
 21
62.0
 31
0.0
  0
LINE
  5
DE
100
AcDbEntity
  8
0
 62
256
370
13
 48
1.0
  6
BYLAYER
100
AcDbLine
 10
7.6000000000000227
 20
95.0
 30
0.0
 11
0.0
 21
95.0
 31
0.0
  0
LINE
  5
DF
100
AcDbEntity
  8
0
 62
256
370
13
 48
1.0
  6
BYLAYER
100
AcDbLine
 10
39.6000000000000227
 20
95.0
 30
0.0
 11
32.0
 21
95.0
 31
0.0
  0
LINE
  5
E0
100
AcDbEntity
  8
0
 62
256
370
13
 48
1.0
  6
BYLAYER
100
AcDbLine
 10
7.6000000000000227
 20
127.0
 30
0.0
 11
0.0
 21
127.0
 31
0.0
  0
LINE
  5
E1
100
AcDbEntity
  8
0
 62
256
370
13
 48
1.0
  6
BYLAYER
100
AcDbLine
 10
39.6000000000000227
 20
127.0
 30
0.0
 11
32.0
 21
127.0
 31
0.0
  0
LINE
  5
E2
100
AcDbEntity
  8
0
 62
256
370
13
 48
1.0
  6
BYLAYER
100
AcDbLine
 10
7.6000000000000227
 20
159.0
 30
0.0
 11
0.0
 21
159.0
 31
0.0
  0
LINE
  5
E3
100
AcDbEntity
  8
0
 62
256
370
13
 48
1.0
  6
BYLAYER
100
AcDbLine
 10
39.6000000000000227
 20
159.0
 30
0.0
 11
32.0
 21
159.0
 31
0.0
  0
LINE
  5
E4
100
AcDbEntity
  8
0
 62
256
370
13
 48
1.0
  6
BYLAYER
100
AcDbLine
 10
7.6000000000000227
 20
191.0
 30
0.0
 11
0.0
 21
191.0
 31
0.0
  0
LINE
  5
E5
100
AcDbEntity
  8
0
 62
256
370
13
 48
1.0
  6
BYLAYER
100
AcDbLine
 10
39.6000000000000227
 20
191.0
 30
0.0
 11
32.0
 21
191.0
 31
0.0
  0
LINE
  5
E6
100
AcDbEntity
  8
0
 62
256
370
13
 48
1.0
  6
BYLAYER
100
AcDbLine
 10
7.6000000000000227
 20
224.0
 30
0.0
 11
0.0
 21
224.0
 31
0.0
  0
LINE
  5
E7
100
AcDbEntity
  8
0
 62
256
370
13
 48
1.0
  6
BYLAYER
100
AcDbLine
 10
39.6000000000000227
 20
224.0
 30
0.0
 11
32.0
 21
224.0
 31
0.0
  0
LINE
  5
E8
100
AcDbEntity
  8
0
 62
256
370
13
 48
1.0
  6
BYLAYER
100
AcDbLine
 10
7.6000000000000227
 20
256.0
 30
0.0
 11
0.0
 21
256.0
 31
0.0
  0
LINE
  5
E9
100
AcDbEntity
  8
0
 62
256
370
13
 48
1.0
  6
BYLAYER
100
AcDbLine
 10
39.6000000000000227
 20
256.0
 30
0.0
 11
32.0
 21
256.0
 31
0.0
  0
LINE
  5
EA
100
AcDbEntity
  8
0
 62
256
370
13
 48
1.0
  6
BYLAYER
100
AcDbLine
 10
71.6000000000000227
 20
30.0
 30
0.0
 11
64.0
 21
30.0
 31
0.0
  0
LINE
  5
EB
100
AcDbEntity
  8
0
 62
256
370
13
 48
1.0
  6
BYLAYER
100
AcDbLine
 10
103.6000000000000227
 20
30.0
 30
0.0
 11
96.0
 21
30.0
 31
0.0
  0
LINE
  5
EC
100
AcDbEntity
  8
0
 62
256
370
13
 48
1.0
  6
BYLAYER
100
AcDbLine
 10
71.6000000000000227
 20
62.0
 30
0.0
 11
64.0
 21
62.0
 31
0.0
  0
LINE
  5
ED
100
AcDbEntity
  8
0
 62
256
370
13
 48
1.0
  6
BYLAYER
100
AcDbLine
 10
103.6000000000000227
 20
62.0
 30
0.0
 11
96.0
 21
62.0
 31
0.0
  0
LINE
  5
EE
100
AcDbEntity
  8
0
 62
256
370
13
 48
1.0
  6
BYLAYER
100
AcDbLine
 10
71.6000000000000227
 20
95.0
 30
0.0
 11
64.0
 21
95.0
 31
0.0
  0
LINE
  5
EF
100
AcDbEntity
  8
0
 62
256
370
13
 48
1.0
  6
BYLAYER
100
AcDbLine
 10
103.6000000000000227
 20
95.0
 30
0.0
 11
96.0
 21
95.0
 31
0.0
  0
LINE
  5
F0
100
AcDbEntity
  8
0
 62
256
370
13
 48
1.0
  6
BYLAYER
100
AcDbLine
 10
71.6000000000000227
 20
127.0
 30
0.0
 11
64.0
 21
127.0
 31
0.0
  0
LINE
  5
F1
100
AcDbEntity
  8
0
 62
256
370
13
 48
1.0
  6
BYLAYER
100
AcDbLine
 10
103.6000000000000227
 20
127.0
 30
0.0
 11
96.0
 21
127.0
 31
0.0
  0
LINE
  5
F2
100
AcDbEntity
  8
0
 62
256
370
13
 48
1.0
  6
BYLAYER
100
AcDbLine
 10
71.6000000000000227
 20
159.0
 30
0.0
 11
64.0
 21
159.0
 31
0.0
  0
LINE
  5
F3
100
AcDbEntity
  8
0
 62
256
370
13
 48
1.0
  6
BYLAYER
100
AcDbLine
 10
103.6000000000000227
 20
159.0
 30
0.0
 11
96.0
 21
159.0
 31
0.0
  0
LINE
  5
F4
100
AcDbEntity
  8
0
 62
256
370
13
 48
1.0
  6
BYLAYER
100
AcDbLine
 10
71.6000000000000227
 20
191.0
 30
0.0
 11
64.0
 21
191.0
 31
0.0
  0
LINE
  5
F5
100
AcDbEntity
  8
0
 62
256
370
13
 48
1.0
  6
BYLAYER
100
AcDbLine
 10
103.6000000000000227
 20
191.0
 30
0.0
 11
96.0
 21
191.0
 31
0.0
  0
LINE
  5
F6
100
AcDbEntity
  8
0
 62
256
370
13
 48
1.0
  6
BYLAYER
100
AcDbLine
 10
71.6000000000000227
 20
224.0
 30
0.0
 11
64.0
 21
224.0
 31
0.0
  0
LINE
  5
F7
100
AcDbEntity
  8
0
 62
256
370
13
 48
1.0
  6
BYLAYER
100
AcDbLine
 10
103.6000000000000227
 20
224.0
 30
0.0
 11
96.0
 21
224.0
 31
0.0
  0
LINE
  5
F8
100
AcDbEntity
  8
0
 62
256
370
13
 48
1.0
  6
BYLAYER
100
AcDbLine
 10
71.6000000000000227
 20
256.0
 30
0.0
 11
64.0
 21
256.0
 31
0.0
  0
LINE
  5
F9
100
AcDbEntity
  8
0
 62
256
370
13
 48
1.0
  6
BYLAYER
100
AcDbLine
 10
103.6000000000000227
 20
256.0
 30
0.0
 11
96.0
 21
256.0
 31
0.0
  0
LINE
  5
FA
100
AcDbEntity
  8
0
 62
256
370
13
 48
1.0
  6
BYLAYER
100
AcDbLine
 10
22.6000000000000227
 20
30.0
 30
0.0
 11
14.9000000000000057
 21
30.0
 31
0.0
  0
LINE
  5
FB
100
AcDbEntity
  8
0
 62
256
370
13
 48
1.0
  6
BYLAYER
100
AcDbLine
 10
54.6000000000000512
 20
30.0
 30
0.0
 11
46.9000000000000057
 21
30.0
 31
0.0
  0
LINE
  5
FC
100
AcDbEntity
  8
0
 62
256
370
13
 48
1.0
  6
BYLAYER
100
AcDbLine
 10
22.6000000000000227
 20
62.0
 30
0.0
 11
14.9000000000000057
 21
62.0
 31
0.0
  0
LINE
  5
FD
100
AcDbEntity
  8
0
 62
256
370
13
 48
1.0
  6
BYLAYER
100
AcDbLine
 10
54.6000000000000512
 20
62.0
 30
0.0
 11
46.9000000000000057
 21
62.0
 31
0.0
  0
LINE
  5
FE
100
AcDbEntity
  8
0
 62
256
370
13
 48
1.0
  6
BYLAYER
100
AcDbLine
 10
22.6000000000000227
 20
95.0
 30
0.0
 11
14.9000000000000057
 21
95.0
 31
0.0
  0
LINE
  5
FF
100
AcDbEntity
  8
0
 62
256
370
13
 48
1.0
  6
BYLAYER
100
AcDbLine
 10
54.6000000000000512
 20
95.0
 30
0.0
 11
46.9000000000000057
 21
95.0
 31
0.0
  0
LINE
  5
100
100
AcDbEntity
  8
0
 62
256
370
13
 48
1.0
  6
BYLAYER
100
AcDbLine
 10
22.6000000000000227
 20
127.0
 30
0.0
 11
14.9000000000000057
 21
127.0
 31
0.0
  0
LINE
  5
101
100
AcDbEntity
  8
0
 62
256
370
13
 48
1.0
  6
BYLAYER
100
AcDbLine
 10
54.6000000000000512
 20
127.0
 30
0.0
 11
46.9000000000000057
 21
127.0
 31
0.0
  0
LINE
  5
102
100
AcDbEntity
  8
0
 62
256
370
13
 48
1.0
  6
BYLAYER
100
AcDbLine
 10
22.6000000000000227
 20
159.0
 30
0.0
 11
14.9000000000000057
 21
159.0
 31
0.0
  0
LINE
  5
103
100
AcDbEntity
  8
0
 62
256
370
13
 48
1.0
  6
BYLAYER
100
AcDbLine
 10
54.6000000000000512
 20
159.0
 30
0.0
 11
46.9000000000000057
 21
159.0
 31
0.0
  0
LINE
  5
104
100
AcDbEntity
  8
0
 62
256
370
13
 48
1.0
  6
BYLAYER
100
AcDbLine
 10
22.6000000000000227
 20
191.0
 30
0.0
 11
14.9000000000000057
 21
191.0
 31
0.0
  0
LINE
  5
105
100
AcDbEntity
  8
0
 62
256
370
13
 48
1.0
  6
BYLAYER
100
AcDbLine
 10
54.6000000000000512
 20
191.0
 30
0.0
 11
46.9000000000000057
 21
191.0
 31
0.0
  0
LINE
  5
106
100
AcDbEntity
  8
0
 62
256
370
13
 48
1.0
  6
BYLAYER
100
AcDbLine
 10
22.6000000000000227
 20
224.0
 30
0.0
 11
14.9000000000000057
 21
224.0
 31
0.0
  0
LINE
  5
107
100
AcDbEntity
  8
0
 62
256
370
13
 48
1.0
  6
BYLAYER
100
AcDbLine
 10
54.6000000000000512
 20
224.0
 30
0.0
 11
46.9000000000000057
 21
224.0
 31
0.0
  0
LINE
  5
108
100
AcDbEntity
  8
0
 62
256
370
13
 48
1.0
  6
BYLAYER
100
AcDbLine
 10
22.6000000000000227
 20
256.0
 30
0.0
 11
14.9000000000000057
 21
256.0
 31
0.0
  0
LINE
  5
109
100
AcDbEntity
  8
0
 62
256
370
13
 48
1.0
  6
BYLAYER
100
AcDbLine
 10
54.6000000000000512
 20
256.0
 30
0.0
 11
46.9000000000000057
 21
256.0
 31
0.0
  0
LINE
  5
10A
100
AcDbEntity
  8
0
 62
256
370
13
 48
1.0
  6
BYLAYER
100
AcDbLine
 10
86.6000000000000227
 20
30.0
 30
0.0
 11
78.9000000000000057
 21
30.0
 31
0.0
  0
LINE
  5
10B
100
AcDbEntity
  8
0
 62
256
370
13
 48
1.0
  6
BYLAYER
100
AcDbLine
 10
118.6000000000000512
 20
30.0
 30
0.0
 11
110.9000000000000057
 21
30.0
 31
0.0
  0
LINE
  5
10C
100
AcDbEntity
  8
0
 62
256
370
13
 48
1.0
  6
BYLAYER
100
AcDbLine
 10
86.6000000000000227
 20
62.0
 30
0.0
 11
78.9000000000000057
 21
62.0
 31
0.0
  0
LINE
  5
10D
100
AcDbEntity
  8
0
 62
256
370
13
 48
1.0
  6
BYLAYER
100
AcDbLine
 10
118.6000000000000512
 20
62.0
 30
0.0
 11
110.9000000000000057
 21
62.0
 31
0.0
  0
LINE
  5
10E
100
AcDbEntity
  8
0
 62
256
370
13
 48
1.0
  6
BYLAYER
100
AcDbLine
 10
86.6000000000000227
 20
95.0
 30
0.0
 11
78.9000000000000057
 21
95.0
 31
0.0
  0
LINE
  5
10F
100
AcDbEntity
  8
0
 62
256
370
13
 48
1.0
  6
BYLAYER
100
AcDbLine
 10
118.6000000000000512
 20
95.0
 30
0.0
 11
110.9000000000000057
 21
95.0
 31
0.0
  0
LINE
  5
110
100
AcDbEntity
  8
0
 62
256
370
13
 48
1.0
  6
BYLAYER
100
AcDbLine
 10
86.6000000000000227
 20
127.0
 30
0.0
 11
78.9000000000000057
 21
127.0
 31
0.0
  0
LINE
  5
111
100
AcDbEntity
  8
0
 62
256
370
13
 48
1.0
  6
BYLAYER
100
AcDbLine
 10
118.6000000000000512
 20
127.0
 30
0.0
 11
110.9000000000000057
 21
127.0
 31
0.0
  0
LINE
  5
112
100
AcDbEntity
  8
0
 62
256
370
13
 48
1.0
  6
BYLAYER
100
AcDbLine
 10
86.6000000000000227
 20
159.0
 30
0.0
 11
78.9000000000000057
 21
159.0
 31
0.0
  0
LINE
  5
113
100
AcDbEntity
  8
0
 62
256
370
13
 48
1.0
  6
BYLAYER
100
AcDbLine
 10
118.6000000000000512
 20
159.0
 30
0.0
 11
110.9000000000000057
 21
159.0
 31
0.0
  0
LINE
  5
114
100
AcDbEntity
  8
0
 62
256
370
13
 48
1.0
  6
BYLAYER
100
AcDbLine
 10
86.6000000000000227
 20
191.0
 30
0.0
 11
78.9000000000000057
 21
191.0
 31
0.0
  0
LINE
  5
115
100
AcDbEntity
  8
0
 62
256
370
13
 48
1.0
  6
BYLAYER
100
AcDbLine
 10
118.6000000000000512
 20
191.0
 30
0.0
 11
110.9000000000000057
 21
191.0
 31
0.0
  0
LINE
  5
116
100
AcDbEntity
  8
0
 62
256
370
13
 48
1.0
  6
BYLAYER
100
AcDbLine
 10
86.6000000000000227
 20
224.0
 30
0.0
 11
78.9000000000000057
 21
224.0
 31
0.0
  0
LINE
  5
117
100
AcDbEntity
  8
0
 62
256
370
13
 48
1.0
  6
BYLAYER
100
AcDbLine
 10
118.6000000000000512
 20
224.0
 30
0.0
 11
110.9000000000000057
 21
224.0
 31
0.0
  0
LINE
  5
118
100
AcDbEntity
  8
0
 62
256
370
13
 48
1.0
  6
BYLAYER
100
AcDbLine
 10
86.6000000000000227
 20
256.0
 30
0.0
 11
78.9000000000000057
 21
256.0
 31
0.0
  0
LINE
  5
119
100
AcDbEntity
  8
0
 62
256
370
13
 48
1.0
  6
BYLAYER
100
AcDbLine
 10
118.6000000000000512
 20
256.0
 30
0.0
 11
110.9000000000000057
 21
256.0
 31
0.0
  0
LINE
  5
11A
100
AcDbEntity
  8
0
 62
256
370
13
 48
1.0
  6
BYLAYER
100
AcDbLine
 10
0.0
 20
7.3999999999999986
 30
0.0
 11
0.0
 21
15.1000000000000014
 31
0.0
  0
LINE
  5
11B
100
AcDbEntity
  8
0
 62
256
370
13
 48
1.0
  6
BYLAYER
100
AcDbLine
 10
32.0
 20
7.3999999999999986
 30
0.0
 11
32.0
 21
15.1000000000000014
 31
0.0
  0
LINE
  5
11C
100
AcDbEntity
  8
0
 62
256
370
13
 48
1.0
  6
BYLAYER
100
AcDbLine
 10
0.0
 20
39.3999999999999915
 30
0.0
 11
0.0
 21
47.0999999999999943
 31
0.0
  0
LINE
  5
11D
100
AcDbEntity
  8
0
 62
256
370
13
 48
1.0
  6
BYLAYER
100
AcDbLine
 10
32.0
 20
39.3999999999999915
 30
0.0
 11
32.0
 21
47.0999999999999943
 31
0.0
  0
LINE
  5
11E
100
AcDbEntity
  8
0
 62
256
370
13
 48
1.0
  6
BYLAYER
100
AcDbLine
 10
0.0
 20
72.4000000000000057
 30
0.0
 11
0.0
 21
80.0999999999999943
 31
0.0
  0
LINE
  5
11F
100
AcDbEntity
  8
0
 62
256
370
13
 48
1.0
  6
BYLAYER
100
AcDbLine
 10
32.0
 20
72.4000000000000057
 30
0.0
 11
32.0
 21
80.0999999999999943
 31
0.0
  0
LINE
  5
120
100
AcDbEntity
  8
0
 62
256
370
13
 48
1.0
  6
BYLAYER
100
AcDbLine
 10
0.0
 20
104.3999999999999915
 30
0.0
 11
0.0
 21
112.0999999999999943
 31
0.0
  0
LINE
  5
121
100
AcDbEntity
  8
0
 62
256
370
13
 48
1.0
  6
BYLAYER
100
AcDbLine
 10
32.0
 20
104.3999999999999915
 30
0.0
 11
32.0
 21
112.0999999999999943
 31
0.0
  0
LINE
  5
122
100
AcDbEntity
  8
0
 62
256
370
13
 48
1.0
  6
BYLAYER
100
AcDbLine
 10
0.0
 20
136.4000000000000057
 30
0.0
 11
0.0
 21
144.0999999999999943
 31
0.0
  0
LINE
  5
123
100
AcDbEntity
  8
0
 62
256
370
13
 48
1.0
  6
BYLAYER
100
AcDbLine
 10
32.0
 20
136.4000000000000057
 30
0.0
 11
32.0
 21
144.0999999999999943
 31
0.0
  0
LINE
  5
124
100
AcDbEntity
  8
0
 62
256
370
13
 48
1.0
  6
BYLAYER
100
AcDbLine
 10
0.0
 20
168.3999999999999773
 30
0.0
 11
0.0
 21
176.0999999999999943
 31
0.0
  0
LINE
  5
125
100
AcDbEntity
  8
0
 62
256
370
13
 48
1.0
  6
BYLAYER
100
AcDbLine
 10
32.0
 20
168.3999999999999773
 30
0.0
 11
32.0
 21
176.0999999999999943
 31
0.0
  0
LINE
  5
126
100
AcDbEntity
  8
0
 62
256
370
13
 48
1.0
  6
BYLAYER
100
AcDbLine
 10
0.0
 20
201.4000000000000057
 30
0.0
 11
0.0
 21
209.0999999999999943
 31
0.0
  0
LINE
  5
127
100
AcDbEntity
  8
0
 62
256
370
13
 48
1.0
  6
BYLAYER
100
AcDbLine
 10
32.0
 20
201.4000000000000057
 30
0.0
 11
32.0
 21
209.0999999999999943
 31
0.0
  0
LINE
  5
128
100
AcDbEntity
  8
0
 62
256
370
13
 48
1.0
  6
BYLAYER
100
AcDbLine
 10
0.0
 20
233.3999999999999773
 30
0.0
 11
0.0
 21
241.0999999999999943
 31
0.0
  0
LINE
  5
129
100
AcDbEntity
  8
0
 62
256
370
13
 48
1.0
  6
BYLAYER
100
AcDbLine
 10
32.0
 20
233.3999999999999773
 30
0.0
 11
32.0
 21
241.0999999999999943
 31
0.0
  0
LINE
  5
12A
100
AcDbEntity
  8
0
 62
256
370
13
 48
1.0
  6
BYLAYER
100
AcDbLine
 10
64.0
 20
7.3999999999999986
 30
0.0
 11
64.0
 21
15.1000000000000014
 31
0.0
  0
LINE
  5
12B
100
AcDbEntity
  8
0
 62
256
370
13
 48
1.0
  6
BYLAYER
100
AcDbLine
 10
96.0
 20
7.3999999999999986
 30
0.0
 11
96.0
 21
15.1000000000000014
 31
0.0
  0
LINE
  5
12C
100
AcDbEntity
  8
0
 62
256
370
13
 48
1.0
  6
BYLAYER
100
AcDbLine
 10
64.0
 20
39.3999999999999915
 30
0.0
 11
64.0
 21
47.0999999999999943
 31
0.0
  0
LINE
  5
12D
100
AcDbEntity
  8
0
 62
256
370
13
 48
1.0
  6
BYLAYER
100
AcDbLine
 10
96.0
 20
39.3999999999999915
 30
0.0
 11
96.0
 21
47.0999999999999943
 31
0.0
  0
LINE
  5
12E
100
AcDbEntity
  8
0
 62
256
370
13
 48
1.0
  6
BYLAYER
100
AcDbLine
 10
64.0
 20
72.4000000000000057
 30
0.0
 11
64.0
 21
80.0999999999999943
 31
0.0
  0
LINE
  5
12F
100
AcDbEntity
  8
0
 62
256
370
13
 48
1.0
  6
BYLAYER
100
AcDbLine
 10
96.0
 20
72.4000000000000057
 30
0.0
 11
96.0
 21
80.0999999999999943
 31
0.0
  0
LINE
  5
130
100
AcDbEntity
  8
0
 62
256
370
13
 48
1.0
  6
BYLAYER
100
AcDbLine
 10
64.0
 20
104.3999999999999915
 30
0.0
 11
64.0
 21
112.0999999999999943
 31
0.0
  0
LINE
  5
131
100
AcDbEntity
  8
0
 62
256
370
13
 48
1.0
  6
BYLAYER
100
AcDbLine
 10
96.0
 20
104.3999999999999915
 30
0.0
 11
96.0
 21
112.0999999999999943
 31
0.0
  0
LINE
  5
132
100
AcDbEntity
  8
0
 62
256
370
13
 48
1.0
  6
BYLAYER
100
AcDbLine
 10
64.0
 20
136.4000000000000057
 30
0.0
 11
64.0
 21
144.0999999999999943
 31
0.0
  0
LINE
  5
133
100
AcDbEntity
  8
0
 62
256
370
13
 48
1.0
  6
BYLAYER
100
AcDbLine
 10
96.0
 20
136.4000000000000057
 30
0.0
 11
96.0
 21
144.0999999999999943
 31
0.0
  0
LINE
  5
134
100
AcDbEntity
  8
0
 62
256
370
13
 48
1.0
  6
BYLAYER
100
AcDbLine
 10
64.0
 20
168.3999999999999773
 30
0.0
 11
64.0
 21
176.0999999999999943
 31
0.0
  0
LINE
  5
135
100
AcDbEntity
  8
0
 62
256
370
13
 48
1.0
  6
BYLAYER
100
AcDbLine
 10
96.0
 20
168.3999999999999773
 30
0.0
 11
96.0
 21
176.0999999999999943
 31
0.0
  0
LINE
  5
136
100
AcDbEntity
  8
0
 62
256
370
13
 48
1.0
  6
BYLAYER
100
AcDbLine
 10
64.0
 20
201.4000000000000057
 30
0.0
 11
64.0
 21
209.0999999999999943
 31
0.0
  0
LINE
  5
137
100
AcDbEntity
  8
0
 62
256
370
13
 48
1.0
  6
BYLAYER
100
AcDbLine
 10
96.0
 20
201.4000000000000057
 30
0.0
 11
96.0
 21
209.0999999999999943
 31
0.0
  0
LINE
  5
138
100
AcDbEntity
  8
0
 62
256
370
13
 48
1.0
  6
BYLAYER
100
AcDbLine
 10
64.0
 20
233.3999999999999773
 30
0.0
 11
64.0
 21
241.0999999999999943
 31
0.0
  0
LINE
  5
139
100
AcDbEntity
  8
0
 62
256
370
13
 48
1.0
  6
BYLAYER
100
AcDbLine
 10
96.0
 20
233.3999999999999773
 30
0.0
 11
96.0
 21
241.0999999999999943
 31
0.0
  0
LINE
  5
13A
100
AcDbEntity
  8
0
 62
256
370
13
 48
1.0
  6
BYLAYER
100
AcDbLine
 10
0.0
 20
22.4000000000000057
 30
0.0
 11
0.0
 21
30.0
 31
0.0
  0
LINE
  5
13B
100
AcDbEntity
  8
0
 62
256
370
13
 48
1.0
  6
BYLAYER
100
AcDbLine
 10
32.0
 20
22.4000000000000057
 30
0.0
 11
32.0
 21
30.0
 31
0.0
  0
LINE
  5
13C
100
AcDbEntity
  8
0
 62
256
370
13
 48
1.0
  6
BYLAYER
100
AcDbLine
 10
0.0
 20
54.4000000000000057
 30
0.0
 11
0.0
 21
62.0
 31
0.0
  0
LINE
  5
13D
100
AcDbEntity
  8
0
 62
256
370
13
 48
1.0
  6
BYLAYER
100
AcDbLine
 10
32.0
 20
54.4000000000000057
 30
0.0
 11
32.0
 21
62.0
 31
0.0
  0
LINE
  5
13E
100
AcDbEntity
  8
0
 62
256
370
13
 48
1.0
  6
BYLAYER
100
AcDbLine
 10
0.0
 20
87.4000000000000057
 30
0.0
 11
0.0
 21
95.0
 31
0.0
  0
LINE
  5
13F
100
AcDbEntity
  8
0
 62
256
370
13
 48
1.0
  6
BYLAYER
100
AcDbLine
 10
32.0
 20
87.4000000000000057
 30
0.0
 11
32.0
 21
95.0
 31
0.0
  0
LINE
  5
140
100
AcDbEntity
  8
0
 62
256
370
13
 48
1.0
  6
BYLAYER
100
AcDbLine
 10
0.0
 20
119.4000000000000057
 30
0.0
 11
0.0
 21
127.0
 31
0.0
  0
LINE
  5
141
100
AcDbEntity
  8
0
 62
256
370
13
 48
1.0
  6
BYLAYER
100
AcDbLine
 10
32.0
 20
119.4000000000000057
 30
0.0
 11
32.0
 21
127.0
 31
0.0
  0
LINE
  5
142
100
AcDbEntity
  8
0
 62
256
370
13
 48
1.0
  6
BYLAYER
100
AcDbLine
 10
0.0
 20
151.4000000000000057
 30
0.0
 11
0.0
 21
159.0
 31
0.0
  0
LINE
  5
143
100
AcDbEntity
  8
0
 62
256
370
13
 48
1.0
  6
BYLAYER
100
AcDbLine
 10
32.0
 20
151.4000000000000057
 30
0.0
 11
32.0
 21
159.0
 31
0.0
  0
LINE
  5
144
100
AcDbEntity
  8
0
 62
256
370
13
 48
1.0
  6
BYLAYER
100
AcDbLine
 10
0.0
 20
183.4000000000000057
 30
0.0
 11
0.0
 21
191.0
 31
0.0
  0
LINE
  5
145
100
AcDbEntity
  8
0
 62
256
370
13
 48
1.0
  6
BYLAYER
100
AcDbLine
 10
32.0
 20
183.4000000000000057
 30
0.0
 11
32.0
 21
191.0
 31
0.0
  0
LINE
  5
146
100
AcDbEntity
  8
0
 62
256
370
13
 48
1.0
  6
BYLAYER
100
AcDbLine
 10
0.0
 20
216.4000000000000057
 30
0.0
 11
0.0
 21
224.0
 31
0.0
  0
LINE
  5
147
100
AcDbEntity
  8
0
 62
256
370
13
 48
1.0
  6
BYLAYER
100
AcDbLine
 10
32.0
 20
216.4000000000000057
 30
0.0
 11
32.0
 21
224.0
 31
0.0
  0
LINE
  5
148
100
AcDbEntity
  8
0
 62
256
370
13
 48
1.0
  6
BYLAYER
100
AcDbLine
 10
0.0
 20
248.4000000000000057
 30
0.0
 11
0.0
 21
256.0
 31
0.0
  0
LINE
  5
149
100
AcDbEntity
  8
0
 62
256
370
13
 48
1.0
  6
BYLAYER
100
AcDbLine
 10
32.0
 20
248.4000000000000057
 30
0.0
 11
32.0
 21
256.0
 31
0.0
  0
LINE
  5
14A
100
AcDbEntity
  8
0
 62
256
370
13
 48
1.0
  6
BYLAYER
100
AcDbLine
 10
64.0
 20
22.4000000000000057
 30
0.0
 11
64.0
 21
30.0
 31
0.0
  0
LINE
  5
14B
100
AcDbEntity
  8
0
 62
256
370
13
 48
1.0
  6
BYLAYER
100
AcDbLine
 10
96.0
 20
22.4000000000000057
 30
0.0
 11
96.0
 21
30.0
 31
0.0
  0
LINE
  5
14C
100
AcDbEntity
  8
0
 62
256
370
13
 48
1.0
  6
BYLAYER
100
AcDbLine
 10
64.0
 20
54.4000000000000057
 30
0.0
 11
64.0
 21
62.0
 31
0.0
  0
LINE
  5
14D
100
AcDbEntity
  8
0
 62
256
370
13
 48
1.0
  6
BYLAYER
100
AcDbLine
 10
96.0
 20
54.4000000000000057
 30
0.0
 11
96.0
 21
62.0
 31
0.0
  0
LINE
  5
14E
100
AcDbEntity
  8
0
 62
256
370
13
 48
1.0
  6
BYLAYER
100
AcDbLine
 10
64.0
 20
87.4000000000000057
 30
0.0
 11
64.0
 21
95.0
 31
0.0
  0
LINE
  5
14F
100
AcDbEntity
  8
0
 62
256
370
13
 48
1.0
  6
BYLAYER
100
AcDbLine
 10
96.0
 20
87.4000000000000057
 30
0.0
 11
96.0
 21
95.0
 31
0.0
  0
LINE
  5
150
100
AcDbEntity
  8
0
 62
256
370
13
 48
1.0
  6
BYLAYER
100
AcDbLine
 10
64.0
 20
119.4000000000000057
 30
0.0
 11
64.0
 21
127.0
 31
0.0
  0
LINE
  5
151
100
AcDbEntity
  8
0
 62
256
370
13
 48
1.0
  6
BYLAYER
100
AcDbLine
 10
96.0
 20
119.4000000000000057
 30
0.0
 11
96.0
 21
127.0
 31
0.0
  0
LINE
  5
152
100
AcDbEntity
  8
0
 62
256
370
13
 48
1.0
  6
BYLAYER
100
AcDbLine
 10
64.0
 20
151.4000000000000057
 30
0.0
 11
64.0
 21
159.0
 31
0.0
  0
LINE
  5
153
100
AcDbEntity
  8
0
 62
256
370
13
 48
1.0
  6
BYLAYER
100
AcDbLine
 10
96.0
 20
151.4000000000000057
 30
0.0
 11
96.0
 21
159.0
 31
0.0
  0
LINE
  5
154
100
AcDbEntity
  8
0
 62
256
370
13
 48
1.0
  6
BYLAYER
100
AcDbLine
 10
64.0
 20
183.4000000000000057
 30
0.0
 11
64.0
 21
191.0
 31
0.0
  0
LINE
  5
155
100
AcDbEntity
  8
0
 62
256
370
13
 48
1.0
  6
BYLAYER
100
AcDbLine
 10
96.0
 20
183.4000000000000057
 30
0.0
 11
96.0
 21
191.0
 31
0.0
  0
LINE
  5
156
100
AcDbEntity
  8
0
 62
256
370
13
 48
1.0
  6
BYLAYER
100
AcDbLine
 10
64.0
 20
216.4000000000000057
 30
0.0
 11
64.0
 21
224.0
 31
0.0
  0
LINE
  5
157
100
AcDbEntity
  8
0
 62
256
370
13
 48
1.0
  6
BYLAYER
100
AcDbLine
 10
96.0
 20
216.4000000000000057
 30
0.0
 11
96.0
 21
224.0
 31
0.0
  0
LINE
  5
158
100
AcDbEntity
  8
0
 62
256
370
13
 48
1.0
  6
BYLAYER
100
AcDbLine
 10
64.0
 20
248.4000000000000057
 30
0.0
 11
64.0
 21
256.0
 31
0.0
  0
LINE
  5
159
100
AcDbEntity
  8
0
 62
256
370
13
 48
1.0
  6
BYLAYER
100
AcDbLine
 10
96.0
 20
248.4000000000000057
 30
0.0
 11
96.0
 21
256.0
 31
0.0
  0
LINE
  5
15A
100
AcDbEntity
  8
0
 62
256
370
13
 48
1.0
  6
BYLAYER
100
AcDbLine
 10
14.9000000000000057
 20
27.5
 30
0.0
 11
7.6000000000000227
 21
27.5
 31
0.0
  0
LINE
  5
15B
100
AcDbEntity
  8
0
 62
256
370
13
 48
1.0
  6
BYLAYER
100
AcDbLine
 10
46.9000000000000057
 20
27.5
 30
0.0
 11
39.6000000000000227
 21
27.5
 31
0.0
  0
LINE
  5
15C
100
AcDbEntity
  8
0
 62
256
370
13
 48
1.0
  6
BYLAYER
100
AcDbLine
 10
14.9000000000000057
 20
59.5
 30
0.0
 11
7.6000000000000227
 21
59.5
 31
0.0
  0
LINE
  5
15D
100
AcDbEntity
  8
0
 62
256
370
13
 48
1.0
  6
BYLAYER
100
AcDbLine
 10
46.9000000000000057
 20
59.5
 30
0.0
 11
39.6000000000000227
 21
59.5
 31
0.0
  0
LINE
  5
15E
100
AcDbEntity
  8
0
 62
256
370
13
 48
1.0
  6
BYLAYER
100
AcDbLine
 10
14.9000000000000057
 20
92.5
 30
0.0
 11
7.6000000000000227
 21
92.5
 31
0.0
  0
LINE
  5
15F
100
AcDbEntity
  8
0
 62
256
370
13
 48
1.0
  6
BYLAYER
100
AcDbLine
 10
46.9000000000000057
 20
92.5
 30
0.0
 11
39.6000000000000227
 21
92.5
 31
0.0
  0
LINE
  5
160
100
AcDbEntity
  8
0
 62
256
370
13
 48
1.0
  6
BYLAYER
100
AcDbLine
 10
14.9000000000000057
 20
124.5
 30
0.0
 11
7.6000000000000227
 21
124.5
 31
0.0
  0
LINE
  5
161
100
AcDbEntity
  8
0
 62
256
370
13
 48
1.0
  6
BYLAYER
100
AcDbLine
 10
46.9000000000000057
 20
124.5
 30
0.0
 11
39.6000000000000227
 21
124.5
 31
0.0
  0
LINE
  5
162
100
AcDbEntity
  8
0
 62
256
370
13
 48
1.0
  6
BYLAYER
100
AcDbLine
 10
14.9000000000000057
 20
156.5
 30
0.0
 11
7.6000000000000227
 21
156.5
 31
0.0
  0
LINE
  5
163
100
AcDbEntity
  8
0
 62
256
370
13
 48
1.0
  6
BYLAYER
100
AcDbLine
 10
46.9000000000000057
 20
156.5
 30
0.0
 11
39.6000000000000227
 21
156.5
 31
0.0
  0
LINE
  5
164
100
AcDbEntity
  8
0
 62
256
370
13
 48
1.0
  6
BYLAYER
100
AcDbLine
 10
14.9000000000000057
 20
188.5
 30
0.0
 11
7.6000000000000227
 21
188.5
 31
0.0
  0
LINE
  5
165
100
AcDbEntity
  8
0
 62
256
370
13
 48
1.0
  6
BYLAYER
100
AcDbLine
 10
46.9000000000000057
 20
188.5
 30
0.0
 11
39.6000000000000227
 21
188.5
 31
0.0
  0
LINE
  5
166
100
AcDbEntity
  8
0
 62
256
370
13
 48
1.0
  6
BYLAYER
100
AcDbLine
 10
14.9000000000000057
 20
221.5
 30
0.0
 11
7.6000000000000227
 21
221.5
 31
0.0
  0
LINE
  5
167
100
AcDbEntity
  8
0
 62
256
370
13
 48
1.0
  6
BYLAYER
100
AcDbLine
 10
46.9000000000000057
 20
221.5
 30
0.0
 11
39.6000000000000227
 21
221.5
 31
0.0
  0
LINE
  5
168
100
AcDbEntity
  8
0
 62
256
370
13
 48
1.0
  6
BYLAYER
100
AcDbLine
 10
14.9000000000000057
 20
253.5
 30
0.0
 11
7.6000000000000227
 21
253.5
 31
0.0
  0
LINE
  5
169
100
AcDbEntity
  8
0
 62
256
370
13
 48
1.0
  6
BYLAYER
100
AcDbLine
 10
46.9000000000000057
 20
253.5
 30
0.0
 11
39.6000000000000227
 21
253.5
 31
0.0
  0
LINE
  5
16A
100
AcDbEntity
  8
0
 62
256
370
13
 48
1.0
  6
BYLAYER
100
AcDbLine
 10
78.9000000000000057
 20
27.5
 30
0.0
 11
71.6000000000000227
 21
27.5
 31
0.0
  0
LINE
  5
16B
100
AcDbEntity
  8
0
 62
256
370
13
 48
1.0
  6
BYLAYER
100
AcDbLine
 10
110.9000000000000057
 20
27.5
 30
0.0
 11
103.6000000000000227
 21
27.5
 31
0.0
  0
LINE
  5
16C
100
AcDbEntity
  8
0
 62
256
370
13
 48
1.0
  6
BYLAYER
100
AcDbLine
 10
78.9000000000000057
 20
59.5
 30
0.0
 11
71.6000000000000227
 21
59.5
 31
0.0
  0
LINE
  5
16D
100
AcDbEntity
  8
0
 62
256
370
13
 48
1.0
  6
BYLAYER
100
AcDbLine
 10
110.9000000000000057
 20
59.5
 30
0.0
 11
103.6000000000000227
 21
59.5
 31
0.0
  0
LINE
  5
16E
100
AcDbEntity
  8
0
 62
256
370
13
 48
1.0
  6
BYLAYER
100
AcDbLine
 10
78.9000000000000057
 20
92.5
 30
0.0
 11
71.6000000000000227
 21
92.5
 31
0.0
  0
LINE
  5
16F
100
AcDbEntity
  8
0
 62
256
370
13
 48
1.0
  6
BYLAYER
100
AcDbLine
 10
110.9000000000000057
 20
92.5
 30
0.0
 11
103.6000000000000227
 21
92.5
 31
0.0
  0
LINE
  5
170
100
AcDbEntity
  8
0
 62
256
370
13
 48
1.0
  6
BYLAYER
100
AcDbLine
 10
78.9000000000000057
 20
124.5
 30
0.0
 11
71.6000000000000227
 21
124.5
 31
0.0
  0
LINE
  5
171
100
AcDbEntity
  8
0
 62
256
370
13
 48
1.0
  6
BYLAYER
100
AcDbLine
 10
110.9000000000000057
 20
124.5
 30
0.0
 11
103.6000000000000227
 21
124.5
 31
0.0
  0
LINE
  5
172
100
AcDbEntity
  8
0
 62
256
370
13
 48
1.0
  6
BYLAYER
100
AcDbLine
 10
78.9000000000000057
 20
156.5
 30
0.0
 11
71.6000000000000227
 21
156.5
 31
0.0
  0
LINE
  5
173
100
AcDbEntity
  8
0
 62
256
370
13
 48
1.0
  6
BYLAYER
100
AcDbLine
 10
110.9000000000000057
 20
156.5
 30
0.0
 11
103.6000000000000227
 21
156.5
 31
0.0
  0
LINE
  5
174
100
AcDbEntity
  8
0
 62
256
370
13
 48
1.0
  6
BYLAYER
100
AcDbLine
 10
78.9000000000000057
 20
188.5
 30
0.0
 11
71.6000000000000227
 21
188.5
 31
0.0
  0
LINE
  5
175
100
AcDbEntity
  8
0
 62
256
370
13
 48
1.0
  6
BYLAYER
100
AcDbLine
 10
110.9000000000000057
 20
188.5
 30
0.0
 11
103.6000000000000227
 21
188.5
 31
0.0
  0
LINE
  5
176
100
AcDbEntity
  8
0
 62
256
370
13
 48
1.0
  6
BYLAYER
100
AcDbLine
 10
78.9000000000000057
 20
221.5
 30
0.0
 11
71.6000000000000227
 21
221.5
 31
0.0
  0
LINE
  5
177
100
AcDbEntity
  8
0
 62
256
370
13
 48
1.0
  6
BYLAYER
100
AcDbLine
 10
110.9000000000000057
 20
221.5
 30
0.0
 11
103.6000000000000227
 21
221.5
 31
0.0
  0
LINE
  5
178
100
AcDbEntity
  8
0
 62
256
370
13
 48
1.0
  6
BYLAYER
100
AcDbLine
 10
78.9000000000000057
 20
253.5
 30
0.0
 11
71.6000000000000227
 21
253.5
 31
0.0
  0
LINE
  5
179
100
AcDbEntity
  8
0
 62
256
370
13
 48
1.0
  6
BYLAYER
100
AcDbLine
 10
110.9000000000000057
 20
253.5
 30
0.0
 11
103.6000000000000227
 21
253.5
 31
0.0
  0
LINE
  5
17A
100
AcDbEntity
  8
0
 62
256
370
13
 48
1.0
  6
BYLAYER
100
AcDbLine
 10
2.5
 20
15.1000000000000014
 30
0.0
 11
2.5
 21
22.4000000000000057
 31
0.0
  0
LINE
  5
17B
100
AcDbEntity
  8
0
 62
256
370
13
 48
1.0
  6
BYLAYER
100
AcDbLine
 10
34.5
 20
15.1000000000000014
 30
0.0
 11
34.5
 21
22.4000000000000057
 31
0.0
  0
LINE
  5
17C
100
AcDbEntity
  8
0
 62
256
370
13
 48
1.0
  6
BYLAYER
100
AcDbLine
 10
2.5
 20
47.0999999999999943
 30
0.0
 11
2.5
 21
54.4000000000000057
 31
0.0
  0
LINE
  5
17D
100
AcDbEntity
  8
0
 62
256
370
13
 48
1.0
  6
BYLAYER
100
AcDbLine
 10
34.5
 20
47.0999999999999943
 30
0.0
 11
34.5
 21
54.4000000000000057
 31
0.0
  0
LINE
  5
17E
100
AcDbEntity
  8
0
 62
256
370
13
 48
1.0
  6
BYLAYER
100
AcDbLine
 10
2.5
 20
80.0999999999999943
 30
0.0
 11
2.5
 21
87.4000000000000057
 31
0.0
  0
LINE
  5
17F
100
AcDbEntity
  8
0
 62
256
370
13
 48
1.0
  6
BYLAYER
100
AcDbLine
 10
34.5
 20
80.0999999999999943
 30
0.0
 11
34.5
 21
87.4000000000000057
 31
0.0
  0
LINE
  5
180
100
AcDbEntity
  8
0
 62
256
370
13
 48
1.0
  6
BYLAYER
100
AcDbLine
 10
2.5
 20
112.0999999999999943
 30
0.0
 11
2.5
 21
119.4000000000000057
 31
0.0
  0
LINE
  5
181
100
AcDbEntity
  8
0
 62
256
370
13
 48
1.0
  6
BYLAYER
100
AcDbLine
 10
34.5
 20
112.0999999999999943
 30
0.0
 11
34.5
 21
119.4000000000000057
 31
0.0
  0
LINE
  5
182
100
AcDbEntity
  8
0
 62
256
370
13
 48
1.0
  6
BYLAYER
100
AcDbLine
 10
2.5
 20
144.0999999999999943
 30
0.0
 11
2.5
 21
151.4000000000000057
 31
0.0
  0
LINE
  5
183
100
AcDbEntity
  8
0
 62
256
370
13
 48
1.0
  6
BYLAYER
100
AcDbLine
 10
34.5
 20
144.0999999999999943
 30
0.0
 11
34.5
 21
151.4000000000000057
 31
0.0
  0
LINE
  5
184
100
AcDbEntity
  8
0
 62
256
370
13
 48
1.0
  6
BYLAYER
100
AcDbLine
 10
2.5
 20
176.0999999999999943
 30
0.0
 11
2.5
 21
183.4000000000000057
 31
0.0
  0
LINE
  5
185
100
AcDbEntity
  8
0
 62
256
370
13
 48
1.0
  6
BYLAYER
100
AcDbLine
 10
34.5
 20
176.0999999999999943
 30
0.0
 11
34.5
 21
183.4000000000000057
 31
0.0
  0
LINE
  5
186
100
AcDbEntity
  8
0
 62
256
370
13
 48
1.0
  6
BYLAYER
100
AcDbLine
 10
2.5
 20
209.0999999999999943
 30
0.0
 11
2.5
 21
216.4000000000000057
 31
0.0
  0
LINE
  5
187
100
AcDbEntity
  8
0
 62
256
370
13
 48
1.0
  6
BYLAYER
100
AcDbLine
 10
34.5
 20
209.0999999999999943
 30
0.0
 11
34.5
 21
216.4000000000000057
 31
0.0
  0
LINE
  5
188
100
AcDbEntity
  8
0
 62
256
370
13
 48
1.0
  6
BYLAYER
100
AcDbLine
 10
2.5
 20
241.0999999999999943
 30
0.0
 11
2.5
 21
248.4000000000000057
 31
0.0
  0
LINE
  5
189
100
AcDbEntity
  8
0
 62
256
370
13
 48
1.0
  6
BYLAYER
100
AcDbLine
 10
34.5
 20
241.0999999999999943
 30
0.0
 11
34.5
 21
248.4000000000000057
 31
0.0
  0
LINE
  5
18A
100
AcDbEntity
  8
0
 62
256
370
13
 48
1.0
  6
BYLAYER
100
AcDbLine
 10
66.5
 20
15.1000000000000014
 30
0.0
 11
66.5
 21
22.4000000000000057
 31
0.0
  0
LINE
  5
18B
100
AcDbEntity
  8
0
 62
256
370
13
 48
1.0
  6
BYLAYER
100
AcDbLine
 10
98.5
 20
15.1000000000000014
 30
0.0
 11
98.5
 21
22.4000000000000057
 31
0.0
  0
LINE
  5
18C
100
AcDbEntity
  8
0
 62
256
370
13
 48
1.0
  6
BYLAYER
100
AcDbLine
 10
66.5
 20
47.0999999999999943
 30
0.0
 11
66.5
 21
54.4000000000000057
 31
0.0
  0
LINE
  5
18D
100
AcDbEntity
  8
0
 62
256
370
13
 48
1.0
  6
BYLAYER
100
AcDbLine
 10
98.5
 20
47.0999999999999943
 30
0.0
 11
98.5
 21
54.4000000000000057
 31
0.0
  0
LINE
  5
18E
100
AcDbEntity
  8
0
 62
256
370
13
 48
1.0
  6
BYLAYER
100
AcDbLine
 10
66.5
 20
80.0999999999999943
 30
0.0
 11
66.5
 21
87.4000000000000057
 31
0.0
  0
LINE
  5
18F
100
AcDbEntity
  8
0
 62
256
370
13
 48
1.0
  6
BYLAYER
100
AcDbLine
 10
98.5
 20
80.0999999999999943
 30
0.0
 11
98.5
 21
87.4000000000000057
 31
0.0
  0
LINE
  5
190
100
AcDbEntity
  8
0
 62
256
370
13
 48
1.0
  6
BYLAYER
100
AcDbLine
 10
66.5
 20
112.0999999999999943
 30
0.0
 11
66.5
 21
119.4000000000000057
 31
0.0
  0
LINE
  5
191
100
AcDbEntity
  8
0
 62
256
370
13
 48
1.0
  6
BYLAYER
100
AcDbLine
 10
98.5
 20
112.0999999999999943
 30
0.0
 11
98.5
 21
119.4000000000000057
 31
0.0
  0
LINE
  5
192
100
AcDbEntity
  8
0
 62
256
370
13
 48
1.0
  6
BYLAYER
100
AcDbLine
 10
66.5
 20
144.0999999999999943
 30
0.0
 11
66.5
 21
151.4000000000000057
 31
0.0
  0
LINE
  5
193
100
AcDbEntity
  8
0
 62
256
370
13
 48
1.0
  6
BYLAYER
100
AcDbLine
 10
98.5
 20
144.0999999999999943
 30
0.0
 11
98.5
 21
151.4000000000000057
 31
0.0
  0
LINE
  5
194
100
AcDbEntity
  8
0
 62
256
370
13
 48
1.0
  6
BYLAYER
100
AcDbLine
 10
66.5
 20
176.0999999999999943
 30
0.0
 11
66.5
 21
183.4000000000000057
 31
0.0
  0
LINE
  5
195
100
AcDbEntity
  8
0
 62
256
370
13
 48
1.0
  6
BYLAYER
100
AcDbLine
 10
98.5
 20
176.0999999999999943
 30
0.0
 11
98.5
 21
183.4000000000000057
 31
0.0
  0
LINE
  5
196
100
AcDbEntity
  8
0
 62
256
370
13
 48
1.0
  6
BYLAYER
100
AcDbLine
 10
66.5
 20
209.0999999999999943
 30
0.0
 11
66.5
 21
216.4000000000000057
 31
0.0
  0
LINE
  5
197
100
AcDbEntity
  8
0
 62
256
370
13
 48
1.0
  6
BYLAYER
100
AcDbLine
 10
98.5
 20
209.0999999999999943
 30
0.0
 11
98.5
 21
216.4000000000000057
 31
0.0
  0
LINE
  5
198
100
AcDbEntity
  8
0
 62
256
370
13
 48
1.0
  6
BYLAYER
100
AcDbLine
 10
66.5
 20
241.0999999999999943
 30
0.0
 11
66.5
 21
248.4000000000000057
 31
0.0
  0
LINE
  5
199
100
AcDbEntity
  8
0
 62
256
370
13
 48
1.0
  6
BYLAYER
100
AcDbLine
 10
98.5
 20
241.0999999999999943
 30
0.0
 11
98.5
 21
248.4000000000000057
 31
0.0
  0
LINE
  5
19A
100
AcDbEntity
  8
0
 62
256
370
13
 48
1.0
  6
BYLAYER
100
AcDbLine
 10
30.0
 20
27.5
 30
0.0
 11
22.6000000000000227
 21
27.5
 31
0.0
  0
LINE
  5
19B
100
AcDbEntity
  8
0
 62
256
370
13
 48
1.0
  6
BYLAYER
100
AcDbLine
 10
62.0000000000000284
 20
27.5
 30
0.0
 11
54.6000000000000512
 21
27.5
 31
0.0
  0
LINE
  5
19C
100
AcDbEntity
  8
0
 62
256
370
13
 48
1.0
  6
BYLAYER
100
AcDbLine
 10
30.0
 20
59.5
 30
0.0
 11
22.6000000000000227
 21
59.5
 31
0.0
  0
LINE
  5
19D
100
AcDbEntity
  8
0
 62
256
370
13
 48
1.0
  6
BYLAYER
100
AcDbLine
 10
62.0000000000000284
 20
59.5
 30
0.0
 11
54.6000000000000512
 21
59.5
 31
0.0
  0
LINE
  5
19E
100
AcDbEntity
  8
0
 62
256
370
13
 48
1.0
  6
BYLAYER
100
AcDbLine
 10
30.0
 20
92.5
 30
0.0
 11
22.6000000000000227
 21
92.5
 31
0.0
  0
LINE
  5
19F
100
AcDbEntity
  8
0
 62
256
370
13
 48
1.0
  6
BYLAYER
100
AcDbLine
 10
62.0000000000000284
 20
92.5
 30
0.0
 11
54.6000000000000512
 21
92.5
 31
0.0
  0
LINE
  5
1A0
100
AcDbEntity
  8
0
 62
256
370
13
 48
1.0
  6
BYLAYER
100
AcDbLine
 10
30.0
 20
124.5
 30
0.0
 11
22.6000000000000227
 21
124.5
 31
0.0
  0
LINE
  5
1A1
100
AcDbEntity
  8
0
 62
256
370
13
 48
1.0
  6
BYLAYER
100
AcDbLine
 10
62.0000000000000284
 20
124.5
 30
0.0
 11
54.6000000000000512
 21
124.5
 31
0.0
  0
LINE
  5
1A2
100
AcDbEntity
  8
0
 62
256
370
13
 48
1.0
  6
BYLAYER
100
AcDbLine
 10
30.0
 20
156.5
 30
0.0
 11
22.6000000000000227
 21
156.5
 31
0.0
  0
LINE
  5
1A3
100
AcDbEntity
  8
0
 62
256
370
13
 48
1.0
  6
BYLAYER
100
AcDbLine
 10
62.0000000000000284
 20
156.5
 30
0.0
 11
54.6000000000000512
 21
156.5
 31
0.0
  0
LINE
  5
1A4
100
AcDbEntity
  8
0
 62
256
370
13
 48
1.0
  6
BYLAYER
100
AcDbLine
 10
30.0
 20
188.5
 30
0.0
 11
22.6000000000000227
 21
188.5
 31
0.0
  0
LINE
  5
1A5
100
AcDbEntity
  8
0
 62
256
370
13
 48
1.0
  6
BYLAYER
100
AcDbLine
 10
62.0000000000000284
 20
188.5
 30
0.0
 11
54.6000000000000512
 21
188.5
 31
0.0
  0
LINE
  5
1A6
100
AcDbEntity
  8
0
 62
256
370
13
 48
1.0
  6
BYLAYER
100
AcDbLine
 10
30.0
 20
221.5
 30
0.0
 11
22.6000000000000227
 21
221.5
 31
0.0
  0
LINE
  5
1A7
100
AcDbEntity
  8
0
 62
256
370
13
 48
1.0
  6
BYLAYER
100
AcDbLine
 10
62.0000000000000284
 20
221.5
 30
0.0
 11
54.6000000000000512
 21
221.5
 31
0.0
  0
LINE
  5
1A8
100
AcDbEntity
  8
0
 62
256
370
13
 48
1.0
  6
BYLAYER
100
AcDbLine
 10
30.0
 20
253.5
 30
0.0
 11
22.6000000000000227
 21
253.5
 31
0.0
  0
LINE
  5
1A9
100
AcDbEntity
  8
0
 62
256
370
13
 48
1.0
  6
BYLAYER
100
AcDbLine
 10
62.0000000000000284
 20
253.5
 30
0.0
 11
54.6000000000000512
 21
253.5
 31
0.0
  0
LINE
  5
1AA
100
AcDbEntity
  8
0
 62
256
370
13
 48
1.0
  6
BYLAYER
100
AcDbLine
 10
94.0
 20
27.5
 30
0.0
 11
86.6000000000000227
 21
27.5
 31
0.0
  0
LINE
  5
1AB
100
AcDbEntity
  8
0
 62
256
370
13
 48
1.0
  6
BYLAYER
100
AcDbLine
 10
126.0000000000000284
 20
27.5
 30
0.0
 11
118.6000000000000512
 21
27.5
 31
0.0
  0
LINE
  5
1AC
100
AcDbEntity
  8
0
 62
256
370
13
 48
1.0
  6
BYLAYER
100
AcDbLine
 10
94.0
 20
59.5
 30
0.0
 11
86.6000000000000227
 21
59.5
 31
0.0
  0
LINE
  5
1AD
100
AcDbEntity
  8
0
 62
256
370
13
 48
1.0
  6
BYLAYER
100
AcDbLine
 10
126.0000000000000284
 20
59.5
 30
0.0
 11
118.6000000000000512
 21
59.5
 31
0.0
  0
LINE
  5
1AE
100
AcDbEntity
  8
0
 62
256
370
13
 48
1.0
  6
BYLAYER
100
AcDbLine
 10
94.0
 20
92.5
 30
0.0
 11
86.6000000000000227
 21
92.5
 31
0.0
  0
LINE
  5
1AF
100
AcDbEntity
  8
0
 62
256
370
13
 48
1.0
  6
BYLAYER
100
AcDbLine
 10
126.0000000000000284
 20
92.5
 30
0.0
 11
118.6000000000000512
 21
92.5
 31
0.0
  0
LINE
  5
1B0
100
AcDbEntity
  8
0
 62
256
370
13
 48
1.0
  6
BYLAYER
100
AcDbLine
 10
94.0
 20
124.5
 30
0.0
 11
86.6000000000000227
 21
124.5
 31
0.0
  0
LINE
  5
1B1
100
AcDbEntity
  8
0
 62
256
370
13
 48
1.0
  6
BYLAYER
100
AcDbLine
 10
126.0000000000000284
 20
124.5
 30
0.0
 11
118.6000000000000512
 21
124.5
 31
0.0
  0
LINE
  5
1B2
100
AcDbEntity
  8
0
 62
256
370
13
 48
1.0
  6
BYLAYER
100
AcDbLine
 10
94.0
 20
156.5
 30
0.0
 11
86.6000000000000227
 21
156.5
 31
0.0
  0
LINE
  5
1B3
100
AcDbEntity
  8
0
 62
256
370
13
 48
1.0
  6
BYLAYER
100
AcDbLine
 10
126.0000000000000284
 20
156.5
 30
0.0
 11
118.6000000000000512
 21
156.5
 31
0.0
  0
LINE
  5
1B4
100
AcDbEntity
  8
0
 62
256
370
13
 48
1.0
  6
BYLAYER
100
AcDbLine
 10
94.0
 20
188.5
 30
0.0
 11
86.6000000000000227
 21
188.5
 31
0.0
  0
LINE
  5
1B5
100
AcDbEntity
  8
0
 62
256
370
13
 48
1.0
  6
BYLAYER
100
AcDbLine
 10
126.0000000000000284
 20
188.5
 30
0.0
 11
118.6000000000000512
 21
188.5
 31
0.0
  0
LINE
  5
1B6
100
AcDbEntity
  8
0
 62
256
370
13
 48
1.0
  6
BYLAYER
100
AcDbLine
 10
94.0
 20
221.5
 30
0.0
 11
86.6000000000000227
 21
221.5
 31
0.0
  0
LINE
  5
1B7
100
AcDbEntity
  8
0
 62
256
370
13
 48
1.0
  6
BYLAYER
100
AcDbLine
 10
126.0000000000000284
 20
221.5
 30
0.0
 11
118.6000000000000512
 21
221.5
 31
0.0
  0
LINE
  5
1B8
100
AcDbEntity
  8
0
 62
256
370
13
 48
1.0
  6
BYLAYER
100
AcDbLine
 10
94.0
 20
253.5
 30
0.0
 11
86.6000000000000227
 21
253.5
 31
0.0
  0
LINE
  5
1B9
100
AcDbEntity
  8
0
 62
256
370
13
 48
1.0
  6
BYLAYER
100
AcDbLine
 10
126.0000000000000284
 20
253.5
 30
0.0
 11
118.6000000000000512
 21
253.5
 31
0.0
  0
LINE
  5
1BA
100
AcDbEntity
  8
0
 62
256
370
13
 48
1.0
  6
BYLAYER
100
AcDbLine
 10
2.4999999999999716
 20
0.0
 30
0.0
 11
2.5
 21
7.3999999999999986
 31
0.0
  0
LINE
  5
1BB
100
AcDbEntity
  8
0
 62
256
370
13
 48
1.0
  6
BYLAYER
100
AcDbLine
 10
34.4999999999999716
 20
0.0
 30
0.0
 11
34.5
 21
7.3999999999999986
 31
0.0
  0
LINE
  5
1BC
100
AcDbEntity
  8
0
 62
256
370
13
 48
1.0
  6
BYLAYER
100
AcDbLine
 10
2.4999999999999716
 20
32.0
 30
0.0
 11
2.5
 21
39.3999999999999915
 31
0.0
  0
LINE
  5
1BD
100
AcDbEntity
  8
0
 62
256
370
13
 48
1.0
  6
BYLAYER
100
AcDbLine
 10
34.4999999999999716
 20
32.0
 30
0.0
 11
34.5
 21
39.3999999999999915
 31
0.0
  0
LINE
  5
1BE
100
AcDbEntity
  8
0
 62
256
370
13
 48
1.0
  6
BYLAYER
100
AcDbLine
 10
2.4999999999999716
 20
65.0
 30
0.0
 11
2.5
 21
72.4000000000000057
 31
0.0
  0
LINE
  5
1BF
100
AcDbEntity
  8
0
 62
256
370
13
 48
1.0
  6
BYLAYER
100
AcDbLine
 10
34.4999999999999716
 20
65.0
 30
0.0
 11
34.5
 21
72.4000000000000057
 31
0.0
  0
LINE
  5
1C0
100
AcDbEntity
  8
0
 62
256
370
13
 48
1.0
  6
BYLAYER
100
AcDbLine
 10
2.4999999999999716
 20
97.0
 30
0.0
 11
2.5
 21
104.3999999999999915
 31
0.0
  0
LINE
  5
1C1
100
AcDbEntity
  8
0
 62
256
370
13
 48
1.0
  6
BYLAYER
100
AcDbLine
 10
34.4999999999999716
 20
97.0
 30
0.0
 11
34.5
 21
104.3999999999999915
 31
0.0
  0
LINE
  5
1C2
100
AcDbEntity
  8
0
 62
256
370
13
 48
1.0
  6
BYLAYER
100
AcDbLine
 10
2.4999999999999716
 20
129.0
 30
0.0
 11
2.5
 21
136.4000000000000057
 31
0.0
  0
LINE
  5
1C3
100
AcDbEntity
  8
0
 62
256
370
13
 48
1.0
  6
BYLAYER
100
AcDbLine
 10
34.4999999999999716
 20
129.0
 30
0.0
 11
34.5
 21
136.4000000000000057
 31
0.0
  0
LINE
  5
1C4
100
AcDbEntity
  8
0
 62
256
370
13
 48
1.0
  6
BYLAYER
100
AcDbLine
 10
2.4999999999999716
 20
161.0
 30
0.0
 11
2.5
 21
168.3999999999999773
 31
0.0
  0
LINE
  5
1C5
100
AcDbEntity
  8
0
 62
256
370
13
 48
1.0
  6
BYLAYER
100
AcDbLine
 10
34.4999999999999716
 20
161.0
 30
0.0
 11
34.5
 21
168.3999999999999773
 31
0.0
  0
LINE
  5
1C6
100
AcDbEntity
  8
0
 62
256
370
13
 48
1.0
  6
BYLAYER
100
AcDbLine
 10
2.4999999999999716
 20
194.0
 30
0.0
 11
2.5
 21
201.4000000000000057
 31
0.0
  0
LINE
  5
1C7
100
AcDbEntity
  8
0
 62
256
370
13
 48
1.0
  6
BYLAYER
100
AcDbLine
 10
34.4999999999999716
 20
194.0
 30
0.0
 11
34.5
 21
201.4000000000000057
 31
0.0
  0
LINE
  5
1C8
100
AcDbEntity
  8
0
 62
256
370
13
 48
1.0
  6
BYLAYER
100
AcDbLine
 10
2.4999999999999716
 20
226.0
 30
0.0
 11
2.5
 21
233.3999999999999773
 31
0.0
  0
LINE
  5
1C9
100
AcDbEntity
  8
0
 62
256
370
13
 48
1.0
  6
BYLAYER
100
AcDbLine
 10
34.4999999999999716
 20
226.0
 30
0.0
 11
34.5
 21
233.3999999999999773
 31
0.0
  0
LINE
  5
1CA
100
AcDbEntity
  8
0
 62
256
370
13
 48
1.0
  6
BYLAYER
100
AcDbLine
 10
66.4999999999999716
 20
0.0
 30
0.0
 11
66.5
 21
7.3999999999999986
 31
0.0
  0
LINE
  5
1CB
100
AcDbEntity
  8
0
 62
256
370
13
 48
1.0
  6
BYLAYER
100
AcDbLine
 10
98.4999999999999716
 20
0.0
 30
0.0
 11
98.5
 21
7.3999999999999986
 31
0.0
  0
LINE
  5
1CC
100
AcDbEntity
  8
0
 62
256
370
13
 48
1.0
  6
BYLAYER
100
AcDbLine
 10
66.4999999999999716
 20
32.0
 30
0.0
 11
66.5
 21
39.3999999999999915
 31
0.0
  0
LINE
  5
1CD
100
AcDbEntity
  8
0
 62
256
370
13
 48
1.0
  6
BYLAYER
100
AcDbLine
 10
98.4999999999999716
 20
32.0
 30
0.0
 11
98.5
 21
39.3999999999999915
 31
0.0
  0
LINE
  5
1CE
100
AcDbEntity
  8
0
 62
256
370
13
 48
1.0
  6
BYLAYER
100
AcDbLine
 10
66.4999999999999716
 20
65.0
 30
0.0
 11
66.5
 21
72.4000000000000057
 31
0.0
  0
LINE
  5
1CF
100
AcDbEntity
  8
0
 62
256
370
13
 48
1.0
  6
BYLAYER
100
AcDbLine
 10
98.4999999999999716
 20
65.0
 30
0.0
 11
98.5
 21
72.4000000000000057
 31
0.0
  0
LINE
  5
1D0
100
AcDbEntity
  8
0
 62
256
370
13
 48
1.0
  6
BYLAYER
100
AcDbLine
 10
66.4999999999999716
 20
97.0
 30
0.0
 11
66.5
 21
104.3999999999999915
 31
0.0
  0
LINE
  5
1D1
100
AcDbEntity
  8
0
 62
256
370
13
 48
1.0
  6
BYLAYER
100
AcDbLine
 10
98.4999999999999716
 20
97.0
 30
0.0
 11
98.5
 21
104.3999999999999915
 31
0.0
  0
LINE
  5
1D2
100
AcDbEntity
  8
0
 62
256
370
13
 48
1.0
  6
BYLAYER
100
AcDbLine
 10
66.4999999999999716
 20
129.0
 30
0.0
 11
66.5
 21
136.4000000000000057
 31
0.0
  0
LINE
  5
1D3
100
AcDbEntity
  8
0
 62
256
370
13
 48
1.0
  6
BYLAYER
100
AcDbLine
 10
98.4999999999999716
 20
129.0
 30
0.0
 11
98.5
 21
136.4000000000000057
 31
0.0
  0
LINE
  5
1D4
100
AcDbEntity
  8
0
 62
256
370
13
 48
1.0
  6
BYLAYER
100
AcDbLine
 10
66.4999999999999716
 20
161.0
 30
0.0
 11
66.5
 21
168.3999999999999773
 31
0.0
  0
LINE
  5
1D5
100
AcDbEntity
  8
0
 62
256
370
13
 48
1.0
  6
BYLAYER
100
AcDbLine
 10
98.4999999999999716
 20
161.0
 30
0.0
 11
98.5
 21
168.3999999999999773
 31
0.0
  0
LINE
  5
1D6
100
AcDbEntity
  8
0
 62
256
370
13
 48
1.0
  6
BYLAYER
100
AcDbLine
 10
66.4999999999999716
 20
194.0
 30
0.0
 11
66.5
 21
201.4000000000000057
 31
0.0
  0
LINE
  5
1D7
100
AcDbEntity
  8
0
 62
256
370
13
 48
1.0
  6
BYLAYER
100
AcDbLine
 10
98.4999999999999716
 20
194.0
 30
0.0
 11
98.5
 21
201.4000000000000057
 31
0.0
  0
LINE
  5
1D8
100
AcDbEntity
  8
0
 62
256
370
13
 48
1.0
  6
BYLAYER
100
AcDbLine
 10
66.4999999999999716
 20
226.0
 30
0.0
 11
66.5
 21
233.3999999999999773
 31
0.0
  0
LINE
  5
1D9
100
AcDbEntity
  8
0
 62
256
370
13
 48
1.0
  6
BYLAYER
100
AcDbLine
 10
98.4999999999999716
 20
226.0
 30
0.0
 11
98.5
 21
233.3999999999999773
 31
0.0
  0
LINE
  5
1DA
100
AcDbEntity
  8
0
 62
256
370
13
 48
1.0
  6
BYLAYER
100
AcDbLine
 10
27.5
 20
15.1000000000000014
 30
0.0
 11
27.5
 21
22.4000000000000057
 31
0.0
  0
LINE
  5
1DB
100
AcDbEntity
  8
0
 62
256
370
13
 48
1.0
  6
BYLAYER
100
AcDbLine
 10
59.5000000000000284
 20
15.1000000000000014
 30
0.0
 11
59.5000000000000284
 21
22.4000000000000057
 31
0.0
  0
LINE
  5
1DC
100
AcDbEntity
  8
0
 62
256
370
13
 48
1.0
  6
BYLAYER
100
AcDbLine
 10
27.5
 20
47.0999999999999943
 30
0.0
 11
27.5
 21
54.4000000000000057
 31
0.0
  0
LINE
  5
1DD
100
AcDbEntity
  8
0
 62
256
370
13
 48
1.0
  6
BYLAYER
100
AcDbLine
 10
59.5000000000000284
 20
47.0999999999999943
 30
0.0
 11
59.5000000000000284
 21
54.4000000000000057
 31
0.0
  0
LINE
  5
1DE
100
AcDbEntity
  8
0
 62
256
370
13
 48
1.0
  6
BYLAYER
100
AcDbLine
 10
27.5
 20
80.0999999999999943
 30
0.0
 11
27.5
 21
87.4000000000000057
 31
0.0
  0
LINE
  5
1DF
100
AcDbEntity
  8
0
 62
256
370
13
 48
1.0
  6
BYLAYER
100
AcDbLine
 10
59.5000000000000284
 20
80.0999999999999943
 30
0.0
 11
59.5000000000000284
 21
87.4000000000000057
 31
0.0
  0
LINE
  5
1E0
100
AcDbEntity
  8
0
 62
256
370
13
 48
1.0
  6
BYLAYER
100
AcDbLine
 10
27.5
 20
112.0999999999999943
 30
0.0
 11
27.5
 21
119.4000000000000057
 31
0.0
  0
LINE
  5
1E1
100
AcDbEntity
  8
0
 62
256
370
13
 48
1.0
  6
BYLAYER
100
AcDbLine
 10
59.5000000000000284
 20
112.0999999999999943
 30
0.0
 11
59.5000000000000284
 21
119.4000000000000057
 31
0.0
  0
LINE
  5
1E2
100
AcDbEntity
  8
0
 62
256
370
13
 48
1.0
  6
BYLAYER
100
AcDbLine
 10
27.5
 20
144.0999999999999943
 30
0.0
 11
27.5
 21
151.4000000000000057
 31
0.0
  0
LINE
  5
1E3
100
AcDbEntity
  8
0
 62
256
370
13
 48
1.0
  6
BYLAYER
100
AcDbLine
 10
59.5000000000000284
 20
144.0999999999999943
 30
0.0
 11
59.5000000000000284
 21
151.4000000000000057
 31
0.0
  0
LINE
  5
1E4
100
AcDbEntity
  8
0
 62
256
370
13
 48
1.0
  6
BYLAYER
100
AcDbLine
 10
27.5
 20
176.0999999999999943
 30
0.0
 11
27.5
 21
183.4000000000000057
 31
0.0
  0
LINE
  5
1E5
100
AcDbEntity
  8
0
 62
256
370
13
 48
1.0
  6
BYLAYER
100
AcDbLine
 10
59.5000000000000284
 20
176.0999999999999943
 30
0.0
 11
59.5000000000000284
 21
183.4000000000000057
 31
0.0
  0
LINE
  5
1E6
100
AcDbEntity
  8
0
 62
256
370
13
 48
1.0
  6
BYLAYER
100
AcDbLine
 10
27.5
 20
209.0999999999999943
 30
0.0
 11
27.5
 21
216.4000000000000057
 31
0.0
  0
LINE
  5
1E7
100
AcDbEntity
  8
0
 62
256
370
13
 48
1.0
  6
BYLAYER
100
AcDbLine
 10
59.5000000000000284
 20
209.0999999999999943
 30
0.0
 11
59.5000000000000284
 21
216.4000000000000057
 31
0.0
  0
LINE
  5
1E8
100
AcDbEntity
  8
0
 62
256
370
13
 48
1.0
  6
BYLAYER
100
AcDbLine
 10
27.5
 20
241.0999999999999943
 30
0.0
 11
27.5
 21
248.4000000000000057
 31
0.0
  0
LINE
  5
1E9
100
AcDbEntity
  8
0
 62
256
370
13
 48
1.0
  6
BYLAYER
100
AcDbLine
 10
59.5000000000000284
 20
241.0999999999999943
 30
0.0
 11
59.5000000000000284
 21
248.4000000000000057
 31
0.0
  0
LINE
  5
1EA
100
AcDbEntity
  8
0
 62
256
370
13
 48
1.0
  6
BYLAYER
100
AcDbLine
 10
91.5
 20
15.1000000000000014
 30
0.0
 11
91.5
 21
22.4000000000000057
 31
0.0
  0
LINE
  5
1EB
100
AcDbEntity
  8
0
 62
256
370
13
 48
1.0
  6
BYLAYER
100
AcDbLine
 10
123.5000000000000284
 20
15.1000000000000014
 30
0.0
 11
123.5000000000000284
 21
22.4000000000000057
 31
0.0
  0
LINE
  5
1EC
100
AcDbEntity
  8
0
 62
256
370
13
 48
1.0
  6
BYLAYER
100
AcDbLine
 10
91.5
 20
47.0999999999999943
 30
0.0
 11
91.5
 21
54.4000000000000057
 31
0.0
  0
LINE
  5
1ED
100
AcDbEntity
  8
0
 62
256
370
13
 48
1.0
  6
BYLAYER
100
AcDbLine
 10
123.5000000000000284
 20
47.0999999999999943
 30
0.0
 11
123.5000000000000284
 21
54.4000000000000057
 31
0.0
  0
LINE
  5
1EE
100
AcDbEntity
  8
0
 62
256
370
13
 48
1.0
  6
BYLAYER
100
AcDbLine
 10
91.5
 20
80.0999999999999943
 30
0.0
 11
91.5
 21
87.4000000000000057
 31
0.0
  0
LINE
  5
1EF
100
AcDbEntity
  8
0
 62
256
370
13
 48
1.0
  6
BYLAYER
100
AcDbLine
 10
123.5000000000000284
 20
80.0999999999999943
 30
0.0
 11
123.5000000000000284
 21
87.4000000000000057
 31
0.0
  0
LINE
  5
1F0
100
AcDbEntity
  8
0
 62
256
370
13
 48
1.0
  6
BYLAYER
100
AcDbLine
 10
91.5
 20
112.0999999999999943
 30
0.0
 11
91.5
 21
119.4000000000000057
 31
0.0
  0
LINE
  5
1F1
100
AcDbEntity
  8
0
 62
256
370
13
 48
1.0
  6
BYLAYER
100
AcDbLine
 10
123.5000000000000284
 20
112.0999999999999943
 30
0.0
 11
123.5000000000000284
 21
119.4000000000000057
 31
0.0
  0
LINE
  5
1F2
100
AcDbEntity
  8
0
 62
256
370
13
 48
1.0
  6
BYLAYER
100
AcDbLine
 10
91.5
 20
144.0999999999999943
 30
0.0
 11
91.5
 21
151.4000000000000057
 31
0.0
  0
LINE
  5
1F3
100
AcDbEntity
  8
0
 62
256
370
13
 48
1.0
  6
BYLAYER
100
AcDbLine
 10
123.5000000000000284
 20
144.0999999999999943
 30
0.0
 11
123.5000000000000284
 21
151.4000000000000057
 31
0.0
  0
LINE
  5
1F4
100
AcDbEntity
  8
0
 62
256
370
13
 48
1.0
  6
BYLAYER
100
AcDbLine
 10
91.5
 20
176.0999999999999943
 30
0.0
 11
91.5
 21
183.4000000000000057
 31
0.0
  0
LINE
  5
1F5
100
AcDbEntity
  8
0
 62
256
370
13
 48
1.0
  6
BYLAYER
100
AcDbLine
 10
123.5000000000000284
 20
176.0999999999999943
 30
0.0
 11
123.5000000000000284
 21
183.4000000000000057
 31
0.0
  0
LINE
  5
1F6
100
AcDbEntity
  8
0
 62
256
370
13
 48
1.0
  6
BYLAYER
100
AcDbLine
 10
91.5
 20
209.0999999999999943
 30
0.0
 11
91.5
 21
216.4000000000000057
 31
0.0
  0
LINE
  5
1F7
100
AcDbEntity
  8
0
 62
256
370
13
 48
1.0
  6
BYLAYER
100
AcDbLine
 10
123.5000000000000284
 20
209.0999999999999943
 30
0.0
 11
123.5000000000000284
 21
216.4000000000000057
 31
0.0
  0
LINE
  5
1F8
100
AcDbEntity
  8
0
 62
256
370
13
 48
1.0
  6
BYLAYER
100
AcDbLine
 10
91.5
 20
241.0999999999999943
 30
0.0
 11
91.5
 21
248.4000000000000057
 31
0.0
  0
LINE
  5
1F9
100
AcDbEntity
  8
0
 62
256
370
13
 48
1.0
  6
BYLAYER
100
AcDbLine
 10
123.5000000000000284
 20
241.0999999999999943
 30
0.0
 11
123.5000000000000284
 21
248.4000000000000057
 31
0.0
  0
LINE
  5
1FA
100
AcDbEntity
  8
0
 62
256
370
13
 48
1.0
  6
BYLAYER
100
AcDbLine
 10
14.9000000000000057
 20
2.5
 30
0.0
 11
7.6000000000000227
 21
2.5
 31
0.0
  0
LINE
  5
1FB
100
AcDbEntity
  8
0
 62
256
370
13
 48
1.0
  6
BYLAYER
100
AcDbLine
 10
46.9000000000000057
 20
2.4999999999999929
 30
0.0
 11
39.6000000000000227
 21
2.5
 31
0.0
  0
LINE
  5
1FC
100
AcDbEntity
  8
0
 62
256
370
13
 48
1.0
  6
BYLAYER
100
AcDbLine
 10
14.9000000000000057
 20
34.5
 30
0.0
 11
7.6000000000000227
 21
34.5
 31
0.0
  0
LINE
  5
1FD
100
AcDbEntity
  8
0
 62
256
370
13
 48
1.0
  6
BYLAYER
100
AcDbLine
 10
46.9000000000000057
 20
34.4999999999999858
 30
0.0
 11
39.6000000000000227
 21
34.5
 31
0.0
  0
LINE
  5
1FE
100
AcDbEntity
  8
0
 62
256
370
13
 48
1.0
  6
BYLAYER
100
AcDbLine
 10
14.9000000000000057
 20
67.5
 30
0.0
 11
7.6000000000000227
 21
67.5
 31
0.0
  0
LINE
  5
1FF
100
AcDbEntity
  8
0
 62
256
370
13
 48
1.0
  6
BYLAYER
100
AcDbLine
 10
46.9000000000000057
 20
67.5
 30
0.0
 11
39.6000000000000227
 21
67.5
 31
0.0
  0
LINE
  5
200
100
AcDbEntity
  8
0
 62
256
370
13
 48
1.0
  6
BYLAYER
100
AcDbLine
 10
14.9000000000000057
 20
99.5
 30
0.0
 11
7.6000000000000227
 21
99.5
 31
0.0
  0
LINE
  5
201
100
AcDbEntity
  8
0
 62
256
370
13
 48
1.0
  6
BYLAYER
100
AcDbLine
 10
46.9000000000000057
 20
99.4999999999999858
 30
0.0
 11
39.6000000000000227
 21
99.5
 31
0.0
  0
LINE
  5
202
100
AcDbEntity
  8
0
 62
256
370
13
 48
1.0
  6
BYLAYER
100
AcDbLine
 10
14.9000000000000057
 20
131.5
 30
0.0
 11
7.6000000000000227
 21
131.5
 31
0.0
  0
LINE
  5
203
100
AcDbEntity
  8
0
 62
256
370
13
 48
1.0
  6
BYLAYER
100
AcDbLine
 10
46.9000000000000057
 20
131.5
 30
0.0
 11
39.6000000000000227
 21
131.5
 31
0.0
  0
LINE
  5
204
100
AcDbEntity
  8
0
 62
256
370
13
 48
1.0
  6
BYLAYER
100
AcDbLine
 10
14.9000000000000057
 20
163.5
 30
0.0
 11
7.6000000000000227
 21
163.5
 31
0.0
  0
LINE
  5
205
100
AcDbEntity
  8
0
 62
256
370
13
 48
1.0
  6
BYLAYER
100
AcDbLine
 10
46.9000000000000057
 20
163.5
 30
0.0
 11
39.6000000000000227
 21
163.5
 31
0.0
  0
LINE
  5
206
100
AcDbEntity
  8
0
 62
256
370
13
 48
1.0
  6
BYLAYER
100
AcDbLine
 10
14.9000000000000057
 20
196.5
 30
0.0
 11
7.6000000000000227
 21
196.5
 31
0.0
  0
LINE
  5
207
100
AcDbEntity
  8
0
 62
256
370
13
 48
1.0
  6
BYLAYER
100
AcDbLine
 10
46.9000000000000057
 20
196.5
 30
0.0
 11
39.6000000000000227
 21
196.5
 31
0.0
  0
LINE
  5
208
100
AcDbEntity
  8
0
 62
256
370
13
 48
1.0
  6
BYLAYER
100
AcDbLine
 10
14.9000000000000057
 20
228.5
 30
0.0
 11
7.6000000000000227
 21
228.5
 31
0.0
  0
LINE
  5
209
100
AcDbEntity
  8
0
 62
256
370
13
 48
1.0
  6
BYLAYER
100
AcDbLine
 10
46.9000000000000057
 20
228.5
 30
0.0
 11
39.6000000000000227
 21
228.5
 31
0.0
  0
LINE
  5
20A
100
AcDbEntity
  8
0
 62
256
370
13
 48
1.0
  6
BYLAYER
100
AcDbLine
 10
78.9000000000000057
 20
2.5
 30
0.0
 11
71.6000000000000227
 21
2.5
 31
0.0
  0
LINE
  5
20B
100
AcDbEntity
  8
0
 62
256
370
13
 48
1.0
  6
BYLAYER
100
AcDbLine
 10
110.9000000000000057
 20
2.4999999999999929
 30
0.0
 11
103.6000000000000227
 21
2.5
 31
0.0
  0
LINE
  5
20C
100
AcDbEntity
  8
0
 62
256
370
13
 48
1.0
  6
BYLAYER
100
AcDbLine
 10
78.9000000000000057
 20
34.5
 30
0.0
 11
71.6000000000000227
 21
34.5
 31
0.0
  0
LINE
  5
20D
100
AcDbEntity
  8
0
 62
256
370
13
 48
1.0
  6
BYLAYER
100
AcDbLine
 10
110.9000000000000057
 20
34.4999999999999858
 30
0.0
 11
103.6000000000000227
 21
34.5
 31
0.0
  0
LINE
  5
20E
100
AcDbEntity
  8
0
 62
256
370
13
 48
1.0
  6
BYLAYER
100
AcDbLine
 10
78.9000000000000057
 20
67.5
 30
0.0
 11
71.6000000000000227
 21
67.5
 31
0.0
  0
LINE
  5
20F
100
AcDbEntity
  8
0
 62
256
370
13
 48
1.0
  6
BYLAYER
100
AcDbLine
 10
110.9000000000000057
 20
67.5
 30
0.0
 11
103.6000000000000227
 21
67.5
 31
0.0
  0
LINE
  5
210
100
AcDbEntity
  8
0
 62
256
370
13
 48
1.0
  6
BYLAYER
100
AcDbLine
 10
78.9000000000000057
 20
99.5
 30
0.0
 11
71.6000000000000227
 21
99.5
 31
0.0
  0
LINE
  5
211
100
AcDbEntity
  8
0
 62
256
370
13
 48
1.0
  6
BYLAYER
100
AcDbLine
 10
110.9000000000000057
 20
99.4999999999999858
 30
0.0
 11
103.6000000000000227
 21
99.5
 31
0.0
  0
LINE
  5
212
100
AcDbEntity
  8
0
 62
256
370
13
 48
1.0
  6
BYLAYER
100
AcDbLine
 10
78.9000000000000057
 20
131.5
 30
0.0
 11
71.6000000000000227
 21
131.5
 31
0.0
  0
LINE
  5
213
100
AcDbEntity
  8
0
 62
256
370
13
 48
1.0
  6
BYLAYER
100
AcDbLine
 10
110.9000000000000057
 20
131.5
 30
0.0
 11
103.6000000000000227
 21
131.5
 31
0.0
  0
LINE
  5
214
100
AcDbEntity
  8
0
 62
256
370
13
 48
1.0
  6
BYLAYER
100
AcDbLine
 10
78.9000000000000057
 20
163.5
 30
0.0
 11
71.6000000000000227
 21
163.5
 31
0.0
  0
LINE
  5
215
100
AcDbEntity
  8
0
 62
256
370
13
 48
1.0
  6
BYLAYER
100
AcDbLine
 10
110.9000000000000057
 20
163.5
 30
0.0
 11
103.6000000000000227
 21
163.5
 31
0.0
  0
LINE
  5
216
100
AcDbEntity
  8
0
 62
256
370
13
 48
1.0
  6
BYLAYER
100
AcDbLine
 10
78.9000000000000057
 20
196.5
 30
0.0
 11
71.6000000000000227
 21
196.5
 31
0.0
  0
LINE
  5
217
100
AcDbEntity
  8
0
 62
256
370
13
 48
1.0
  6
BYLAYER
100
AcDbLine
 10
110.9000000000000057
 20
196.5
 30
0.0
 11
103.6000000000000227
 21
196.5
 31
0.0
  0
LINE
  5
218
100
AcDbEntity
  8
0
 62
256
370
13
 48
1.0
  6
BYLAYER
100
AcDbLine
 10
78.9000000000000057
 20
228.5
 30
0.0
 11
71.6000000000000227
 21
228.5
 31
0.0
  0
LINE
  5
219
100
AcDbEntity
  8
0
 62
256
370
13
 48
1.0
  6
BYLAYER
100
AcDbLine
 10
110.9000000000000057
 20
228.5
 30
0.0
 11
103.6000000000000227
 21
228.5
 31
0.0
  0
LINE
  5
21A
100
AcDbEntity
  8
0
 62
256
370
13
 48
1.0
  6
BYLAYER
100
AcDbLine
 10
27.5
 20
2.4999999999999929
 30
0.0
 11
27.5
 21
7.3999999999999986
 31
0.0
  0
LINE
  5
21B
100
AcDbEntity
  8
0
 62
256
370
13
 48
1.0
  6
BYLAYER
100
AcDbLine
 10
59.5000000000000284
 20
2.4999999999999858
 30
0.0
 11
59.5000000000000284
 21
7.3999999999999986
 31
0.0
  0
LINE
  5
21C
100
AcDbEntity
  8
0
 62
256
370
13
 48
1.0
  6
BYLAYER
100
AcDbLine
 10
27.5
 20
34.4999999999999858
 30
0.0
 11
27.5
 21
39.3999999999999915
 31
0.0
  0
LINE
  5
21D
100
AcDbEntity
  8
0
 62
256
370
13
 48
1.0
  6
BYLAYER
100
AcDbLine
 10
59.5000000000000284
 20
34.4999999999999716
 30
0.0
 11
59.5000000000000284
 21
39.3999999999999915
 31
0.0
  0
LINE
  5
21E
100
AcDbEntity
  8
0
 62
256
370
13
 48
1.0
  6
BYLAYER
100
AcDbLine
 10
27.5
 20
67.5
 30
0.0
 11
27.5
 21
72.4000000000000057
 31
0.0
  0
LINE
  5
21F
100
AcDbEntity
  8
0
 62
256
370
13
 48
1.0
  6
BYLAYER
100
AcDbLine
 10
59.5000000000000284
 20
67.4999999999999858
 30
0.0
 11
59.5000000000000284
 21
72.4000000000000057
 31
0.0
  0
LINE
  5
220
100
AcDbEntity
  8
0
 62
256
370
13
 48
1.0
  6
BYLAYER
100
AcDbLine
 10
27.5
 20
99.4999999999999858
 30
0.0
 11
27.5
 21
104.3999999999999915
 31
0.0
  0
LINE
  5
221
100
AcDbEntity
  8
0
 62
256
370
13
 48
1.0
  6
BYLAYER
100
AcDbLine
 10
59.5000000000000284
 20
99.4999999999999716
 30
0.0
 11
59.5000000000000284
 21
104.3999999999999915
 31
0.0
  0
LINE
  5
222
100
AcDbEntity
  8
0
 62
256
370
13
 48
1.0
  6
BYLAYER
100
AcDbLine
 10
27.5
 20
131.5
 30
0.0
 11
27.5
 21
136.4000000000000057
 31
0.0
  0
LINE
  5
223
100
AcDbEntity
  8
0
 62
256
370
13
 48
1.0
  6
BYLAYER
100
AcDbLine
 10
59.5000000000000284
 20
131.5
 30
0.0
 11
59.5000000000000284
 21
136.4000000000000057
 31
0.0
  0
LINE
  5
224
100
AcDbEntity
  8
0
 62
256
370
13
 48
1.0
  6
BYLAYER
100
AcDbLine
 10
27.5
 20
163.5
 30
0.0
 11
27.5
 21
168.3999999999999773
 31
0.0
  0
LINE
  5
225
100
AcDbEntity
  8
0
 62
256
370
13
 48
1.0
  6
BYLAYER
100
AcDbLine
 10
59.5000000000000284
 20
163.4999999999999716
 30
0.0
 11
59.5000000000000284
 21
168.3999999999999773
 31
0.0
  0
LINE
  5
226
100
AcDbEntity
  8
0
 62
256
370
13
 48
1.0
  6
BYLAYER
100
AcDbLine
 10
27.5
 20
196.5
 30
0.0
 11
27.5
 21
201.4000000000000057
 31
0.0
  0
LINE
  5
227
100
AcDbEntity
  8
0
 62
256
370
13
 48
1.0
  6
BYLAYER
100
AcDbLine
 10
59.5000000000000284
 20
196.5
 30
0.0
 11
59.5000000000000284
 21
201.4000000000000057
 31
0.0
  0
LINE
  5
228
100
AcDbEntity
  8
0
 62
256
370
13
 48
1.0
  6
BYLAYER
100
AcDbLine
 10
27.5
 20
228.5
 30
0.0
 11
27.5
 21
233.3999999999999773
 31
0.0
  0
LINE
  5
229
100
AcDbEntity
  8
0
 62
256
370
13
 48
1.0
  6
BYLAYER
100
AcDbLine
 10
59.5000000000000284
 20
228.4999999999999716
 30
0.0
 11
59.5000000000000284
 21
233.3999999999999773
 31
0.0
  0
LINE
  5
22A
100
AcDbEntity
  8
0
 62
256
370
13
 48
1.0
  6
BYLAYER
100
AcDbLine
 10
91.5
 20
2.4999999999999929
 30
0.0
 11
91.5
 21
7.3999999999999986
 31
0.0
  0
LINE
  5
22B
100
AcDbEntity
  8
0
 62
256
370
13
 48
1.0
  6
BYLAYER
100
AcDbLine
 10
123.5000000000000284
 20
2.4999999999999858
 30
0.0
 11
123.5000000000000284
 21
7.3999999999999986
 31
0.0
  0
LINE
  5
22C
100
AcDbEntity
  8
0
 62
256
370
13
 48
1.0
  6
BYLAYER
100
AcDbLine
 10
91.5
 20
34.4999999999999858
 30
0.0
 11
91.5
 21
39.3999999999999915
 31
0.0
  0
LINE
  5
22D
100
AcDbEntity
  8
0
 62
256
370
13
 48
1.0
  6
BYLAYER
100
AcDbLine
 10
123.5000000000000284
 20
34.4999999999999716
 30
0.0
 11
123.5000000000000284
 21
39.3999999999999915
 31
0.0
  0
LINE
  5
22E
100
AcDbEntity
  8
0
 62
256
370
13
 48
1.0
  6
BYLAYER
100
AcDbLine
 10
91.5
 20
67.5
 30
0.0
 11
91.5
 21
72.4000000000000057
 31
0.0
  0
LINE
  5
22F
100
AcDbEntity
  8
0
 62
256
370
13
 48
1.0
  6
BYLAYER
100
AcDbLine
 10
123.5000000000000284
 20
67.4999999999999858
 30
0.0
 11
123.5000000000000284
 21
72.4000000000000057
 31
0.0
  0
LINE
  5
230
100
AcDbEntity
  8
0
 62
256
370
13
 48
1.0
  6
BYLAYER
100
AcDbLine
 10
91.5
 20
99.4999999999999858
 30
0.0
 11
91.5
 21
104.3999999999999915
 31
0.0
  0
LINE
  5
231
100
AcDbEntity
  8
0
 62
256
370
13
 48
1.0
  6
BYLAYER
100
AcDbLine
 10
123.5000000000000284
 20
99.4999999999999716
 30
0.0
 11
123.5000000000000284
 21
104.3999999999999915
 31
0.0
  0
LINE
  5
232
100
AcDbEntity
  8
0
 62
256
370
13
 48
1.0
  6
BYLAYER
100
AcDbLine
 10
91.5
 20
131.5
 30
0.0
 11
91.5
 21
136.4000000000000057
 31
0.0
  0
LINE
  5
233
100
AcDbEntity
  8
0
 62
256
370
13
 48
1.0
  6
BYLAYER
100
AcDbLine
 10
123.5000000000000284
 20
131.5
 30
0.0
 11
123.5000000000000284
 21
136.4000000000000057
 31
0.0
  0
LINE
  5
234
100
AcDbEntity
  8
0
 62
256
370
13
 48
1.0
  6
BYLAYER
100
AcDbLine
 10
91.5
 20
163.5
 30
0.0
 11
91.5
 21
168.3999999999999773
 31
0.0
  0
LINE
  5
235
100
AcDbEntity
  8
0
 62
256
370
13
 48
1.0
  6
BYLAYER
100
AcDbLine
 10
123.5000000000000284
 20
163.4999999999999716
 30
0.0
 11
123.5000000000000284
 21
168.3999999999999773
 31
0.0
  0
LINE
  5
236
100
AcDbEntity
  8
0
 62
256
370
13
 48
1.0
  6
BYLAYER
100
AcDbLine
 10
91.5
 20
196.5
 30
0.0
 11
91.5
 21
201.4000000000000057
 31
0.0
  0
LINE
  5
237
100
AcDbEntity
  8
0
 62
256
370
13
 48
1.0
  6
BYLAYER
100
AcDbLine
 10
123.5000000000000284
 20
196.5
 30
0.0
 11
123.5000000000000284
 21
201.4000000000000057
 31
0.0
  0
LINE
  5
238
100
AcDbEntity
  8
0
 62
256
370
13
 48
1.0
  6
BYLAYER
100
AcDbLine
 10
91.5
 20
228.5
 30
0.0
 11
91.5
 21
233.3999999999999773
 31
0.0
  0
LINE
  5
239
100
AcDbEntity
  8
0
 62
256
370
13
 48
1.0
  6
BYLAYER
100
AcDbLine
 10
123.5000000000000284
 20
228.4999999999999716
 30
0.0
 11
123.5000000000000284
 21
233.3999999999999773
 31
0.0
  0
LINE
  5
23A
100
AcDbEntity
  8
0
 62
256
370
13
 48
1.0
  6
BYLAYER
100
AcDbLine
 10
27.5
 20
2.4999999999999929
 30
0.0
 11
22.6000000000000227
 21
2.5
 31
0.0
  0
LINE
  5
23B
100
AcDbEntity
  8
0
 62
256
370
13
 48
1.0
  6
BYLAYER
100
AcDbLine
 10
59.5000000000000284
 20
2.4999999999999858
 30
0.0
 11
54.6000000000000512
 21
2.5
 31
0.0
  0
LINE
  5
23C
100
AcDbEntity
  8
0
 62
256
370
13
 48
1.0
  6
BYLAYER
100
AcDbLine
 10
27.5
 20
34.4999999999999858
 30
0.0
 11
22.6000000000000227
 21
34.5
 31
0.0
  0
LINE
  5
23D
100
AcDbEntity
  8
0
 62
256
370
13
 48
1.0
  6
BYLAYER
100
AcDbLine
 10
59.5000000000000284
 20
34.4999999999999716
 30
0.0
 11
54.6000000000000512
 21
34.5
 31
0.0
  0
LINE
  5
23E
100
AcDbEntity
  8
0
 62
256
370
13
 48
1.0
  6
BYLAYER
100
AcDbLine
 10
27.5
 20
67.5
 30
0.0
 11
22.6000000000000227
 21
67.5
 31
0.0
  0
LINE
  5
23F
100
AcDbEntity
  8
0
 62
256
370
13
 48
1.0
  6
BYLAYER
100
AcDbLine
 10
59.5000000000000284
 20
67.4999999999999858
 30
0.0
 11
54.6000000000000512
 21
67.5
 31
0.0
  0
LINE
  5
240
100
AcDbEntity
  8
0
 62
256
370
13
 48
1.0
  6
BYLAYER
100
AcDbLine
 10
27.5
 20
99.4999999999999858
 30
0.0
 11
22.6000000000000227
 21
99.5
 31
0.0
  0
LINE
  5
241
100
AcDbEntity
  8
0
 62
256
370
13
 48
1.0
  6
BYLAYER
100
AcDbLine
 10
59.5000000000000284
 20
99.4999999999999716
 30
0.0
 11
54.6000000000000512
 21
99.5
 31
0.0
  0
LINE
  5
242
100
AcDbEntity
  8
0
 62
256
370
13
 48
1.0
  6
BYLAYER
100
AcDbLine
 10
27.5
 20
131.5
 30
0.0
 11
22.6000000000000227
 21
131.5
 31
0.0
  0
LINE
  5
243
100
AcDbEntity
  8
0
 62
256
370
13
 48
1.0
  6
BYLAYER
100
AcDbLine
 10
59.5000000000000284
 20
131.5
 30
0.0
 11
54.6000000000000512
 21
131.5
 31
0.0
  0
LINE
  5
244
100
AcDbEntity
  8
0
 62
256
370
13
 48
1.0
  6
BYLAYER
100
AcDbLine
 10
27.5
 20
163.5
 30
0.0
 11
22.6000000000000227
 21
163.5
 31
0.0
  0
LINE
  5
245
100
AcDbEntity
  8
0
 62
256
370
13
 48
1.0
  6
BYLAYER
100
AcDbLine
 10
59.5000000000000284
 20
163.4999999999999716
 30
0.0
 11
54.6000000000000512
 21
163.5
 31
0.0
  0
LINE
  5
246
100
AcDbEntity
  8
0
 62
256
370
13
 48
1.0
  6
BYLAYER
100
AcDbLine
 10
27.5
 20
196.5
 30
0.0
 11
22.6000000000000227
 21
196.5
 31
0.0
  0
LINE
  5
247
100
AcDbEntity
  8
0
 62
256
370
13
 48
1.0
  6
BYLAYER
100
AcDbLine
 10
59.5000000000000284
 20
196.5
 30
0.0
 11
54.6000000000000512
 21
196.5
 31
0.0
  0
LINE
  5
248
100
AcDbEntity
  8
0
 62
256
370
13
 48
1.0
  6
BYLAYER
100
AcDbLine
 10
27.5
 20
228.5
 30
0.0
 11
22.6000000000000227
 21
228.5
 31
0.0
  0
LINE
  5
249
100
AcDbEntity
  8
0
 62
256
370
13
 48
1.0
  6
BYLAYER
100
AcDbLine
 10
59.5000000000000284
 20
228.4999999999999716
 30
0.0
 11
54.6000000000000512
 21
228.5
 31
0.0
  0
LINE
  5
24A
100
AcDbEntity
  8
0
 62
256
370
13
 48
1.0
  6
BYLAYER
100
AcDbLine
 10
91.5
 20
2.4999999999999929
 30
0.0
 11
86.6000000000000227
 21
2.5
 31
0.0
  0
LINE
  5
24B
100
AcDbEntity
  8
0
 62
256
370
13
 48
1.0
  6
BYLAYER
100
AcDbLine
 10
123.5000000000000284
 20
2.4999999999999858
 30
0.0
 11
118.6000000000000512
 21
2.5
 31
0.0
  0
LINE
  5
24C
100
AcDbEntity
  8
0
 62
256
370
13
 48
1.0
  6
BYLAYER
100
AcDbLine
 10
91.5
 20
34.4999999999999858
 30
0.0
 11
86.6000000000000227
 21
34.5
 31
0.0
  0
LINE
  5
24D
100
AcDbEntity
  8
0
 62
256
370
13
 48
1.0
  6
BYLAYER
100
AcDbLine
 10
123.5000000000000284
 20
34.4999999999999716
 30
0.0
 11
118.6000000000000512
 21
34.5
 31
0.0
  0
LINE
  5
24E
100
AcDbEntity
  8
0
 62
256
370
13
 48
1.0
  6
BYLAYER
100
AcDbLine
 10
91.5
 20
67.5
 30
0.0
 11
86.6000000000000227
 21
67.5
 31
0.0
  0
LINE
  5
24F
100
AcDbEntity
  8
0
 62
256
370
13
 48
1.0
  6
BYLAYER
100
AcDbLine
 10
123.5000000000000284
 20
67.4999999999999858
 30
0.0
 11
118.6000000000000512
 21
67.5
 31
0.0
  0
LINE
  5
250
100
AcDbEntity
  8
0
 62
256
370
13
 48
1.0
  6
BYLAYER
100
AcDbLine
 10
91.5
 20
99.4999999999999858
 30
0.0
 11
86.6000000000000227
 21
99.5
 31
0.0
  0
LINE
  5
251
100
AcDbEntity
  8
0
 62
256
370
13
 48
1.0
  6
BYLAYER
100
AcDbLine
 10
123.5000000000000284
 20
99.4999999999999716
 30
0.0
 11
118.6000000000000512
 21
99.5
 31
0.0
  0
LINE
  5
252
100
AcDbEntity
  8
0
 62
256
370
13
 48
1.0
  6
BYLAYER
100
AcDbLine
 10
91.5
 20
131.5
 30
0.0
 11
86.6000000000000227
 21
131.5
 31
0.0
  0
LINE
  5
253
100
AcDbEntity
  8
0
 62
256
370
13
 48
1.0
  6
BYLAYER
100
AcDbLine
 10
123.5000000000000284
 20
131.5
 30
0.0
 11
118.6000000000000512
 21
131.5
 31
0.0
  0
LINE
  5
254
100
AcDbEntity
  8
0
 62
256
370
13
 48
1.0
  6
BYLAYER
100
AcDbLine
 10
91.5
 20
163.5
 30
0.0
 11
86.6000000000000227
 21
163.5
 31
0.0
  0
LINE
  5
255
100
AcDbEntity
  8
0
 62
256
370
13
 48
1.0
  6
BYLAYER
100
AcDbLine
 10
123.5000000000000284
 20
163.4999999999999716
 30
0.0
 11
118.6000000000000512
 21
163.5
 31
0.0
  0
LINE
  5
256
100
AcDbEntity
  8
0
 62
256
370
13
 48
1.0
  6
BYLAYER
100
AcDbLine
 10
91.5
 20
196.5
 30
0.0
 11
86.6000000000000227
 21
196.5
 31
0.0
  0
LINE
  5
257
100
AcDbEntity
  8
0
 62
256
370
13
 48
1.0
  6
BYLAYER
100
AcDbLine
 10
123.5000000000000284
 20
196.5
 30
0.0
 11
118.6000000000000512
 21
196.5
 31
0.0
  0
LINE
  5
258
100
AcDbEntity
  8
0
 62
256
370
13
 48
1.0
  6
BYLAYER
100
AcDbLine
 10
91.5
 20
228.5
 30
0.0
 11
86.6000000000000227
 21
228.5
 31
0.0
  0
LINE
  5
259
100
AcDbEntity
  8
0
 62
256
370
13
 48
1.0
  6
BYLAYER
100
AcDbLine
 10
123.5000000000000284
 20
228.4999999999999716
 30
0.0
 11
118.6000000000000512
 21
228.5
 31
0.0
  0
LINE
  5
25A
100
AcDbEntity
  8
0
 62
256
370
13
 48
1.0
  6
BYLAYER
100
AcDbLine
 10
7.6000000000000227
 20
30.0
 30
0.0
 11
7.6000000000000227
 21
27.5
 31
0.0
  0
LINE
  5
25B
100
AcDbEntity
  8
0
 62
256
370
13
 48
1.0
  6
BYLAYER
100
AcDbLine
 10
39.6000000000000227
 20
30.0
 30
0.0
 11
39.6000000000000227
 21
27.5
 31
0.0
  0
LINE
  5
25C
100
AcDbEntity
  8
0
 62
256
370
13
 48
1.0
  6
BYLAYER
100
AcDbLine
 10
7.6000000000000227
 20
62.0
 30
0.0
 11
7.6000000000000227
 21
59.5
 31
0.0
  0
LINE
  5
25D
100
AcDbEntity
  8
0
 62
256
370
13
 48
1.0
  6
BYLAYER
100
AcDbLine
 10
39.6000000000000227
 20
62.0
 30
0.0
 11
39.6000000000000227
 21
59.5
 31
0.0
  0
LINE
  5
25E
100
AcDbEntity
  8
0
 62
256
370
13
 48
1.0
  6
BYLAYER
100
AcDbLine
 10
7.6000000000000227
 20
95.0
 30
0.0
 11
7.6000000000000227
 21
92.5
 31
0.0
  0
LINE
  5
25F
100
AcDbEntity
  8
0
 62
256
370
13
 48
1.0
  6
BYLAYER
100
AcDbLine
 10
39.6000000000000227
 20
95.0
 30
0.0
 11
39.6000000000000227
 21
92.5
 31
0.0
  0
LINE
  5
260
100
AcDbEntity
  8
0
 62
256
370
13
 48
1.0
  6
BYLAYER
100
AcDbLine
 10
7.6000000000000227
 20
127.0
 30
0.0
 11
7.6000000000000227
 21
124.5
 31
0.0
  0
LINE
  5
261
100
AcDbEntity
  8
0
 62
256
370
13
 48
1.0
  6
BYLAYER
100
AcDbLine
 10
39.6000000000000227
 20
127.0
 30
0.0
 11
39.6000000000000227
 21
124.5
 31
0.0
  0
LINE
  5
262
100
AcDbEntity
  8
0
 62
256
370
13
 48
1.0
  6
BYLAYER
100
AcDbLine
 10
7.6000000000000227
 20
159.0
 30
0.0
 11
7.6000000000000227
 21
156.5
 31
0.0
  0
LINE
  5
263
100
AcDbEntity
  8
0
 62
256
370
13
 48
1.0
  6
BYLAYER
100
AcDbLine
 10
39.6000000000000227
 20
159.0
 30
0.0
 11
39.6000000000000227
 21
156.5
 31
0.0
  0
LINE
  5
264
100
AcDbEntity
  8
0
 62
256
370
13
 48
1.0
  6
BYLAYER
100
AcDbLine
 10
7.6000000000000227
 20
191.0
 30
0.0
 11
7.6000000000000227
 21
188.5
 31
0.0
  0
LINE
  5
265
100
AcDbEntity
  8
0
 62
256
370
13
 48
1.0
  6
BYLAYER
100
AcDbLine
 10
39.6000000000000227
 20
191.0
 30
0.0
 11
39.6000000000000227
 21
188.5
 31
0.0
  0
LINE
  5
266
100
AcDbEntity
  8
0
 62
256
370
13
 48
1.0
  6
BYLAYER
100
AcDbLine
 10
7.6000000000000227
 20
224.0
 30
0.0
 11
7.6000000000000227
 21
221.5
 31
0.0
  0
LINE
  5
267
100
AcDbEntity
  8
0
 62
256
370
13
 48
1.0
  6
BYLAYER
100
AcDbLine
 10
39.6000000000000227
 20
224.0
 30
0.0
 11
39.6000000000000227
 21
221.5
 31
0.0
  0
LINE
  5
268
100
AcDbEntity
  8
0
 62
256
370
13
 48
1.0
  6
BYLAYER
100
AcDbLine
 10
7.6000000000000227
 20
256.0
 30
0.0
 11
7.6000000000000227
 21
253.5
 31
0.0
  0
LINE
  5
269
100
AcDbEntity
  8
0
 62
256
370
13
 48
1.0
  6
BYLAYER
100
AcDbLine
 10
39.6000000000000227
 20
256.0
 30
0.0
 11
39.6000000000000227
 21
253.5
 31
0.0
  0
LINE
  5
26A
100
AcDbEntity
  8
0
 62
256
370
13
 48
1.0
  6
BYLAYER
100
AcDbLine
 10
71.6000000000000227
 20
30.0
 30
0.0
 11
71.6000000000000227
 21
27.5
 31
0.0
  0
LINE
  5
26B
100
AcDbEntity
  8
0
 62
256
370
13
 48
1.0
  6
BYLAYER
100
AcDbLine
 10
103.6000000000000227
 20
30.0
 30
0.0
 11
103.6000000000000227
 21
27.5
 31
0.0
  0
LINE
  5
26C
100
AcDbEntity
  8
0
 62
256
370
13
 48
1.0
  6
BYLAYER
100
AcDbLine
 10
71.6000000000000227
 20
62.0
 30
0.0
 11
71.6000000000000227
 21
59.5
 31
0.0
  0
LINE
  5
26D
100
AcDbEntity
  8
0
 62
256
370
13
 48
1.0
  6
BYLAYER
100
AcDbLine
 10
103.6000000000000227
 20
62.0
 30
0.0
 11
103.6000000000000227
 21
59.5
 31
0.0
  0
LINE
  5
26E
100
AcDbEntity
  8
0
 62
256
370
13
 48
1.0
  6
BYLAYER
100
AcDbLine
 10
71.6000000000000227
 20
95.0
 30
0.0
 11
71.6000000000000227
 21
92.5
 31
0.0
  0
LINE
  5
26F
100
AcDbEntity
  8
0
 62
256
370
13
 48
1.0
  6
BYLAYER
100
AcDbLine
 10
103.6000000000000227
 20
95.0
 30
0.0
 11
103.6000000000000227
 21
92.5
 31
0.0
  0
LINE
  5
270
100
AcDbEntity
  8
0
 62
256
370
13
 48
1.0
  6
BYLAYER
100
AcDbLine
 10
71.6000000000000227
 20
127.0
 30
0.0
 11
71.6000000000000227
 21
124.5
 31
0.0
  0
LINE
  5
271
100
AcDbEntity
  8
0
 62
256
370
13
 48
1.0
  6
BYLAYER
100
AcDbLine
 10
103.6000000000000227
 20
127.0
 30
0.0
 11
103.6000000000000227
 21
124.5
 31
0.0
  0
LINE
  5
272
100
AcDbEntity
  8
0
 62
256
370
13
 48
1.0
  6
BYLAYER
100
AcDbLine
 10
71.6000000000000227
 20
159.0
 30
0.0
 11
71.6000000000000227
 21
156.5
 31
0.0
  0
LINE
  5
273
100
AcDbEntity
  8
0
 62
256
370
13
 48
1.0
  6
BYLAYER
100
AcDbLine
 10
103.6000000000000227
 20
159.0
 30
0.0
 11
103.6000000000000227
 21
156.5
 31
0.0
  0
LINE
  5
274
100
AcDbEntity
  8
0
 62
256
370
13
 48
1.0
  6
BYLAYER
100
AcDbLine
 10
71.6000000000000227
 20
191.0
 30
0.0
 11
71.6000000000000227
 21
188.5
 31
0.0
  0
LINE
  5
275
100
AcDbEntity
  8
0
 62
256
370
13
 48
1.0
  6
BYLAYER
100
AcDbLine
 10
103.6000000000000227
 20
191.0
 30
0.0
 11
103.6000000000000227
 21
188.5
 31
0.0
  0
LINE
  5
276
100
AcDbEntity
  8
0
 62
256
370
13
 48
1.0
  6
BYLAYER
100
AcDbLine
 10
71.6000000000000227
 20
224.0
 30
0.0
 11
71.6000000000000227
 21
221.5
 31
0.0
  0
LINE
  5
277
100
AcDbEntity
  8
0
 62
256
370
13
 48
1.0
  6
BYLAYER
100
AcDbLine
 10
103.6000000000000227
 20
224.0
 30
0.0
 11
103.6000000000000227
 21
221.5
 31
0.0
  0
LINE
  5
278
100
AcDbEntity
  8
0
 62
256
370
13
 48
1.0
  6
BYLAYER
100
AcDbLine
 10
71.6000000000000227
 20
256.0
 30
0.0
 11
71.6000000000000227
 21
253.5
 31
0.0
  0
LINE
  5
279
100
AcDbEntity
  8
0
 62
256
370
13
 48
1.0
  6
BYLAYER
100
AcDbLine
 10
103.6000000000000227
 20
256.0
 30
0.0
 11
103.6000000000000227
 21
253.5
 31
0.0
  0
LINE
  5
27A
100
AcDbEntity
  8
0
 62
256
370
13
 48
1.0
  6
BYLAYER
100
AcDbLine
 10
0.0
 20
22.4000000000000057
 30
0.0
 11
2.5
 21
22.4000000000000057
 31
0.0
  0
LINE
  5
27B
100
AcDbEntity
  8
0
 62
256
370
13
 48
1.0
  6
BYLAYER
100
AcDbLine
 10
32.0
 20
22.4000000000000057
 30
0.0
 11
34.5
 21
22.4000000000000057
 31
0.0
  0
LINE
  5
27C
100
AcDbEntity
  8
0
 62
256
370
13
 48
1.0
  6
BYLAYER
100
AcDbLine
 10
0.0
 20
54.4000000000000057
 30
0.0
 11
2.5
 21
54.4000000000000057
 31
0.0
  0
LINE
  5
27D
100
AcDbEntity
  8
0
 62
256
370
13
 48
1.0
  6
BYLAYER
100
AcDbLine
 10
32.0
 20
54.4000000000000057
 30
0.0
 11
34.5
 21
54.4000000000000057
 31
0.0
  0
LINE
  5
27E
100
AcDbEntity
  8
0
 62
256
370
13
 48
1.0
  6
BYLAYER
100
AcDbLine
 10
0.0
 20
87.4000000000000057
 30
0.0
 11
2.5
 21
87.4000000000000057
 31
0.0
  0
LINE
  5
27F
100
AcDbEntity
  8
0
 62
256
370
13
 48
1.0
  6
BYLAYER
100
AcDbLine
 10
32.0
 20
87.4000000000000057
 30
0.0
 11
34.5
 21
87.4000000000000057
 31
0.0
  0
LINE
  5
280
100
AcDbEntity
  8
0
 62
256
370
13
 48
1.0
  6
BYLAYER
100
AcDbLine
 10
0.0
 20
119.4000000000000057
 30
0.0
 11
2.5
 21
119.4000000000000057
 31
0.0
  0
LINE
  5
281
100
AcDbEntity
  8
0
 62
256
370
13
 48
1.0
  6
BYLAYER
100
AcDbLine
 10
32.0
 20
119.4000000000000057
 30
0.0
 11
34.5
 21
119.4000000000000057
 31
0.0
  0
LINE
  5
282
100
AcDbEntity
  8
0
 62
256
370
13
 48
1.0
  6
BYLAYER
100
AcDbLine
 10
0.0
 20
151.4000000000000057
 30
0.0
 11
2.5
 21
151.4000000000000057
 31
0.0
  0
LINE
  5
283
100
AcDbEntity
  8
0
 62
256
370
13
 48
1.0
  6
BYLAYER
100
AcDbLine
 10
32.0
 20
151.4000000000000057
 30
0.0
 11
34.5
 21
151.4000000000000057
 31
0.0
  0
LINE
  5
284
100
AcDbEntity
  8
0
 62
256
370
13
 48
1.0
  6
BYLAYER
100
AcDbLine
 10
0.0
 20
183.4000000000000057
 30
0.0
 11
2.5
 21
183.4000000000000057
 31
0.0
  0
LINE
  5
285
100
AcDbEntity
  8
0
 62
256
370
13
 48
1.0
  6
BYLAYER
100
AcDbLine
 10
32.0
 20
183.4000000000000057
 30
0.0
 11
34.5
 21
183.4000000000000057
 31
0.0
  0
LINE
  5
286
100
AcDbEntity
  8
0
 62
256
370
13
 48
1.0
  6
BYLAYER
100
AcDbLine
 10
0.0
 20
216.4000000000000057
 30
0.0
 11
2.5
 21
216.4000000000000057
 31
0.0
  0
LINE
  5
287
100
AcDbEntity
  8
0
 62
256
370
13
 48
1.0
  6
BYLAYER
100
AcDbLine
 10
32.0
 20
216.4000000000000057
 30
0.0
 11
34.5
 21
216.4000000000000057
 31
0.0
  0
LINE
  5
288
100
AcDbEntity
  8
0
 62
256
370
13
 48
1.0
  6
BYLAYER
100
AcDbLine
 10
0.0
 20
248.4000000000000057
 30
0.0
 11
2.5
 21
248.4000000000000057
 31
0.0
  0
LINE
  5
289
100
AcDbEntity
  8
0
 62
256
370
13
 48
1.0
  6
BYLAYER
100
AcDbLine
 10
32.0
 20
248.4000000000000057
 30
0.0
 11
34.5
 21
248.4000000000000057
 31
0.0
  0
LINE
  5
28A
100
AcDbEntity
  8
0
 62
256
370
13
 48
1.0
  6
BYLAYER
100
AcDbLine
 10
64.0
 20
22.4000000000000057
 30
0.0
 11
66.5
 21
22.4000000000000057
 31
0.0
  0
LINE
  5
28B
100
AcDbEntity
  8
0
 62
256
370
13
 48
1.0
  6
BYLAYER
100
AcDbLine
 10
96.0
 20
22.4000000000000057
 30
0.0
 11
98.5
 21
22.4000000000000057
 31
0.0
  0
LINE
  5
28C
100
AcDbEntity
  8
0
 62
256
370
13
 48
1.0
  6
BYLAYER
100
AcDbLine
 10
64.0
 20
54.4000000000000057
 30
0.0
 11
66.5
 21
54.4000000000000057
 31
0.0
  0
LINE
  5
28D
100
AcDbEntity
  8
0
 62
256
370
13
 48
1.0
  6
BYLAYER
100
AcDbLine
 10
96.0
 20
54.4000000000000057
 30
0.0
 11
98.5
 21
54.4000000000000057
 31
0.0
  0
LINE
  5
28E
100
AcDbEntity
  8
0
 62
256
370
13
 48
1.0
  6
BYLAYER
100
AcDbLine
 10
64.0
 20
87.4000000000000057
 30
0.0
 11
66.5
 21
87.4000000000000057
 31
0.0
  0
LINE
  5
28F
100
AcDbEntity
  8
0
 62
256
370
13
 48
1.0
  6
BYLAYER
100
AcDbLine
 10
96.0
 20
87.4000000000000057
 30
0.0
 11
98.5
 21
87.4000000000000057
 31
0.0
  0
LINE
  5
290
100
AcDbEntity
  8
0
 62
256
370
13
 48
1.0
  6
BYLAYER
100
AcDbLine
 10
64.0
 20
119.4000000000000057
 30
0.0
 11
66.5
 21
119.4000000000000057
 31
0.0
  0
LINE
  5
291
100
AcDbEntity
  8
0
 62
256
370
13
 48
1.0
  6
BYLAYER
100
AcDbLine
 10
96.0
 20
119.4000000000000057
 30
0.0
 11
98.5
 21
119.4000000000000057
 31
0.0
  0
LINE
  5
292
100
AcDbEntity
  8
0
 62
256
370
13
 48
1.0
  6
BYLAYER
100
AcDbLine
 10
64.0
 20
151.4000000000000057
 30
0.0
 11
66.5
 21
151.4000000000000057
 31
0.0
  0
LINE
  5
293
100
AcDbEntity
  8
0
 62
256
370
13
 48
1.0
  6
BYLAYER
100
AcDbLine
 10
96.0
 20
151.4000000000000057
 30
0.0
 11
98.5
 21
151.4000000000000057
 31
0.0
  0
LINE
  5
294
100
AcDbEntity
  8
0
 62
256
370
13
 48
1.0
  6
BYLAYER
100
AcDbLine
 10
64.0
 20
183.4000000000000057
 30
0.0
 11
66.5
 21
183.4000000000000057
 31
0.0
  0
LINE
  5
295
100
AcDbEntity
  8
0
 62
256
370
13
 48
1.0
  6
BYLAYER
100
AcDbLine
 10
96.0
 20
183.4000000000000057
 30
0.0
 11
98.5
 21
183.4000000000000057
 31
0.0
  0
LINE
  5
296
100
AcDbEntity
  8
0
 62
256
370
13
 48
1.0
  6
BYLAYER
100
AcDbLine
 10
64.0
 20
216.4000000000000057
 30
0.0
 11
66.5
 21
216.4000000000000057
 31
0.0
  0
LINE
  5
297
100
AcDbEntity
  8
0
 62
256
370
13
 48
1.0
  6
BYLAYER
100
AcDbLine
 10
96.0
 20
216.4000000000000057
 30
0.0
 11
98.5
 21
216.4000000000000057
 31
0.0
  0
LINE
  5
298
100
AcDbEntity
  8
0
 62
256
370
13
 48
1.0
  6
BYLAYER
100
AcDbLine
 10
64.0
 20
248.4000000000000057
 30
0.0
 11
66.5
 21
248.4000000000000057
 31
0.0
  0
LINE
  5
299
100
AcDbEntity
  8
0
 62
256
370
13
 48
1.0
  6
BYLAYER
100
AcDbLine
 10
96.0
 20
248.4000000000000057
 30
0.0
 11
98.5
 21
248.4000000000000057
 31
0.0
  0
LINE
  5
29A
100
AcDbEntity
  8
0
 62
256
370
13
 48
1.0
  6
BYLAYER
100
AcDbLine
 10
14.9000000000000057
 20
30.0
 30
0.0
 11
14.9000000000000057
 21
27.5
 31
0.0
  0
LINE
  5
29B
100
AcDbEntity
  8
0
 62
256
370
13
 48
1.0
  6
BYLAYER
100
AcDbLine
 10
46.9000000000000057
 20
30.0
 30
0.0
 11
46.9000000000000057
 21
27.5
 31
0.0
  0
LINE
  5
29C
100
AcDbEntity
  8
0
 62
256
370
13
 48
1.0
  6
BYLAYER
100
AcDbLine
 10
14.9000000000000057
 20
62.0
 30
0.0
 11
14.9000000000000057
 21
59.5
 31
0.0
  0
LINE
  5
29D
100
AcDbEntity
  8
0
 62
256
370
13
 48
1.0
  6
BYLAYER
100
AcDbLine
 10
46.9000000000000057
 20
62.0
 30
0.0
 11
46.9000000000000057
 21
59.5
 31
0.0
  0
LINE
  5
29E
100
AcDbEntity
  8
0
 62
256
370
13
 48
1.0
  6
BYLAYER
100
AcDbLine
 10
14.9000000000000057
 20
95.0
 30
0.0
 11
14.9000000000000057
 21
92.5
 31
0.0
  0
LINE
  5
29F
100
AcDbEntity
  8
0
 62
256
370
13
 48
1.0
  6
BYLAYER
100
AcDbLine
 10
46.9000000000000057
 20
95.0
 30
0.0
 11
46.9000000000000057
 21
92.5
 31
0.0
  0
LINE
  5
2A0
100
AcDbEntity
  8
0
 62
256
370
13
 48
1.0
  6
BYLAYER
100
AcDbLine
 10
14.9000000000000057
 20
127.0
 30
0.0
 11
14.9000000000000057
 21
124.5
 31
0.0
  0
LINE
  5
2A1
100
AcDbEntity
  8
0
 62
256
370
13
 48
1.0
  6
BYLAYER
100
AcDbLine
 10
46.9000000000000057
 20
127.0
 30
0.0
 11
46.9000000000000057
 21
124.5
 31
0.0
  0
LINE
  5
2A2
100
AcDbEntity
  8
0
 62
256
370
13
 48
1.0
  6
BYLAYER
100
AcDbLine
 10
14.9000000000000057
 20
159.0
 30
0.0
 11
14.9000000000000057
 21
156.5
 31
0.0
  0
LINE
  5
2A3
100
AcDbEntity
  8
0
 62
256
370
13
 48
1.0
  6
BYLAYER
100
AcDbLine
 10
46.9000000000000057
 20
159.0
 30
0.0
 11
46.9000000000000057
 21
156.5
 31
0.0
  0
LINE
  5
2A4
100
AcDbEntity
  8
0
 62
256
370
13
 48
1.0
  6
BYLAYER
100
AcDbLine
 10
14.9000000000000057
 20
191.0
 30
0.0
 11
14.9000000000000057
 21
188.5
 31
0.0
  0
LINE
  5
2A5
100
AcDbEntity
  8
0
 62
256
370
13
 48
1.0
  6
BYLAYER
100
AcDbLine
 10
46.9000000000000057
 20
191.0
 30
0.0
 11
46.9000000000000057
 21
188.5
 31
0.0
  0
LINE
  5
2A6
100
AcDbEntity
  8
0
 62
256
370
13
 48
1.0
  6
BYLAYER
100
AcDbLine
 10
14.9000000000000057
 20
224.0
 30
0.0
 11
14.9000000000000057
 21
221.5
 31
0.0
  0
LINE
  5
2A7
100
AcDbEntity
  8
0
 62
256
370
13
 48
1.0
  6
BYLAYER
100
AcDbLine
 10
46.9000000000000057
 20
224.0
 30
0.0
 11
46.9000000000000057
 21
221.5
 31
0.0
  0
LINE
  5
2A8
100
AcDbEntity
  8
0
 62
256
370
13
 48
1.0
  6
BYLAYER
100
AcDbLine
 10
14.9000000000000057
 20
256.0
 30
0.0
 11
14.9000000000000057
 21
253.5
 31
0.0
  0
LINE
  5
2A9
100
AcDbEntity
  8
0
 62
256
370
13
 48
1.0
  6
BYLAYER
100
AcDbLine
 10
46.9000000000000057
 20
256.0
 30
0.0
 11
46.9000000000000057
 21
253.5
 31
0.0
  0
LINE
  5
2AA
100
AcDbEntity
  8
0
 62
256
370
13
 48
1.0
  6
BYLAYER
100
AcDbLine
 10
78.9000000000000057
 20
30.0
 30
0.0
 11
78.9000000000000057
 21
27.5
 31
0.0
  0
LINE
  5
2AB
100
AcDbEntity
  8
0
 62
256
370
13
 48
1.0
  6
BYLAYER
100
AcDbLine
 10
110.9000000000000057
 20
30.0
 30
0.0
 11
110.9000000000000057
 21
27.5
 31
0.0
  0
LINE
  5
2AC
100
AcDbEntity
  8
0
 62
256
370
13
 48
1.0
  6
BYLAYER
100
AcDbLine
 10
78.9000000000000057
 20
62.0
 30
0.0
 11
78.9000000000000057
 21
59.5
 31
0.0
  0
LINE
  5
2AD
100
AcDbEntity
  8
0
 62
256
370
13
 48
1.0
  6
BYLAYER
100
AcDbLine
 10
110.9000000000000057
 20
62.0
 30
0.0
 11
110.9000000000000057
 21
59.5
 31
0.0
  0
LINE
  5
2AE
100
AcDbEntity
  8
0
 62
256
370
13
 48
1.0
  6
BYLAYER
100
AcDbLine
 10
78.9000000000000057
 20
95.0
 30
0.0
 11
78.9000000000000057
 21
92.5
 31
0.0
  0
LINE
  5
2AF
100
AcDbEntity
  8
0
 62
256
370
13
 48
1.0
  6
BYLAYER
100
AcDbLine
 10
110.9000000000000057
 20
95.0
 30
0.0
 11
110.9000000000000057
 21
92.5
 31
0.0
  0
LINE
  5
2B0
100
AcDbEntity
  8
0
 62
256
370
13
 48
1.0
  6
BYLAYER
100
AcDbLine
 10
78.9000000000000057
 20
127.0
 30
0.0
 11
78.9000000000000057
 21
124.5
 31
0.0
  0
LINE
  5
2B1
100
AcDbEntity
  8
0
 62
256
370
13
 48
1.0
  6
BYLAYER
100
AcDbLine
 10
110.9000000000000057
 20
127.0
 30
0.0
 11
110.9000000000000057
 21
124.5
 31
0.0
  0
LINE
  5
2B2
100
AcDbEntity
  8
0
 62
256
370
13
 48
1.0
  6
BYLAYER
100
AcDbLine
 10
78.9000000000000057
 20
159.0
 30
0.0
 11
78.9000000000000057
 21
156.5
 31
0.0
  0
LINE
  5
2B3
100
AcDbEntity
  8
0
 62
256
370
13
 48
1.0
  6
BYLAYER
100
AcDbLine
 10
110.9000000000000057
 20
159.0
 30
0.0
 11
110.9000000000000057
 21
156.5
 31
0.0
  0
LINE
  5
2B4
100
AcDbEntity
  8
0
 62
256
370
13
 48
1.0
  6
BYLAYER
100
AcDbLine
 10
78.9000000000000057
 20
191.0
 30
0.0
 11
78.9000000000000057
 21
188.5
 31
0.0
  0
LINE
  5
2B5
100
AcDbEntity
  8
0
 62
256
370
13
 48
1.0
  6
BYLAYER
100
AcDbLine
 10
110.9000000000000057
 20
191.0
 30
0.0
 11
110.9000000000000057
 21
188.5
 31
0.0
  0
LINE
  5
2B6
100
AcDbEntity
  8
0
 62
256
370
13
 48
1.0
  6
BYLAYER
100
AcDbLine
 10
78.9000000000000057
 20
224.0
 30
0.0
 11
78.9000000000000057
 21
221.5
 31
0.0
  0
LINE
  5
2B7
100
AcDbEntity
  8
0
 62
256
370
13
 48
1.0
  6
BYLAYER
100
AcDbLine
 10
110.9000000000000057
 20
224.0
 30
0.0
 11
110.9000000000000057
 21
221.5
 31
0.0
  0
LINE
  5
2B8
100
AcDbEntity
  8
0
 62
256
370
13
 48
1.0
  6
BYLAYER
100
AcDbLine
 10
78.9000000000000057
 20
256.0
 30
0.0
 11
78.9000000000000057
 21
253.5
 31
0.0
  0
LINE
  5
2B9
100
AcDbEntity
  8
0
 62
256
370
13
 48
1.0
  6
BYLAYER
100
AcDbLine
 10
110.9000000000000057
 20
256.0
 30
0.0
 11
110.9000000000000057
 21
253.5
 31
0.0
  0
LINE
  5
2BA
100
AcDbEntity
  8
0
 62
256
370
13
 48
1.0
  6
BYLAYER
100
AcDbLine
 10
0.0
 20
15.1000000000000014
 30
0.0
 11
2.5
 21
15.1000000000000014
 31
0.0
  0
LINE
  5
2BB
100
AcDbEntity
  8
0
 62
256
370
13
 48
1.0
  6
BYLAYER
100
AcDbLine
 10
32.0
 20
15.1000000000000014
 30
0.0
 11
34.5
 21
15.1000000000000014
 31
0.0
  0
LINE
  5
2BC
100
AcDbEntity
  8
0
 62
256
370
13
 48
1.0
  6
BYLAYER
100
AcDbLine
 10
0.0
 20
47.0999999999999943
 30
0.0
 11
2.5
 21
47.0999999999999943
 31
0.0
  0
LINE
  5
2BD
100
AcDbEntity
  8
0
 62
256
370
13
 48
1.0
  6
BYLAYER
100
AcDbLine
 10
32.0
 20
47.0999999999999943
 30
0.0
 11
34.5
 21
47.0999999999999943
 31
0.0
  0
LINE
  5
2BE
100
AcDbEntity
  8
0
 62
256
370
13
 48
1.0
  6
BYLAYER
100
AcDbLine
 10
0.0
 20
80.0999999999999943
 30
0.0
 11
2.5
 21
80.0999999999999943
 31
0.0
  0
LINE
  5
2BF
100
AcDbEntity
  8
0
 62
256
370
13
 48
1.0
  6
BYLAYER
100
AcDbLine
 10
32.0
 20
80.0999999999999943
 30
0.0
 11
34.5
 21
80.0999999999999943
 31
0.0
  0
LINE
  5
2C0
100
AcDbEntity
  8
0
 62
256
370
13
 48
1.0
  6
BYLAYER
100
AcDbLine
 10
0.0
 20
112.0999999999999943
 30
0.0
 11
2.5
 21
112.0999999999999943
 31
0.0
  0
LINE
  5
2C1
100
AcDbEntity
  8
0
 62
256
370
13
 48
1.0
  6
BYLAYER
100
AcDbLine
 10
32.0
 20
112.0999999999999943
 30
0.0
 11
34.5
 21
112.0999999999999943
 31
0.0
  0
LINE
  5
2C2
100
AcDbEntity
  8
0
 62
256
370
13
 48
1.0
  6
BYLAYER
100
AcDbLine
 10
0.0
 20
144.0999999999999943
 30
0.0
 11
2.5
 21
144.0999999999999943
 31
0.0
  0
LINE
  5
2C3
100
AcDbEntity
  8
0
 62
256
370
13
 48
1.0
  6
BYLAYER
100
AcDbLine
 10
32.0
 20
144.0999999999999943
 30
0.0
 11
34.5
 21
144.0999999999999943
 31
0.0
  0
LINE
  5
2C4
100
AcDbEntity
  8
0
 62
256
370
13
 48
1.0
  6
BYLAYER
100
AcDbLine
 10
0.0
 20
176.0999999999999943
 30
0.0
 11
2.5
 21
176.0999999999999943
 31
0.0
  0
LINE
  5
2C5
100
AcDbEntity
  8
0
 62
256
370
13
 48
1.0
  6
BYLAYER
100
AcDbLine
 10
32.0
 20
176.0999999999999943
 30
0.0
 11
34.5
 21
176.0999999999999943
 31
0.0
  0
LINE
  5
2C6
100
AcDbEntity
  8
0
 62
256
370
13
 48
1.0
  6
BYLAYER
100
AcDbLine
 10
0.0
 20
209.0999999999999943
 30
0.0
 11
2.5
 21
209.0999999999999943
 31
0.0
  0
LINE
  5
2C7
100
AcDbEntity
  8
0
 62
256
370
13
 48
1.0
  6
BYLAYER
100
AcDbLine
 10
32.0
 20
209.0999999999999943
 30
0.0
 11
34.5
 21
209.0999999999999943
 31
0.0
  0
LINE
  5
2C8
100
AcDbEntity
  8
0
 62
256
370
13
 48
1.0
  6
BYLAYER
100
AcDbLine
 10
0.0
 20
241.0999999999999943
 30
0.0
 11
2.5
 21
241.0999999999999943
 31
0.0
  0
LINE
  5
2C9
100
AcDbEntity
  8
0
 62
256
370
13
 48
1.0
  6
BYLAYER
100
AcDbLine
 10
32.0
 20
241.0999999999999943
 30
0.0
 11
34.5
 21
241.0999999999999943
 31
0.0
  0
LINE
  5
2CA
100
AcDbEntity
  8
0
 62
256
370
13
 48
1.0
  6
BYLAYER
100
AcDbLine
 10
64.0
 20
15.1000000000000014
 30
0.0
 11
66.5
 21
15.1000000000000014
 31
0.0
  0
LINE
  5
2CB
100
AcDbEntity
  8
0
 62
256
370
13
 48
1.0
  6
BYLAYER
100
AcDbLine
 10
96.0
 20
15.1000000000000014
 30
0.0
 11
98.5
 21
15.1000000000000014
 31
0.0
  0
LINE
  5
2CC
100
AcDbEntity
  8
0
 62
256
370
13
 48
1.0
  6
BYLAYER
100
AcDbLine
 10
64.0
 20
47.0999999999999943
 30
0.0
 11
66.5
 21
47.0999999999999943
 31
0.0
  0
LINE
  5
2CD
100
AcDbEntity
  8
0
 62
256
370
13
 48
1.0
  6
BYLAYER
100
AcDbLine
 10
96.0
 20
47.0999999999999943
 30
0.0
 11
98.5
 21
47.0999999999999943
 31
0.0
  0
LINE
  5
2CE
100
AcDbEntity
  8
0
 62
256
370
13
 48
1.0
  6
BYLAYER
100
AcDbLine
 10
64.0
 20
80.0999999999999943
 30
0.0
 11
66.5
 21
80.0999999999999943
 31
0.0
  0
LINE
  5
2CF
100
AcDbEntity
  8
0
 62
256
370
13
 48
1.0
  6
BYLAYER
100
AcDbLine
 10
96.0
 20
80.0999999999999943
 30
0.0
 11
98.5
 21
80.0999999999999943
 31
0.0
  0
LINE
  5
2D0
100
AcDbEntity
  8
0
 62
256
370
13
 48
1.0
  6
BYLAYER
100
AcDbLine
 10
64.0
 20
112.0999999999999943
 30
0.0
 11
66.5
 21
112.0999999999999943
 31
0.0
  0
LINE
  5
2D1
100
AcDbEntity
  8
0
 62
256
370
13
 48
1.0
  6
BYLAYER
100
AcDbLine
 10
96.0
 20
112.0999999999999943
 30
0.0
 11
98.5
 21
112.0999999999999943
 31
0.0
  0
LINE
  5
2D2
100
AcDbEntity
  8
0
 62
256
370
13
 48
1.0
  6
BYLAYER
100
AcDbLine
 10
64.0
 20
144.0999999999999943
 30
0.0
 11
66.5
 21
144.0999999999999943
 31
0.0
  0
LINE
  5
2D3
100
AcDbEntity
  8
0
 62
256
370
13
 48
1.0
  6
BYLAYER
100
AcDbLine
 10
96.0
 20
144.0999999999999943
 30
0.0
 11
98.5
 21
144.0999999999999943
 31
0.0
  0
LINE
  5
2D4
100
AcDbEntity
  8
0
 62
256
370
13
 48
1.0
  6
BYLAYER
100
AcDbLine
 10
64.0
 20
176.0999999999999943
 30
0.0
 11
66.5
 21
176.0999999999999943
 31
0.0
  0
LINE
  5
2D5
100
AcDbEntity
  8
0
 62
256
370
13
 48
1.0
  6
BYLAYER
100
AcDbLine
 10
96.0
 20
176.0999999999999943
 30
0.0
 11
98.5
 21
176.0999999999999943
 31
0.0
  0
LINE
  5
2D6
100
AcDbEntity
  8
0
 62
256
370
13
 48
1.0
  6
BYLAYER
100
AcDbLine
 10
64.0
 20
209.0999999999999943
 30
0.0
 11
66.5
 21
209.0999999999999943
 31
0.0
  0
LINE
  5
2D7
100
AcDbEntity
  8
0
 62
256
370
13
 48
1.0
  6
BYLAYER
100
AcDbLine
 10
96.0
 20
209.0999999999999943
 30
0.0
 11
98.5
 21
209.0999999999999943
 31
0.0
  0
LINE
  5
2D8
100
AcDbEntity
  8
0
 62
256
370
13
 48
1.0
  6
BYLAYER
100
AcDbLine
 10
64.0
 20
241.0999999999999943
 30
0.0
 11
66.5
 21
241.0999999999999943
 31
0.0
  0
LINE
  5
2D9
100
AcDbEntity
  8
0
 62
256
370
13
 48
1.0
  6
BYLAYER
100
AcDbLine
 10
96.0
 20
241.0999999999999943
 30
0.0
 11
98.5
 21
241.0999999999999943
 31
0.0
  0
LINE
  5
2DA
100
AcDbEntity
  8
0
 62
256
370
13
 48
1.0
  6
BYLAYER
100
AcDbLine
 10
22.6000000000000227
 20
30.0
 30
0.0
 11
22.6000000000000227
 21
27.5
 31
0.0
  0
LINE
  5
2DB
100
AcDbEntity
  8
0
 62
256
370
13
 48
1.0
  6
BYLAYER
100
AcDbLine
 10
54.6000000000000512
 20
30.0
 30
0.0
 11
54.6000000000000512
 21
27.5
 31
0.0
  0
LINE
  5
2DC
100
AcDbEntity
  8
0
 62
256
370
13
 48
1.0
  6
BYLAYER
100
AcDbLine
 10
22.6000000000000227
 20
62.0
 30
0.0
 11
22.6000000000000227
 21
59.5
 31
0.0
  0
LINE
  5
2DD
100
AcDbEntity
  8
0
 62
256
370
13
 48
1.0
  6
BYLAYER
100
AcDbLine
 10
54.6000000000000512
 20
62.0
 30
0.0
 11
54.6000000000000512
 21
59.5
 31
0.0
  0
LINE
  5
2DE
100
AcDbEntity
  8
0
 62
256
370
13
 48
1.0
  6
BYLAYER
100
AcDbLine
 10
22.6000000000000227
 20
95.0
 30
0.0
 11
22.6000000000000227
 21
92.5
 31
0.0
  0
LINE
  5
2DF
100
AcDbEntity
  8
0
 62
256
370
13
 48
1.0
  6
BYLAYER
100
AcDbLine
 10
54.6000000000000512
 20
95.0
 30
0.0
 11
54.6000000000000512
 21
92.5
 31
0.0
  0
LINE
  5
2E0
100
AcDbEntity
  8
0
 62
256
370
13
 48
1.0
  6
BYLAYER
100
AcDbLine
 10
22.6000000000000227
 20
127.0
 30
0.0
 11
22.6000000000000227
 21
124.5
 31
0.0
  0
LINE
  5
2E1
100
AcDbEntity
  8
0
 62
256
370
13
 48
1.0
  6
BYLAYER
100
AcDbLine
 10
54.6000000000000512
 20
127.0
 30
0.0
 11
54.6000000000000512
 21
124.5
 31
0.0
  0
LINE
  5
2E2
100
AcDbEntity
  8
0
 62
256
370
13
 48
1.0
  6
BYLAYER
100
AcDbLine
 10
22.6000000000000227
 20
159.0
 30
0.0
 11
22.6000000000000227
 21
156.5
 31
0.0
  0
LINE
  5
2E3
100
AcDbEntity
  8
0
 62
256
370
13
 48
1.0
  6
BYLAYER
100
AcDbLine
 10
54.6000000000000512
 20
159.0
 30
0.0
 11
54.6000000000000512
 21
156.5
 31
0.0
  0
LINE
  5
2E4
100
AcDbEntity
  8
0
 62
256
370
13
 48
1.0
  6
BYLAYER
100
AcDbLine
 10
22.6000000000000227
 20
191.0
 30
0.0
 11
22.6000000000000227
 21
188.5
 31
0.0
  0
LINE
  5
2E5
100
AcDbEntity
  8
0
 62
256
370
13
 48
1.0
  6
BYLAYER
100
AcDbLine
 10
54.6000000000000512
 20
191.0
 30
0.0
 11
54.6000000000000512
 21
188.5
 31
0.0
  0
LINE
  5
2E6
100
AcDbEntity
  8
0
 62
256
370
13
 48
1.0
  6
BYLAYER
100
AcDbLine
 10
22.6000000000000227
 20
224.0
 30
0.0
 11
22.6000000000000227
 21
221.5
 31
0.0
  0
LINE
  5
2E7
100
AcDbEntity
  8
0
 62
256
370
13
 48
1.0
  6
BYLAYER
100
AcDbLine
 10
54.6000000000000512
 20
224.0
 30
0.0
 11
54.6000000000000512
 21
221.5
 31
0.0
  0
LINE
  5
2E8
100
AcDbEntity
  8
0
 62
256
370
13
 48
1.0
  6
BYLAYER
100
AcDbLine
 10
22.6000000000000227
 20
256.0
 30
0.0
 11
22.6000000000000227
 21
253.5
 31
0.0
  0
LINE
  5
2E9
100
AcDbEntity
  8
0
 62
256
370
13
 48
1.0
  6
BYLAYER
100
AcDbLine
 10
54.6000000000000512
 20
256.0
 30
0.0
 11
54.6000000000000512
 21
253.5
 31
0.0
  0
LINE
  5
2EA
100
AcDbEntity
  8
0
 62
256
370
13
 48
1.0
  6
BYLAYER
100
AcDbLine
 10
86.6000000000000227
 20
30.0
 30
0.0
 11
86.6000000000000227
 21
27.5
 31
0.0
  0
LINE
  5
2EB
100
AcDbEntity
  8
0
 62
256
370
13
 48
1.0
  6
BYLAYER
100
AcDbLine
 10
118.6000000000000512
 20
30.0
 30
0.0
 11
118.6000000000000512
 21
27.5
 31
0.0
  0
LINE
  5
2EC
100
AcDbEntity
  8
0
 62
256
370
13
 48
1.0
  6
BYLAYER
100
AcDbLine
 10
86.6000000000000227
 20
62.0
 30
0.0
 11
86.6000000000000227
 21
59.5
 31
0.0
  0
LINE
  5
2ED
100
AcDbEntity
  8
0
 62
256
370
13
 48
1.0
  6
BYLAYER
100
AcDbLine
 10
118.6000000000000512
 20
62.0
 30
0.0
 11
118.6000000000000512
 21
59.5
 31
0.0
  0
LINE
  5
2EE
100
AcDbEntity
  8
0
 62
256
370
13
 48
1.0
  6
BYLAYER
100
AcDbLine
 10
86.6000000000000227
 20
95.0
 30
0.0
 11
86.6000000000000227
 21
92.5
 31
0.0
  0
LINE
  5
2EF
100
AcDbEntity
  8
0
 62
256
370
13
 48
1.0
  6
BYLAYER
100
AcDbLine
 10
118.6000000000000512
 20
95.0
 30
0.0
 11
118.6000000000000512
 21
92.5
 31
0.0
  0
LINE
  5
2F0
100
AcDbEntity
  8
0
 62
256
370
13
 48
1.0
  6
BYLAYER
100
AcDbLine
 10
86.6000000000000227
 20
127.0
 30
0.0
 11
86.6000000000000227
 21
124.5
 31
0.0
  0
LINE
  5
2F1
100
AcDbEntity
  8
0
 62
256
370
13
 48
1.0
  6
BYLAYER
100
AcDbLine
 10
118.6000000000000512
 20
127.0
 30
0.0
 11
118.6000000000000512
 21
124.5
 31
0.0
  0
LINE
  5
2F2
100
AcDbEntity
  8
0
 62
256
370
13
 48
1.0
  6
BYLAYER
100
AcDbLine
 10
86.6000000000000227
 20
159.0
 30
0.0
 11
86.6000000000000227
 21
156.5
 31
0.0
  0
LINE
  5
2F3
100
AcDbEntity
  8
0
 62
256
370
13
 48
1.0
  6
BYLAYER
100
AcDbLine
 10
118.6000000000000512
 20
159.0
 30
0.0
 11
118.6000000000000512
 21
156.5
 31
0.0
  0
LINE
  5
2F4
100
AcDbEntity
  8
0
 62
256
370
13
 48
1.0
  6
BYLAYER
100
AcDbLine
 10
86.6000000000000227
 20
191.0
 30
0.0
 11
86.6000000000000227
 21
188.5
 31
0.0
  0
LINE
  5
2F5
100
AcDbEntity
  8
0
 62
256
370
13
 48
1.0
  6
BYLAYER
100
AcDbLine
 10
118.6000000000000512
 20
191.0
 30
0.0
 11
118.6000000000000512
 21
188.5
 31
0.0
  0
LINE
  5
2F6
100
AcDbEntity
  8
0
 62
256
370
13
 48
1.0
  6
BYLAYER
100
AcDbLine
 10
86.6000000000000227
 20
224.0
 30
0.0
 11
86.6000000000000227
 21
221.5
 31
0.0
  0
LINE
  5
2F7
100
AcDbEntity
  8
0
 62
256
370
13
 48
1.0
  6
BYLAYER
100
AcDbLine
 10
118.6000000000000512
 20
224.0
 30
0.0
 11
118.6000000000000512
 21
221.5
 31
0.0
  0
LINE
  5
2F8
100
AcDbEntity
  8
0
 62
256
370
13
 48
1.0
  6
BYLAYER
100
AcDbLine
 10
86.6000000000000227
 20
256.0
 30
0.0
 11
86.6000000000000227
 21
253.5
 31
0.0
  0
LINE
  5
2F9
100
AcDbEntity
  8
0
 62
256
370
13
 48
1.0
  6
BYLAYER
100
AcDbLine
 10
118.6000000000000512
 20
256.0
 30
0.0
 11
118.6000000000000512
 21
253.5
 31
0.0
  0
LINE
  5
2FA
100
AcDbEntity
  8
0
 62
256
370
13
 48
1.0
  6
BYLAYER
100
AcDbLine
 10
0.0
 20
7.3999999999999986
 30
0.0
 11
2.5
 21
7.3999999999999986
 31
0.0
  0
LINE
  5
2FB
100
AcDbEntity
  8
0
 62
256
370
13
 48
1.0
  6
BYLAYER
100
AcDbLine
 10
32.0
 20
7.3999999999999986
 30
0.0
 11
34.5
 21
7.3999999999999986
 31
0.0
  0
LINE
  5
2FC
100
AcDbEntity
  8
0
 62
256
370
13
 48
1.0
  6
BYLAYER
100
AcDbLine
 10
0.0
 20
39.3999999999999915
 30
0.0
 11
2.5
 21
39.3999999999999915
 31
0.0
  0
LINE
  5
2FD
100
AcDbEntity
  8
0
 62
256
370
13
 48
1.0
  6
BYLAYER
100
AcDbLine
 10
32.0
 20
39.3999999999999915
 30
0.0
 11
34.5
 21
39.3999999999999915
 31
0.0
  0
LINE
  5
2FE
100
AcDbEntity
  8
0
 62
256
370
13
 48
1.0
  6
BYLAYER
100
AcDbLine
 10
0.0
 20
72.4000000000000057
 30
0.0
 11
2.5
 21
72.4000000000000057
 31
0.0
  0
LINE
  5
2FF
100
AcDbEntity
  8
0
 62
256
370
13
 48
1.0
  6
BYLAYER
100
AcDbLine
 10
32.0
 20
72.4000000000000057
 30
0.0
 11
34.5
 21
72.4000000000000057
 31
0.0
  0
LINE
  5
300
100
AcDbEntity
  8
0
 62
256
370
13
 48
1.0
  6
BYLAYER
100
AcDbLine
 10
0.0
 20
104.3999999999999915
 30
0.0
 11
2.5
 21
104.3999999999999915
 31
0.0
  0
LINE
  5
301
100
AcDbEntity
  8
0
 62
256
370
13
 48
1.0
  6
BYLAYER
100
AcDbLine
 10
32.0
 20
104.3999999999999915
 30
0.0
 11
34.5
 21
104.3999999999999915
 31
0.0
  0
LINE
  5
302
100
AcDbEntity
  8
0
 62
256
370
13
 48
1.0
  6
BYLAYER
100
AcDbLine
 10
0.0
 20
136.4000000000000057
 30
0.0
 11
2.5
 21
136.4000000000000057
 31
0.0
  0
LINE
  5
303
100
AcDbEntity
  8
0
 62
256
370
13
 48
1.0
  6
BYLAYER
100
AcDbLine
 10
32.0
 20
136.4000000000000057
 30
0.0
 11
34.5
 21
136.4000000000000057
 31
0.0
  0
LINE
  5
304
100
AcDbEntity
  8
0
 62
256
370
13
 48
1.0
  6
BYLAYER
100
AcDbLine
 10
0.0
 20
168.3999999999999773
 30
0.0
 11
2.5
 21
168.3999999999999773
 31
0.0
  0
LINE
  5
305
100
AcDbEntity
  8
0
 62
256
370
13
 48
1.0
  6
BYLAYER
100
AcDbLine
 10
32.0
 20
168.3999999999999773
 30
0.0
 11
34.5
 21
168.3999999999999773
 31
0.0
  0
LINE
  5
306
100
AcDbEntity
  8
0
 62
256
370
13
 48
1.0
  6
BYLAYER
100
AcDbLine
 10
0.0
 20
201.4000000000000057
 30
0.0
 11
2.5
 21
201.4000000000000057
 31
0.0
  0
LINE
  5
307
100
AcDbEntity
  8
0
 62
256
370
13
 48
1.0
  6
BYLAYER
100
AcDbLine
 10
32.0
 20
201.4000000000000057
 30
0.0
 11
34.5
 21
201.4000000000000057
 31
0.0
  0
LINE
  5
308
100
AcDbEntity
  8
0
 62
256
370
13
 48
1.0
  6
BYLAYER
100
AcDbLine
 10
0.0
 20
233.3999999999999773
 30
0.0
 11
2.5
 21
233.3999999999999773
 31
0.0
  0
LINE
  5
309
100
AcDbEntity
  8
0
 62
256
370
13
 48
1.0
  6
BYLAYER
100
AcDbLine
 10
32.0
 20
233.3999999999999773
 30
0.0
 11
34.5
 21
233.3999999999999773
 31
0.0
  0
LINE
  5
30A
100
AcDbEntity
  8
0
 62
256
370
13
 48
1.0
  6
BYLAYER
100
AcDbLine
 10
64.0
 20
7.3999999999999986
 30
0.0
 11
66.5
 21
7.3999999999999986
 31
0.0
  0
LINE
  5
30B
100
AcDbEntity
  8
0
 62
256
370
13
 48
1.0
  6
BYLAYER
100
AcDbLine
 10
96.0
 20
7.3999999999999986
 30
0.0
 11
98.5
 21
7.3999999999999986
 31
0.0
  0
LINE
  5
30C
100
AcDbEntity
  8
0
 62
256
370
13
 48
1.0
  6
BYLAYER
100
AcDbLine
 10
64.0
 20
39.3999999999999915
 30
0.0
 11
66.5
 21
39.3999999999999915
 31
0.0
  0
LINE
  5
30D
100
AcDbEntity
  8
0
 62
256
370
13
 48
1.0
  6
BYLAYER
100
AcDbLine
 10
96.0
 20
39.3999999999999915
 30
0.0
 11
98.5
 21
39.3999999999999915
 31
0.0
  0
LINE
  5
30E
100
AcDbEntity
  8
0
 62
256
370
13
 48
1.0
  6
BYLAYER
100
AcDbLine
 10
64.0
 20
72.4000000000000057
 30
0.0
 11
66.5
 21
72.4000000000000057
 31
0.0
  0
LINE
  5
30F
100
AcDbEntity
  8
0
 62
256
370
13
 48
1.0
  6
BYLAYER
100
AcDbLine
 10
96.0
 20
72.4000000000000057
 30
0.0
 11
98.5
 21
72.4000000000000057
 31
0.0
  0
LINE
  5
310
100
AcDbEntity
  8
0
 62
256
370
13
 48
1.0
  6
BYLAYER
100
AcDbLine
 10
64.0
 20
104.3999999999999915
 30
0.0
 11
66.5
 21
104.3999999999999915
 31
0.0
  0
LINE
  5
311
100
AcDbEntity
  8
0
 62
256
370
13
 48
1.0
  6
BYLAYER
100
AcDbLine
 10
96.0
 20
104.3999999999999915
 30
0.0
 11
98.5
 21
104.3999999999999915
 31
0.0
  0
LINE
  5
312
100
AcDbEntity
  8
0
 62
256
370
13
 48
1.0
  6
BYLAYER
100
AcDbLine
 10
64.0
 20
136.4000000000000057
 30
0.0
 11
66.5
 21
136.4000000000000057
 31
0.0
  0
LINE
  5
313
100
AcDbEntity
  8
0
 62
256
370
13
 48
1.0
  6
BYLAYER
100
AcDbLine
 10
96.0
 20
136.4000000000000057
 30
0.0
 11
98.5
 21
136.4000000000000057
 31
0.0
  0
LINE
  5
314
100
AcDbEntity
  8
0
 62
256
370
13
 48
1.0
  6
BYLAYER
100
AcDbLine
 10
64.0
 20
168.3999999999999773
 30
0.0
 11
66.5
 21
168.3999999999999773
 31
0.0
  0
LINE
  5
315
100
AcDbEntity
  8
0
 62
256
370
13
 48
1.0
  6
BYLAYER
100
AcDbLine
 10
96.0
 20
168.3999999999999773
 30
0.0
 11
98.5
 21
168.3999999999999773
 31
0.0
  0
LINE
  5
316
100
AcDbEntity
  8
0
 62
256
370
13
 48
1.0
  6
BYLAYER
100
AcDbLine
 10
64.0
 20
201.4000000000000057
 30
0.0
 11
66.5
 21
201.4000000000000057
 31
0.0
  0
LINE
  5
317
100
AcDbEntity
  8
0
 62
256
370
13
 48
1.0
  6
BYLAYER
100
AcDbLine
 10
96.0
 20
201.4000000000000057
 30
0.0
 11
98.5
 21
201.4000000000000057
 31
0.0
  0
LINE
  5
318
100
AcDbEntity
  8
0
 62
256
370
13
 48
1.0
  6
BYLAYER
100
AcDbLine
 10
64.0
 20
233.3999999999999773
 30
0.0
 11
66.5
 21
233.3999999999999773
 31
0.0
  0
LINE
  5
319
100
AcDbEntity
  8
0
 62
256
370
13
 48
1.0
  6
BYLAYER
100
AcDbLine
 10
96.0
 20
233.3999999999999773
 30
0.0
 11
98.5
 21
233.3999999999999773
 31
0.0
  0
LINE
  5
31A
100
AcDbEntity
  8
0
 62
256
370
13
 48
1.0
  6
BYLAYER
100
AcDbLine
 10
27.5
 20
22.4000000000000057
 30
0.0
 11
30.0
 21
22.4000000000000057
 31
0.0
  0
LINE
  5
31B
100
AcDbEntity
  8
0
 62
256
370
13
 48
1.0
  6
BYLAYER
100
AcDbLine
 10
59.5000000000000284
 20
22.4000000000000057
 30
0.0
 11
62.0000000000000284
 21
22.4000000000000057
 31
0.0
  0
LINE
  5
31C
100
AcDbEntity
  8
0
 62
256
370
13
 48
1.0
  6
BYLAYER
100
AcDbLine
 10
27.5
 20
54.4000000000000057
 30
0.0
 11
30.0
 21
54.4000000000000057
 31
0.0
  0
LINE
  5
31D
100
AcDbEntity
  8
0
 62
256
370
13
 48
1.0
  6
BYLAYER
100
AcDbLine
 10
59.5000000000000284
 20
54.4000000000000057
 30
0.0
 11
62.0000000000000284
 21
54.4000000000000057
 31
0.0
  0
LINE
  5
31E
100
AcDbEntity
  8
0
 62
256
370
13
 48
1.0
  6
BYLAYER
100
AcDbLine
 10
27.5
 20
87.4000000000000057
 30
0.0
 11
30.0
 21
87.4000000000000057
 31
0.0
  0
LINE
  5
31F
100
AcDbEntity
  8
0
 62
256
370
13
 48
1.0
  6
BYLAYER
100
AcDbLine
 10
59.5000000000000284
 20
87.4000000000000057
 30
0.0
 11
62.0000000000000284
 21
87.4000000000000057
 31
0.0
  0
LINE
  5
320
100
AcDbEntity
  8
0
 62
256
370
13
 48
1.0
  6
BYLAYER
100
AcDbLine
 10
27.5
 20
119.4000000000000057
 30
0.0
 11
30.0
 21
119.4000000000000057
 31
0.0
  0
LINE
  5
321
100
AcDbEntity
  8
0
 62
256
370
13
 48
1.0
  6
BYLAYER
100
AcDbLine
 10
59.5000000000000284
 20
119.4000000000000057
 30
0.0
 11
62.0000000000000284
 21
119.4000000000000057
 31
0.0
  0
LINE
  5
322
100
AcDbEntity
  8
0
 62
256
370
13
 48
1.0
  6
BYLAYER
100
AcDbLine
 10
27.5
 20
151.4000000000000057
 30
0.0
 11
30.0
 21
151.4000000000000057
 31
0.0
  0
LINE
  5
323
100
AcDbEntity
  8
0
 62
256
370
13
 48
1.0
  6
BYLAYER
100
AcDbLine
 10
59.5000000000000284
 20
151.4000000000000057
 30
0.0
 11
62.0000000000000284
 21
151.4000000000000057
 31
0.0
  0
LINE
  5
324
100
AcDbEntity
  8
0
 62
256
370
13
 48
1.0
  6
BYLAYER
100
AcDbLine
 10
27.5
 20
183.4000000000000057
 30
0.0
 11
30.0
 21
183.4000000000000057
 31
0.0
  0
LINE
  5
325
100
AcDbEntity
  8
0
 62
256
370
13
 48
1.0
  6
BYLAYER
100
AcDbLine
 10
59.5000000000000284
 20
183.4000000000000057
 30
0.0
 11
62.0000000000000284
 21
183.4000000000000057
 31
0.0
  0
LINE
  5
326
100
AcDbEntity
  8
0
 62
256
370
13
 48
1.0
  6
BYLAYER
100
AcDbLine
 10
27.5
 20
216.4000000000000057
 30
0.0
 11
30.0
 21
216.4000000000000057
 31
0.0
  0
LINE
  5
327
100
AcDbEntity
  8
0
 62
256
370
13
 48
1.0
  6
BYLAYER
100
AcDbLine
 10
59.5000000000000284
 20
216.4000000000000057
 30
0.0
 11
62.0000000000000284
 21
216.4000000000000057
 31
0.0
  0
LINE
  5
328
100
AcDbEntity
  8
0
 62
256
370
13
 48
1.0
  6
BYLAYER
100
AcDbLine
 10
27.5
 20
248.4000000000000057
 30
0.0
 11
30.0
 21
248.4000000000000057
 31
0.0
  0
LINE
  5
329
100
AcDbEntity
  8
0
 62
256
370
13
 48
1.0
  6
BYLAYER
100
AcDbLine
 10
59.5000000000000284
 20
248.4000000000000057
 30
0.0
 11
62.0000000000000284
 21
248.4000000000000057
 31
0.0
  0
LINE
  5
32A
100
AcDbEntity
  8
0
 62
256
370
13
 48
1.0
  6
BYLAYER
100
AcDbLine
 10
91.5
 20
22.4000000000000057
 30
0.0
 11
94.0
 21
22.4000000000000057
 31
0.0
  0
LINE
  5
32B
100
AcDbEntity
  8
0
 62
256
370
13
 48
1.0
  6
BYLAYER
100
AcDbLine
 10
123.5000000000000284
 20
22.4000000000000057
 30
0.0
 11
126.0000000000000284
 21
22.4000000000000057
 31
0.0
  0
LINE
  5
32C
100
AcDbEntity
  8
0
 62
256
370
13
 48
1.0
  6
BYLAYER
100
AcDbLine
 10
91.5
 20
54.4000000000000057
 30
0.0
 11
94.0
 21
54.4000000000000057
 31
0.0
  0
LINE
  5
32D
100
AcDbEntity
  8
0
 62
256
370
13
 48
1.0
  6
BYLAYER
100
AcDbLine
 10
123.5000000000000284
 20
54.4000000000000057
 30
0.0
 11
126.0000000000000284
 21
54.4000000000000057
 31
0.0
  0
LINE
  5
32E
100
AcDbEntity
  8
0
 62
256
370
13
 48
1.0
  6
BYLAYER
100
AcDbLine
 10
91.5
 20
87.4000000000000057
 30
0.0
 11
94.0
 21
87.4000000000000057
 31
0.0
  0
LINE
  5
32F
100
AcDbEntity
  8
0
 62
256
370
13
 48
1.0
  6
BYLAYER
100
AcDbLine
 10
123.5000000000000284
 20
87.4000000000000057
 30
0.0
 11
126.0000000000000284
 21
87.4000000000000057
 31
0.0
  0
LINE
  5
330
100
AcDbEntity
  8
0
 62
256
370
13
 48
1.0
  6
BYLAYER
100
AcDbLine
 10
91.5
 20
119.4000000000000057
 30
0.0
 11
94.0
 21
119.4000000000000057
 31
0.0
  0
LINE
  5
331
100
AcDbEntity
  8
0
 62
256
370
13
 48
1.0
  6
BYLAYER
100
AcDbLine
 10
123.5000000000000284
 20
119.4000000000000057
 30
0.0
 11
126.0000000000000284
 21
119.4000000000000057
 31
0.0
  0
LINE
  5
332
100
AcDbEntity
  8
0
 62
256
370
13
 48
1.0
  6
BYLAYER
100
AcDbLine
 10
91.5
 20
151.4000000000000057
 30
0.0
 11
94.0
 21
151.4000000000000057
 31
0.0
  0
LINE
  5
333
100
AcDbEntity
  8
0
 62
256
370
13
 48
1.0
  6
BYLAYER
100
AcDbLine
 10
123.5000000000000284
 20
151.4000000000000057
 30
0.0
 11
126.0000000000000284
 21
151.4000000000000057
 31
0.0
  0
LINE
  5
334
100
AcDbEntity
  8
0
 62
256
370
13
 48
1.0
  6
BYLAYER
100
AcDbLine
 10
91.5
 20
183.4000000000000057
 30
0.0
 11
94.0
 21
183.4000000000000057
 31
0.0
  0
LINE
  5
335
100
AcDbEntity
  8
0
 62
256
370
13
 48
1.0
  6
BYLAYER
100
AcDbLine
 10
123.5000000000000284
 20
183.4000000000000057
 30
0.0
 11
126.0000000000000284
 21
183.4000000000000057
 31
0.0
  0
LINE
  5
336
100
AcDbEntity
  8
0
 62
256
370
13
 48
1.0
  6
BYLAYER
100
AcDbLine
 10
91.5
 20
216.4000000000000057
 30
0.0
 11
94.0
 21
216.4000000000000057
 31
0.0
  0
LINE
  5
337
100
AcDbEntity
  8
0
 62
256
370
13
 48
1.0
  6
BYLAYER
100
AcDbLine
 10
123.5000000000000284
 20
216.4000000000000057
 30
0.0
 11
126.0000000000000284
 21
216.4000000000000057
 31
0.0
  0
LINE
  5
338
100
AcDbEntity
  8
0
 62
256
370
13
 48
1.0
  6
BYLAYER
100
AcDbLine
 10
91.5
 20
248.4000000000000057
 30
0.0
 11
94.0
 21
248.4000000000000057
 31
0.0
  0
LINE
  5
339
100
AcDbEntity
  8
0
 62
256
370
13
 48
1.0
  6
BYLAYER
100
AcDbLine
 10
123.5000000000000284
 20
248.4000000000000057
 30
0.0
 11
126.0000000000000284
 21
248.4000000000000057
 31
0.0
  0
LINE
  5
33A
100
AcDbEntity
  8
0
 62
256
370
13
 48
1.0
  6
BYLAYER
100
AcDbLine
 10
7.6000000000000227
 20
2.5
 30
0.0
 11
7.5999999999999943
 21
0.0
 31
0.0
  0
LINE
  5
33B
100
AcDbEntity
  8
0
 62
256
370
13
 48
1.0
  6
BYLAYER
100
AcDbLine
 10
39.6000000000000227
 20
2.5
 30
0.0
 11
39.5999999999999943
 21
-0.0000000000000071
 31
0.0
  0
LINE
  5
33C
100
AcDbEntity
  8
0
 62
256
370
13
 48
1.0
  6
BYLAYER
100
AcDbLine
 10
7.6000000000000227
 20
34.5
 30
0.0
 11
7.5999999999999943
 21
32.0
 31
0.0
  0
LINE
  5
33D
100
AcDbEntity
  8
0
 62
256
370
13
 48
1.0
  6
BYLAYER
100
AcDbLine
 10
39.6000000000000227
 20
34.5
 30
0.0
 11
39.5999999999999943
 21
31.9999999999999858
 31
0.0
  0
LINE
  5
33E
100
AcDbEntity
  8
0
 62
256
370
13
 48
1.0
  6
BYLAYER
100
AcDbLine
 10
7.6000000000000227
 20
67.5
 30
0.0
 11
7.5999999999999943
 21
65.0
 31
0.0
  0
LINE
  5
33F
100
AcDbEntity
  8
0
 62
256
370
13
 48
1.0
  6
BYLAYER
100
AcDbLine
 10
39.6000000000000227
 20
67.5
 30
0.0
 11
39.5999999999999943
 21
65.0
 31
0.0
  0
LINE
  5
340
100
AcDbEntity
  8
0
 62
256
370
13
 48
1.0
  6
BYLAYER
100
AcDbLine
 10
7.6000000000000227
 20
99.5
 30
0.0
 11
7.5999999999999943
 21
97.0
 31
0.0
  0
LINE
  5
341
100
AcDbEntity
  8
0
 62
256
370
13
 48
1.0
  6
BYLAYER
100
AcDbLine
 10
39.6000000000000227
 20
99.5
 30
0.0
 11
39.5999999999999943
 21
96.9999999999999858
 31
0.0
  0
LINE
  5
342
100
AcDbEntity
  8
0
 62
256
370
13
 48
1.0
  6
BYLAYER
100
AcDbLine
 10
7.6000000000000227
 20
131.5
 30
0.0
 11
7.5999999999999943
 21
129.0
 31
0.0
  0
LINE
  5
343
100
AcDbEntity
  8
0
 62
256
370
13
 48
1.0
  6
BYLAYER
100
AcDbLine
 10
39.6000000000000227
 20
131.5
 30
0.0
 11
39.5999999999999943
 21
129.0
 31
0.0
  0
LINE
  5
344
100
AcDbEntity
  8
0
 62
256
370
13
 48
1.0
  6
BYLAYER
100
AcDbLine
 10
7.6000000000000227
 20
163.5
 30
0.0
 11
7.5999999999999943
 21
161.0
 31
0.0
  0
LINE
  5
345
100
AcDbEntity
  8
0
 62
256
370
13
 48
1.0
  6
BYLAYER
100
AcDbLine
 10
39.6000000000000227
 20
163.5
 30
0.0
 11
39.5999999999999943
 21
161.0
 31
0.0
  0
LINE
  5
346
100
AcDbEntity
  8
0
 62
256
370
13
 48
1.0
  6
BYLAYER
100
AcDbLine
 10
7.6000000000000227
 20
196.5
 30
0.0
 11
7.5999999999999943
 21
194.0
 31
0.0
  0
LINE
  5
347
100
AcDbEntity
  8
0
 62
256
370
13
 48
1.0
  6
BYLAYER
100
AcDbLine
 10
39.6000000000000227
 20
196.5
 30
0.0
 11
39.5999999999999943
 21
194.0
 31
0.0
  0
LINE
  5
348
100
AcDbEntity
  8
0
 62
256
370
13
 48
1.0
  6
BYLAYER
100
AcDbLine
 10
7.6000000000000227
 20
228.5
 30
0.0
 11
7.5999999999999943
 21
226.0
 31
0.0
  0
LINE
  5
349
100
AcDbEntity
  8
0
 62
256
370
13
 48
1.0
  6
BYLAYER
100
AcDbLine
 10
39.6000000000000227
 20
228.5
 30
0.0
 11
39.5999999999999943
 21
226.0
 31
0.0
  0
LINE
  5
34A
100
AcDbEntity
  8
0
 62
256
370
13
 48
1.0
  6
BYLAYER
100
AcDbLine
 10
71.6000000000000227
 20
2.5
 30
0.0
 11
71.5999999999999943
 21
0.0
 31
0.0
  0
LINE
  5
34B
100
AcDbEntity
  8
0
 62
256
370
13
 48
1.0
  6
BYLAYER
100
AcDbLine
 10
103.6000000000000227
 20
2.5
 30
0.0
 11
103.5999999999999943
 21
-0.0000000000000071
 31
0.0
  0
LINE
  5
34C
100
AcDbEntity
  8
0
 62
256
370
13
 48
1.0
  6
BYLAYER
100
AcDbLine
 10
71.6000000000000227
 20
34.5
 30
0.0
 11
71.5999999999999943
 21
32.0
 31
0.0
  0
LINE
  5
34D
100
AcDbEntity
  8
0
 62
256
370
13
 48
1.0
  6
BYLAYER
100
AcDbLine
 10
103.6000000000000227
 20
34.5
 30
0.0
 11
103.5999999999999943
 21
31.9999999999999858
 31
0.0
  0
LINE
  5
34E
100
AcDbEntity
  8
0
 62
256
370
13
 48
1.0
  6
BYLAYER
100
AcDbLine
 10
71.6000000000000227
 20
67.5
 30
0.0
 11
71.5999999999999943
 21
65.0
 31
0.0
  0
LINE
  5
34F
100
AcDbEntity
  8
0
 62
256
370
13
 48
1.0
  6
BYLAYER
100
AcDbLine
 10
103.6000000000000227
 20
67.5
 30
0.0
 11
103.5999999999999943
 21
65.0
 31
0.0
  0
LINE
  5
350
100
AcDbEntity
  8
0
 62
256
370
13
 48
1.0
  6
BYLAYER
100
AcDbLine
 10
71.6000000000000227
 20
99.5
 30
0.0
 11
71.5999999999999943
 21
97.0
 31
0.0
  0
LINE
  5
351
100
AcDbEntity
  8
0
 62
256
370
13
 48
1.0
  6
BYLAYER
100
AcDbLine
 10
103.6000000000000227
 20
99.5
 30
0.0
 11
103.5999999999999943
 21
96.9999999999999858
 31
0.0
  0
LINE
  5
352
100
AcDbEntity
  8
0
 62
256
370
13
 48
1.0
  6
BYLAYER
100
AcDbLine
 10
71.6000000000000227
 20
131.5
 30
0.0
 11
71.5999999999999943
 21
129.0
 31
0.0
  0
LINE
  5
353
100
AcDbEntity
  8
0
 62
256
370
13
 48
1.0
  6
BYLAYER
100
AcDbLine
 10
103.6000000000000227
 20
131.5
 30
0.0
 11
103.5999999999999943
 21
129.0
 31
0.0
  0
LINE
  5
354
100
AcDbEntity
  8
0
 62
256
370
13
 48
1.0
  6
BYLAYER
100
AcDbLine
 10
71.6000000000000227
 20
163.5
 30
0.0
 11
71.5999999999999943
 21
161.0
 31
0.0
  0
LINE
  5
355
100
AcDbEntity
  8
0
 62
256
370
13
 48
1.0
  6
BYLAYER
100
AcDbLine
 10
103.6000000000000227
 20
163.5
 30
0.0
 11
103.5999999999999943
 21
161.0
 31
0.0
  0
LINE
  5
356
100
AcDbEntity
  8
0
 62
256
370
13
 48
1.0
  6
BYLAYER
100
AcDbLine
 10
71.6000000000000227
 20
196.5
 30
0.0
 11
71.5999999999999943
 21
194.0
 31
0.0
  0
LINE
  5
357
100
AcDbEntity
  8
0
 62
256
370
13
 48
1.0
  6
BYLAYER
100
AcDbLine
 10
103.6000000000000227
 20
196.5
 30
0.0
 11
103.5999999999999943
 21
194.0
 31
0.0
  0
LINE
  5
358
100
AcDbEntity
  8
0
 62
256
370
13
 48
1.0
  6
BYLAYER
100
AcDbLine
 10
71.6000000000000227
 20
228.5
 30
0.0
 11
71.5999999999999943
 21
226.0
 31
0.0
  0
LINE
  5
359
100
AcDbEntity
  8
0
 62
256
370
13
 48
1.0
  6
BYLAYER
100
AcDbLine
 10
103.6000000000000227
 20
228.5
 30
0.0
 11
103.5999999999999943
 21
226.0
 31
0.0
  0
LINE
  5
35A
100
AcDbEntity
  8
0
 62
256
370
13
 48
1.0
  6
BYLAYER
100
AcDbLine
 10
27.5
 20
15.1000000000000014
 30
0.0
 11
30.0
 21
15.1000000000000014
 31
0.0
  0
LINE
  5
35B
100
AcDbEntity
  8
0
 62
256
370
13
 48
1.0
  6
BYLAYER
100
AcDbLine
 10
59.5000000000000284
 20
15.1000000000000014
 30
0.0
 11
62.0000000000000284
 21
15.1000000000000014
 31
0.0
  0
LINE
  5
35C
100
AcDbEntity
  8
0
 62
256
370
13
 48
1.0
  6
BYLAYER
100
AcDbLine
 10
27.5
 20
47.0999999999999943
 30
0.0
 11
30.0
 21
47.0999999999999943
 31
0.0
  0
LINE
  5
35D
100
AcDbEntity
  8
0
 62
256
370
13
 48
1.0
  6
BYLAYER
100
AcDbLine
 10
59.5000000000000284
 20
47.0999999999999943
 30
0.0
 11
62.0000000000000284
 21
47.0999999999999943
 31
0.0
  0
LINE
  5
35E
100
AcDbEntity
  8
0
 62
256
370
13
 48
1.0
  6
BYLAYER
100
AcDbLine
 10
27.5
 20
80.0999999999999943
 30
0.0
 11
30.0
 21
80.0999999999999943
 31
0.0
  0
LINE
  5
35F
100
AcDbEntity
  8
0
 62
256
370
13
 48
1.0
  6
BYLAYER
100
AcDbLine
 10
59.5000000000000284
 20
80.0999999999999943
 30
0.0
 11
62.0000000000000284
 21
80.0999999999999943
 31
0.0
  0
LINE
  5
360
100
AcDbEntity
  8
0
 62
256
370
13
 48
1.0
  6
BYLAYER
100
AcDbLine
 10
27.5
 20
112.0999999999999943
 30
0.0
 11
30.0
 21
112.0999999999999943
 31
0.0
  0
LINE
  5
361
100
AcDbEntity
  8
0
 62
256
370
13
 48
1.0
  6
BYLAYER
100
AcDbLine
 10
59.5000000000000284
 20
112.0999999999999943
 30
0.0
 11
62.0000000000000284
 21
112.0999999999999943
 31
0.0
  0
LINE
  5
362
100
AcDbEntity
  8
0
 62
256
370
13
 48
1.0
  6
BYLAYER
100
AcDbLine
 10
27.5
 20
144.0999999999999943
 30
0.0
 11
30.0
 21
144.0999999999999943
 31
0.0
  0
LINE
  5
363
100
AcDbEntity
  8
0
 62
256
370
13
 48
1.0
  6
BYLAYER
100
AcDbLine
 10
59.5000000000000284
 20
144.0999999999999943
 30
0.0
 11
62.0000000000000284
 21
144.0999999999999943
 31
0.0
  0
LINE
  5
364
100
AcDbEntity
  8
0
 62
256
370
13
 48
1.0
  6
BYLAYER
100
AcDbLine
 10
27.5
 20
176.0999999999999943
 30
0.0
 11
30.0
 21
176.0999999999999943
 31
0.0
  0
LINE
  5
365
100
AcDbEntity
  8
0
 62
256
370
13
 48
1.0
  6
BYLAYER
100
AcDbLine
 10
59.5000000000000284
 20
176.0999999999999943
 30
0.0
 11
62.0000000000000284
 21
176.0999999999999943
 31
0.0
  0
LINE
  5
366
100
AcDbEntity
  8
0
 62
256
370
13
 48
1.0
  6
BYLAYER
100
AcDbLine
 10
27.5
 20
209.0999999999999943
 30
0.0
 11
30.0
 21
209.0999999999999943
 31
0.0
  0
LINE
  5
367
100
AcDbEntity
  8
0
 62
256
370
13
 48
1.0
  6
BYLAYER
100
AcDbLine
 10
59.5000000000000284
 20
209.0999999999999943
 30
0.0
 11
62.0000000000000284
 21
209.0999999999999943
 31
0.0
  0
LINE
  5
368
100
AcDbEntity
  8
0
 62
256
370
13
 48
1.0
  6
BYLAYER
100
AcDbLine
 10
27.5
 20
241.0999999999999943
 30
0.0
 11
30.0
 21
241.0999999999999943
 31
0.0
  0
LINE
  5
369
100
AcDbEntity
  8
0
 62
256
370
13
 48
1.0
  6
BYLAYER
100
AcDbLine
 10
59.5000000000000284
 20
241.0999999999999943
 30
0.0
 11
62.0000000000000284
 21
241.0999999999999943
 31
0.0
  0
LINE
  5
36A
100
AcDbEntity
  8
0
 62
256
370
13
 48
1.0
  6
BYLAYER
100
AcDbLine
 10
91.5
 20
15.1000000000000014
 30
0.0
 11
94.0
 21
15.1000000000000014
 31
0.0
  0
LINE
  5
36B
100
AcDbEntity
  8
0
 62
256
370
13
 48
1.0
  6
BYLAYER
100
AcDbLine
 10
123.5000000000000284
 20
15.1000000000000014
 30
0.0
 11
126.0000000000000284
 21
15.1000000000000014
 31
0.0
  0
LINE
  5
36C
100
AcDbEntity
  8
0
 62
256
370
13
 48
1.0
  6
BYLAYER
100
AcDbLine
 10
91.5
 20
47.0999999999999943
 30
0.0
 11
94.0
 21
47.0999999999999943
 31
0.0
  0
LINE
  5
36D
100
AcDbEntity
  8
0
 62
256
370
13
 48
1.0
  6
BYLAYER
100
AcDbLine
 10
123.5000000000000284
 20
47.0999999999999943
 30
0.0
 11
126.0000000000000284
 21
47.0999999999999943
 31
0.0
  0
LINE
  5
36E
100
AcDbEntity
  8
0
 62
256
370
13
 48
1.0
  6
BYLAYER
100
AcDbLine
 10
91.5
 20
80.0999999999999943
 30
0.0
 11
94.0
 21
80.0999999999999943
 31
0.0
  0
LINE
  5
36F
100
AcDbEntity
  8
0
 62
256
370
13
 48
1.0
  6
BYLAYER
100
AcDbLine
 10
123.5000000000000284
 20
80.0999999999999943
 30
0.0
 11
126.0000000000000284
 21
80.0999999999999943
 31
0.0
  0
LINE
  5
370
100
AcDbEntity
  8
0
 62
256
370
13
 48
1.0
  6
BYLAYER
100
AcDbLine
 10
91.5
 20
112.0999999999999943
 30
0.0
 11
94.0
 21
112.0999999999999943
 31
0.0
  0
LINE
  5
371
100
AcDbEntity
  8
0
 62
256
370
13
 48
1.0
  6
BYLAYER
100
AcDbLine
 10
123.5000000000000284
 20
112.0999999999999943
 30
0.0
 11
126.0000000000000284
 21
112.0999999999999943
 31
0.0
  0
LINE
  5
372
100
AcDbEntity
  8
0
 62
256
370
13
 48
1.0
  6
BYLAYER
100
AcDbLine
 10
91.5
 20
144.0999999999999943
 30
0.0
 11
94.0
 21
144.0999999999999943
 31
0.0
  0
LINE
  5
373
100
AcDbEntity
  8
0
 62
256
370
13
 48
1.0
  6
BYLAYER
100
AcDbLine
 10
123.5000000000000284
 20
144.0999999999999943
 30
0.0
 11
126.0000000000000284
 21
144.0999999999999943
 31
0.0
  0
LINE
  5
374
100
AcDbEntity
  8
0
 62
256
370
13
 48
1.0
  6
BYLAYER
100
AcDbLine
 10
91.5
 20
176.0999999999999943
 30
0.0
 11
94.0
 21
176.0999999999999943
 31
0.0
  0
LINE
  5
375
100
AcDbEntity
  8
0
 62
256
370
13
 48
1.0
  6
BYLAYER
100
AcDbLine
 10
123.5000000000000284
 20
176.0999999999999943
 30
0.0
 11
126.0000000000000284
 21
176.0999999999999943
 31
0.0
  0
LINE
  5
376
100
AcDbEntity
  8
0
 62
256
370
13
 48
1.0
  6
BYLAYER
100
AcDbLine
 10
91.5
 20
209.0999999999999943
 30
0.0
 11
94.0
 21
209.0999999999999943
 31
0.0
  0
LINE
  5
377
100
AcDbEntity
  8
0
 62
256
370
13
 48
1.0
  6
BYLAYER
100
AcDbLine
 10
123.5000000000000284
 20
209.0999999999999943
 30
0.0
 11
126.0000000000000284
 21
209.0999999999999943
 31
0.0
  0
LINE
  5
378
100
AcDbEntity
  8
0
 62
256
370
13
 48
1.0
  6
BYLAYER
100
AcDbLine
 10
91.5
 20
241.0999999999999943
 30
0.0
 11
94.0
 21
241.0999999999999943
 31
0.0
  0
LINE
  5
379
100
AcDbEntity
  8
0
 62
256
370
13
 48
1.0
  6
BYLAYER
100
AcDbLine
 10
123.5000000000000284
 20
241.0999999999999943
 30
0.0
 11
126.0000000000000284
 21
241.0999999999999943
 31
0.0
  0
LINE
  5
37A
100
AcDbEntity
  8
0
 62
256
370
13
 48
1.0
  6
BYLAYER
100
AcDbLine
 10
14.9000000000000057
 20
2.5
 30
0.0
 11
14.9000000000000057
 21
0.0
 31
0.0
  0
LINE
  5
37B
100
AcDbEntity
  8
0
 62
256
370
13
 48
1.0
  6
BYLAYER
100
AcDbLine
 10
46.9000000000000057
 20
2.4999999999999929
 30
0.0
 11
46.9000000000000057
 21
0.0
 31
0.0
  0
LINE
  5
37C
100
AcDbEntity
  8
0
 62
256
370
13
 48
1.0
  6
BYLAYER
100
AcDbLine
 10
14.9000000000000057
 20
34.5
 30
0.0
 11
14.9000000000000057
 21
32.0
 31
0.0
  0
LINE
  5
37D
100
AcDbEntity
  8
0
 62
256
370
13
 48
1.0
  6
BYLAYER
100
AcDbLine
 10
46.9000000000000057
 20
34.4999999999999858
 30
0.0
 11
46.9000000000000057
 21
32.0
 31
0.0
  0
LINE
  5
37E
100
AcDbEntity
  8
0
 62
256
370
13
 48
1.0
  6
BYLAYER
100
AcDbLine
 10
14.9000000000000057
 20
67.5
 30
0.0
 11
14.9000000000000057
 21
65.0
 31
0.0
  0
LINE
  5
37F
100
AcDbEntity
  8
0
 62
256
370
13
 48
1.0
  6
BYLAYER
100
AcDbLine
 10
46.9000000000000057
 20
67.5
 30
0.0
 11
46.9000000000000057
 21
65.0
 31
0.0
  0
LINE
  5
380
100
AcDbEntity
  8
0
 62
256
370
13
 48
1.0
  6
BYLAYER
100
AcDbLine
 10
14.9000000000000057
 20
99.5
 30
0.0
 11
14.9000000000000057
 21
97.0
 31
0.0
  0
LINE
  5
381
100
AcDbEntity
  8
0
 62
256
370
13
 48
1.0
  6
BYLAYER
100
AcDbLine
 10
46.9000000000000057
 20
99.4999999999999858
 30
0.0
 11
46.9000000000000057
 21
97.0
 31
0.0
  0
LINE
  5
382
100
AcDbEntity
  8
0
 62
256
370
13
 48
1.0
  6
BYLAYER
100
AcDbLine
 10
14.9000000000000057
 20
131.5
 30
0.0
 11
14.9000000000000057
 21
129.0
 31
0.0
  0
LINE
  5
383
100
AcDbEntity
  8
0
 62
256
370
13
 48
1.0
  6
BYLAYER
100
AcDbLine
 10
46.9000000000000057
 20
131.5
 30
0.0
 11
46.9000000000000057
 21
129.0
 31
0.0
  0
LINE
  5
384
100
AcDbEntity
  8
0
 62
256
370
13
 48
1.0
  6
BYLAYER
100
AcDbLine
 10
14.9000000000000057
 20
163.5
 30
0.0
 11
14.9000000000000057
 21
161.0
 31
0.0
  0
LINE
  5
385
100
AcDbEntity
  8
0
 62
256
370
13
 48
1.0
  6
BYLAYER
100
AcDbLine
 10
46.9000000000000057
 20
163.5
 30
0.0
 11
46.9000000000000057
 21
161.0
 31
0.0
  0
LINE
  5
386
100
AcDbEntity
  8
0
 62
256
370
13
 48
1.0
  6
BYLAYER
100
AcDbLine
 10
14.9000000000000057
 20
196.5
 30
0.0
 11
14.9000000000000057
 21
194.0
 31
0.0
  0
LINE
  5
387
100
AcDbEntity
  8
0
 62
256
370
13
 48
1.0
  6
BYLAYER
100
AcDbLine
 10
46.9000000000000057
 20
196.5
 30
0.0
 11
46.9000000000000057
 21
194.0
 31
0.0
  0
LINE
  5
388
100
AcDbEntity
  8
0
 62
256
370
13
 48
1.0
  6
BYLAYER
100
AcDbLine
 10
14.9000000000000057
 20
228.5
 30
0.0
 11
14.9000000000000057
 21
226.0
 31
0.0
  0
LINE
  5
389
100
AcDbEntity
  8
0
 62
256
370
13
 48
1.0
  6
BYLAYER
100
AcDbLine
 10
46.9000000000000057
 20
228.5
 30
0.0
 11
46.9000000000000057
 21
226.0
 31
0.0
  0
LINE
  5
38A
100
AcDbEntity
  8
0
 62
256
370
13
 48
1.0
  6
BYLAYER
100
AcDbLine
 10
78.9000000000000057
 20
2.5
 30
0.0
 11
78.9000000000000057
 21
0.0
 31
0.0
  0
LINE
  5
38B
100
AcDbEntity
  8
0
 62
256
370
13
 48
1.0
  6
BYLAYER
100
AcDbLine
 10
110.9000000000000057
 20
2.4999999999999929
 30
0.0
 11
110.9000000000000057
 21
0.0
 31
0.0
  0
LINE
  5
38C
100
AcDbEntity
  8
0
 62
256
370
13
 48
1.0
  6
BYLAYER
100
AcDbLine
 10
78.9000000000000057
 20
34.5
 30
0.0
 11
78.9000000000000057
 21
32.0
 31
0.0
  0
LINE
  5
38D
100
AcDbEntity
  8
0
 62
256
370
13
 48
1.0
  6
BYLAYER
100
AcDbLine
 10
110.9000000000000057
 20
34.4999999999999858
 30
0.0
 11
110.9000000000000057
 21
32.0
 31
0.0
  0
LINE
  5
38E
100
AcDbEntity
  8
0
 62
256
370
13
 48
1.0
  6
BYLAYER
100
AcDbLine
 10
78.9000000000000057
 20
67.5
 30
0.0
 11
78.9000000000000057
 21
65.0
 31
0.0
  0
LINE
  5
38F
100
AcDbEntity
  8
0
 62
256
370
13
 48
1.0
  6
BYLAYER
100
AcDbLine
 10
110.9000000000000057
 20
67.5
 30
0.0
 11
110.9000000000000057
 21
65.0
 31
0.0
  0
LINE
  5
390
100
AcDbEntity
  8
0
 62
256
370
13
 48
1.0
  6
BYLAYER
100
AcDbLine
 10
78.9000000000000057
 20
99.5
 30
0.0
 11
78.9000000000000057
 21
97.0
 31
0.0
  0
LINE
  5
391
100
AcDbEntity
  8
0
 62
256
370
13
 48
1.0
  6
BYLAYER
100
AcDbLine
 10
110.9000000000000057
 20
99.4999999999999858
 30
0.0
 11
110.9000000000000057
 21
97.0
 31
0.0
  0
LINE
  5
392
100
AcDbEntity
  8
0
 62
256
370
13
 48
1.0
  6
BYLAYER
100
AcDbLine
 10
78.9000000000000057
 20
131.5
 30
0.0
 11
78.9000000000000057
 21
129.0
 31
0.0
  0
LINE
  5
393
100
AcDbEntity
  8
0
 62
256
370
13
 48
1.0
  6
BYLAYER
100
AcDbLine
 10
110.9000000000000057
 20
131.5
 30
0.0
 11
110.9000000000000057
 21
129.0
 31
0.0
  0
LINE
  5
394
100
AcDbEntity
  8
0
 62
256
370
13
 48
1.0
  6
BYLAYER
100
AcDbLine
 10
78.9000000000000057
 20
163.5
 30
0.0
 11
78.9000000000000057
 21
161.0
 31
0.0
  0
LINE
  5
395
100
AcDbEntity
  8
0
 62
256
370
13
 48
1.0
  6
BYLAYER
100
AcDbLine
 10
110.9000000000000057
 20
163.5
 30
0.0
 11
110.9000000000000057
 21
161.0
 31
0.0
  0
LINE
  5
396
100
AcDbEntity
  8
0
 62
256
370
13
 48
1.0
  6
BYLAYER
100
AcDbLine
 10
78.9000000000000057
 20
196.5
 30
0.0
 11
78.9000000000000057
 21
194.0
 31
0.0
  0
LINE
  5
397
100
AcDbEntity
  8
0
 62
256
370
13
 48
1.0
  6
BYLAYER
100
AcDbLine
 10
110.9000000000000057
 20
196.5
 30
0.0
 11
110.9000000000000057
 21
194.0
 31
0.0
  0
LINE
  5
398
100
AcDbEntity
  8
0
 62
256
370
13
 48
1.0
  6
BYLAYER
100
AcDbLine
 10
78.9000000000000057
 20
228.5
 30
0.0
 11
78.9000000000000057
 21
226.0
 31
0.0
  0
LINE
  5
399
100
AcDbEntity
  8
0
 62
256
370
13
 48
1.0
  6
BYLAYER
100
AcDbLine
 10
110.9000000000000057
 20
228.5
 30
0.0
 11
110.9000000000000057
 21
226.0
 31
0.0
  0
LINE
  5
39A
100
AcDbEntity
  8
0
 62
256
370
13
 48
1.0
  6
BYLAYER
100
AcDbLine
 10
27.5
 20
7.3999999999999986
 30
0.0
 11
30.0
 21
7.3999999999999986
 31
0.0
  0
LINE
  5
39B
100
AcDbEntity
  8
0
 62
256
370
13
 48
1.0
  6
BYLAYER
100
AcDbLine
 10
59.5000000000000284
 20
7.3999999999999986
 30
0.0
 11
62.0000000000000284
 21
7.3999999999999986
 31
0.0
  0
LINE
  5
39C
100
AcDbEntity
  8
0
 62
256
370
13
 48
1.0
  6
BYLAYER
100
AcDbLine
 10
27.5
 20
39.3999999999999915
 30
0.0
 11
30.0
 21
39.3999999999999915
 31
0.0
  0
LINE
  5
39D
100
AcDbEntity
  8
0
 62
256
370
13
 48
1.0
  6
BYLAYER
100
AcDbLine
 10
59.5000000000000284
 20
39.3999999999999915
 30
0.0
 11
62.0000000000000284
 21
39.3999999999999915
 31
0.0
  0
LINE
  5
39E
100
AcDbEntity
  8
0
 62
256
370
13
 48
1.0
  6
BYLAYER
100
AcDbLine
 10
27.5
 20
72.4000000000000057
 30
0.0
 11
30.0
 21
72.4000000000000057
 31
0.0
  0
LINE
  5
39F
100
AcDbEntity
  8
0
 62
256
370
13
 48
1.0
  6
BYLAYER
100
AcDbLine
 10
59.5000000000000284
 20
72.4000000000000057
 30
0.0
 11
62.0000000000000284
 21
72.4000000000000057
 31
0.0
  0
LINE
  5
3A0
100
AcDbEntity
  8
0
 62
256
370
13
 48
1.0
  6
BYLAYER
100
AcDbLine
 10
27.5
 20
104.3999999999999915
 30
0.0
 11
30.0
 21
104.3999999999999915
 31
0.0
  0
LINE
  5
3A1
100
AcDbEntity
  8
0
 62
256
370
13
 48
1.0
  6
BYLAYER
100
AcDbLine
 10
59.5000000000000284
 20
104.3999999999999915
 30
0.0
 11
62.0000000000000284
 21
104.3999999999999915
 31
0.0
  0
LINE
  5
3A2
100
AcDbEntity
  8
0
 62
256
370
13
 48
1.0
  6
BYLAYER
100
AcDbLine
 10
27.5
 20
136.4000000000000057
 30
0.0
 11
30.0
 21
136.4000000000000057
 31
0.0
  0
LINE
  5
3A3
100
AcDbEntity
  8
0
 62
256
370
13
 48
1.0
  6
BYLAYER
100
AcDbLine
 10
59.5000000000000284
 20
136.4000000000000057
 30
0.0
 11
62.0000000000000284
 21
136.4000000000000057
 31
0.0
  0
LINE
  5
3A4
100
AcDbEntity
  8
0
 62
256
370
13
 48
1.0
  6
BYLAYER
100
AcDbLine
 10
27.5
 20
168.3999999999999773
 30
0.0
 11
30.0
 21
168.3999999999999773
 31
0.0
  0
LINE
  5
3A5
100
AcDbEntity
  8
0
 62
256
370
13
 48
1.0
  6
BYLAYER
100
AcDbLine
 10
59.5000000000000284
 20
168.3999999999999773
 30
0.0
 11
62.0000000000000284
 21
168.3999999999999773
 31
0.0
  0
LINE
  5
3A6
100
AcDbEntity
  8
0
 62
256
370
13
 48
1.0
  6
BYLAYER
100
AcDbLine
 10
27.5
 20
201.4000000000000057
 30
0.0
 11
30.0
 21
201.4000000000000057
 31
0.0
  0
LINE
  5
3A7
100
AcDbEntity
  8
0
 62
256
370
13
 48
1.0
  6
BYLAYER
100
AcDbLine
 10
59.5000000000000284
 20
201.4000000000000057
 30
0.0
 11
62.0000000000000284
 21
201.4000000000000057
 31
0.0
  0
LINE
  5
3A8
100
AcDbEntity
  8
0
 62
256
370
13
 48
1.0
  6
BYLAYER
100
AcDbLine
 10
27.5
 20
233.3999999999999773
 30
0.0
 11
30.0
 21
233.3999999999999773
 31
0.0
  0
LINE
  5
3A9
100
AcDbEntity
  8
0
 62
256
370
13
 48
1.0
  6
BYLAYER
100
AcDbLine
 10
59.5000000000000284
 20
233.3999999999999773
 30
0.0
 11
62.0000000000000284
 21
233.3999999999999773
 31
0.0
  0
LINE
  5
3AA
100
AcDbEntity
  8
0
 62
256
370
13
 48
1.0
  6
BYLAYER
100
AcDbLine
 10
91.5
 20
7.3999999999999986
 30
0.0
 11
94.0
 21
7.3999999999999986
 31
0.0
  0
LINE
  5
3AB
100
AcDbEntity
  8
0
 62
256
370
13
 48
1.0
  6
BYLAYER
100
AcDbLine
 10
123.5000000000000284
 20
7.3999999999999986
 30
0.0
 11
126.0000000000000284
 21
7.3999999999999986
 31
0.0
  0
LINE
  5
3AC
100
AcDbEntity
  8
0
 62
256
370
13
 48
1.0
  6
BYLAYER
100
AcDbLine
 10
91.5
 20
39.3999999999999915
 30
0.0
 11
94.0
 21
39.3999999999999915
 31
0.0
  0
LINE
  5
3AD
100
AcDbEntity
  8
0
 62
256
370
13
 48
1.0
  6
BYLAYER
100
AcDbLine
 10
123.5000000000000284
 20
39.3999999999999915
 30
0.0
 11
126.0000000000000284
 21
39.3999999999999915
 31
0.0
  0
LINE
  5
3AE
100
AcDbEntity
  8
0
 62
256
370
13
 48
1.0
  6
BYLAYER
100
AcDbLine
 10
91.5
 20
72.4000000000000057
 30
0.0
 11
94.0
 21
72.4000000000000057
 31
0.0
  0
LINE
  5
3AF
100
AcDbEntity
  8
0
 62
256
370
13
 48
1.0
  6
BYLAYER
100
AcDbLine
 10
123.5000000000000284
 20
72.4000000000000057
 30
0.0
 11
126.0000000000000284
 21
72.4000000000000057
 31
0.0
  0
LINE
  5
3B0
100
AcDbEntity
  8
0
 62
256
370
13
 48
1.0
  6
BYLAYER
100
AcDbLine
 10
91.5
 20
104.3999999999999915
 30
0.0
 11
94.0
 21
104.3999999999999915
 31
0.0
  0
LINE
  5
3B1
100
AcDbEntity
  8
0
 62
256
370
13
 48
1.0
  6
BYLAYER
100
AcDbLine
 10
123.5000000000000284
 20
104.3999999999999915
 30
0.0
 11
126.0000000000000284
 21
104.3999999999999915
 31
0.0
  0
LINE
  5
3B2
100
AcDbEntity
  8
0
 62
256
370
13
 48
1.0
  6
BYLAYER
100
AcDbLine
 10
91.5
 20
136.4000000000000057
 30
0.0
 11
94.0
 21
136.4000000000000057
 31
0.0
  0
LINE
  5
3B3
100
AcDbEntity
  8
0
 62
256
370
13
 48
1.0
  6
BYLAYER
100
AcDbLine
 10
123.5000000000000284
 20
136.4000000000000057
 30
0.0
 11
126.0000000000000284
 21
136.4000000000000057
 31
0.0
  0
LINE
  5
3B4
100
AcDbEntity
  8
0
 62
256
370
13
 48
1.0
  6
BYLAYER
100
AcDbLine
 10
91.5
 20
168.3999999999999773
 30
0.0
 11
94.0
 21
168.3999999999999773
 31
0.0
  0
LINE
  5
3B5
100
AcDbEntity
  8
0
 62
256
370
13
 48
1.0
  6
BYLAYER
100
AcDbLine
 10
123.5000000000000284
 20
168.3999999999999773
 30
0.0
 11
126.0000000000000284
 21
168.3999999999999773
 31
0.0
  0
LINE
  5
3B6
100
AcDbEntity
  8
0
 62
256
370
13
 48
1.0
  6
BYLAYER
100
AcDbLine
 10
91.5
 20
201.4000000000000057
 30
0.0
 11
94.0
 21
201.4000000000000057
 31
0.0
  0
LINE
  5
3B7
100
AcDbEntity
  8
0
 62
256
370
13
 48
1.0
  6
BYLAYER
100
AcDbLine
 10
123.5000000000000284
 20
201.4000000000000057
 30
0.0
 11
126.0000000000000284
 21
201.4000000000000057
 31
0.0
  0
LINE
  5
3B8
100
AcDbEntity
  8
0
 62
256
370
13
 48
1.0
  6
BYLAYER
100
AcDbLine
 10
91.5
 20
233.3999999999999773
 30
0.0
 11
94.0
 21
233.3999999999999773
 31
0.0
  0
LINE
  5
3B9
100
AcDbEntity
  8
0
 62
256
370
13
 48
1.0
  6
BYLAYER
100
AcDbLine
 10
123.5000000000000284
 20
233.3999999999999773
 30
0.0
 11
126.0000000000000284
 21
233.3999999999999773
 31
0.0
  0
LINE
  5
3BA
100
AcDbEntity
  8
0
 62
256
370
13
 48
1.0
  6
BYLAYER
100
AcDbLine
 10
22.6000000000000227
 20
2.5
 30
0.0
 11
22.6000000000000227
 21
0.0000000000000071
 31
0.0
  0
LINE
  5
3BB
100
AcDbEntity
  8
0
 62
256
370
13
 48
1.0
  6
BYLAYER
100
AcDbLine
 10
54.6000000000000512
 20
2.5
 30
0.0
 11
54.6000000000000512
 21
0.0000000000000071
 31
0.0
  0
LINE
  5
3BC
100
AcDbEntity
  8
0
 62
256
370
13
 48
1.0
  6
BYLAYER
100
AcDbLine
 10
22.6000000000000227
 20
34.5
 30
0.0
 11
22.6000000000000227
 21
32.0
 31
0.0
  0
LINE
  5
3BD
100
AcDbEntity
  8
0
 62
256
370
13
 48
1.0
  6
BYLAYER
100
AcDbLine
 10
54.6000000000000512
 20
34.5
 30
0.0
 11
54.6000000000000512
 21
32.0
 31
0.0
  0
LINE
  5
3BE
100
AcDbEntity
  8
0
 62
256
370
13
 48
1.0
  6
BYLAYER
100
AcDbLine
 10
22.6000000000000227
 20
67.5
 30
0.0
 11
22.6000000000000227
 21
65.0
 31
0.0
  0
LINE
  5
3BF
100
AcDbEntity
  8
0
 62
256
370
13
 48
1.0
  6
BYLAYER
100
AcDbLine
 10
54.6000000000000512
 20
67.5
 30
0.0
 11
54.6000000000000512
 21
65.0
 31
0.0
  0
LINE
  5
3C0
100
AcDbEntity
  8
0
 62
256
370
13
 48
1.0
  6
BYLAYER
100
AcDbLine
 10
22.6000000000000227
 20
99.5
 30
0.0
 11
22.6000000000000227
 21
97.0
 31
0.0
  0
LINE
  5
3C1
100
AcDbEntity
  8
0
 62
256
370
13
 48
1.0
  6
BYLAYER
100
AcDbLine
 10
54.6000000000000512
 20
99.5
 30
0.0
 11
54.6000000000000512
 21
97.0
 31
0.0
  0
LINE
  5
3C2
100
AcDbEntity
  8
0
 62
256
370
13
 48
1.0
  6
BYLAYER
100
AcDbLine
 10
22.6000000000000227
 20
131.5
 30
0.0
 11
22.6000000000000227
 21
129.0
 31
0.0
  0
LINE
  5
3C3
100
AcDbEntity
  8
0
 62
256
370
13
 48
1.0
  6
BYLAYER
100
AcDbLine
 10
54.6000000000000512
 20
131.5
 30
0.0
 11
54.6000000000000512
 21
129.0
 31
0.0
  0
LINE
  5
3C4
100
AcDbEntity
  8
0
 62
256
370
13
 48
1.0
  6
BYLAYER
100
AcDbLine
 10
22.6000000000000227
 20
163.5
 30
0.0
 11
22.6000000000000227
 21
161.0
 31
0.0
  0
LINE
  5
3C5
100
AcDbEntity
  8
0
 62
256
370
13
 48
1.0
  6
BYLAYER
100
AcDbLine
 10
54.6000000000000512
 20
163.5
 30
0.0
 11
54.6000000000000512
 21
161.0
 31
0.0
  0
LINE
  5
3C6
100
AcDbEntity
  8
0
 62
256
370
13
 48
1.0
  6
BYLAYER
100
AcDbLine
 10
22.6000000000000227
 20
196.5
 30
0.0
 11
22.6000000000000227
 21
194.0
 31
0.0
  0
LINE
  5
3C7
100
AcDbEntity
  8
0
 62
256
370
13
 48
1.0
  6
BYLAYER
100
AcDbLine
 10
54.6000000000000512
 20
196.5
 30
0.0
 11
54.6000000000000512
 21
194.0
 31
0.0
  0
LINE
  5
3C8
100
AcDbEntity
  8
0
 62
256
370
13
 48
1.0
  6
BYLAYER
100
AcDbLine
 10
22.6000000000000227
 20
228.5
 30
0.0
 11
22.6000000000000227
 21
226.0
 31
0.0
  0
LINE
  5
3C9
100
AcDbEntity
  8
0
 62
256
370
13
 48
1.0
  6
BYLAYER
100
AcDbLine
 10
54.6000000000000512
 20
228.5
 30
0.0
 11
54.6000000000000512
 21
226.0
 31
0.0
  0
LINE
  5
3CA
100
AcDbEntity
  8
0
 62
256
370
13
 48
1.0
  6
BYLAYER
100
AcDbLine
 10
86.6000000000000227
 20
2.5
 30
0.0
 11
86.6000000000000227
 21
0.0000000000000071
 31
0.0
  0
LINE
  5
3CB
100
AcDbEntity
  8
0
 62
256
370
13
 48
1.0
  6
BYLAYER
100
AcDbLine
 10
118.6000000000000512
 20
2.5
 30
0.0
 11
118.6000000000000512
 21
0.0000000000000071
 31
0.0
  0
LINE
  5
3CC
100
AcDbEntity
  8
0
 62
256
370
13
 48
1.0
  6
BYLAYER
100
AcDbLine
 10
86.6000000000000227
 20
34.5
 30
0.0
 11
86.6000000000000227
 21
32.0
 31
0.0
  0
LINE
  5
3CD
100
AcDbEntity
  8
0
 62
256
370
13
 48
1.0
  6
BYLAYER
100
AcDbLine
 10
118.6000000000000512
 20
34.5
 30
0.0
 11
118.6000000000000512
 21
32.0
 31
0.0
  0
LINE
  5
3CE
100
AcDbEntity
  8
0
 62
256
370
13
 48
1.0
  6
BYLAYER
100
AcDbLine
 10
86.6000000000000227
 20
67.5
 30
0.0
 11
86.6000000000000227
 21
65.0
 31
0.0
  0
LINE
  5
3CF
100
AcDbEntity
  8
0
 62
256
370
13
 48
1.0
  6
BYLAYER
100
AcDbLine
 10
118.6000000000000512
 20
67.5
 30
0.0
 11
118.6000000000000512
 21
65.0
 31
0.0
  0
LINE
  5
3D0
100
AcDbEntity
  8
0
 62
256
370
13
 48
1.0
  6
BYLAYER
100
AcDbLine
 10
86.6000000000000227
 20
99.5
 30
0.0
 11
86.6000000000000227
 21
97.0
 31
0.0
  0
LINE
  5
3D1
100
AcDbEntity
  8
0
 62
256
370
13
 48
1.0
  6
BYLAYER
100
AcDbLine
 10
118.6000000000000512
 20
99.5
 30
0.0
 11
118.6000000000000512
 21
97.0
 31
0.0
  0
LINE
  5
3D2
100
AcDbEntity
  8
0
 62
256
370
13
 48
1.0
  6
BYLAYER
100
AcDbLine
 10
86.6000000000000227
 20
131.5
 30
0.0
 11
86.6000000000000227
 21
129.0
 31
0.0
  0
LINE
  5
3D3
100
AcDbEntity
  8
0
 62
256
370
13
 48
1.0
  6
BYLAYER
100
AcDbLine
 10
118.6000000000000512
 20
131.5
 30
0.0
 11
118.6000000000000512
 21
129.0
 31
0.0
  0
LINE
  5
3D4
100
AcDbEntity
  8
0
 62
256
370
13
 48
1.0
  6
BYLAYER
100
AcDbLine
 10
86.6000000000000227
 20
163.5
 30
0.0
 11
86.6000000000000227
 21
161.0
 31
0.0
  0
LINE
  5
3D5
100
AcDbEntity
  8
0
 62
256
370
13
 48
1.0
  6
BYLAYER
100
AcDbLine
 10
118.6000000000000512
 20
163.5
 30
0.0
 11
118.6000000000000512
 21
161.0
 31
0.0
  0
LINE
  5
3D6
100
AcDbEntity
  8
0
 62
256
370
13
 48
1.0
  6
BYLAYER
100
AcDbLine
 10
86.6000000000000227
 20
196.5
 30
0.0
 11
86.6000000000000227
 21
194.0
 31
0.0
  0
LINE
  5
3D7
100
AcDbEntity
  8
0
 62
256
370
13
 48
1.0
  6
BYLAYER
100
AcDbLine
 10
118.6000000000000512
 20
196.5
 30
0.0
 11
118.6000000000000512
 21
194.0
 31
0.0
  0
LINE
  5
3D8
100
AcDbEntity
  8
0
 62
256
370
13
 48
1.0
  6
BYLAYER
100
AcDbLine
 10
86.6000000000000227
 20
228.5
 30
0.0
 11
86.6000000000000227
 21
226.0
 31
0.0
  0
LINE
  5
3D9
100
AcDbEntity
  8
0
 62
256
370
13
 48
1.0
  6
BYLAYER
100
AcDbLine
 10
118.6000000000000512
 20
228.5
 30
0.0
 11
118.6000000000000512
 21
226.0
 31
0.0
  0
ARC
  5
3DA
100
AcDbEntity
  8
layer 1
 62
256
370
9
 48
1.0
  6
BYLAYER
100
AcDbCircle
 10
19.2635228780340526
 20
45.8187418325040312
 30
0.0
 40
5.1110598558251796
100
AcDbArc
 50
213.4698770317653782
 51
241.9827449560472417
  0
ARC
  5
3DB
100
AcDbEntity
  8
layer 1
 62
256
370
9
 48
1.0
  6
BYLAYER
100
AcDbCircle
 10
19.2635228780340526
 20
110.8187418325040312
 30
0.0
 40
5.1110598558251796
100
AcDbArc
 50
213.4698770317653782
 51
241.9827449560472417
  0
ARC
  5
3DC
100
AcDbEntity
  8
layer 1
 62
256
370
9
 48
1.0
  6
BYLAYER
100
AcDbCircle
 10
19.2635228780340526
 20
174.8187418325040312
 30
0.0
 40
5.1110598558251796
100
AcDbArc
 50
213.4698770317653782
 51
241.9827449560472417
  0
ARC
  5
3DD
100
AcDbEntity
  8
layer 1
 62
256
370
9
 48
1.0
  6
BYLAYER
100
AcDbCircle
 10
19.2635228780340526
 20
239.8187418325040312
 30
0.0
 40
5.1110598558251796
100
AcDbArc
 50
213.4698770317653782
 51
241.9827449560472417
  0
ARC
  5
3DE
100
AcDbEntity
  8
layer 1
 62
256
370
9
 48
1.0
  6
BYLAYER
100
AcDbCircle
 10
83.2635228780340526
 20
45.8187418325040312
 30
0.0
 40
5.1110598558251796
100
AcDbArc
 50
213.4698770317653782
 51
241.9827449560472417
  0
ARC
  5
3DF
100
AcDbEntity
  8
layer 1
 62
256
370
9
 48
1.0
  6
BYLAYER
100
AcDbCircle
 10
83.2635228780340526
 20
110.8187418325040312
 30
0.0
 40
5.1110598558251796
100
AcDbArc
 50
213.4698770317653782
 51
241.9827449560472417
  0
ARC
  5
3E0
100
AcDbEntity
  8
layer 1
 62
256
370
9
 48
1.0
  6
BYLAYER
100
AcDbCircle
 10
83.2635228780340526
 20
174.8187418325040312
 30
0.0
 40
5.1110598558251796
100
AcDbArc
 50
213.4698770317653782
 51
241.9827449560472417
  0
ARC
  5
3E1
100
AcDbEntity
  8
layer 1
 62
256
370
9
 48
1.0
  6
BYLAYER
100
AcDbCircle
 10
83.2635228780340526
 20
239.8187418325040312
 30
0.0
 40
5.1110598558251796
100
AcDbArc
 50
213.4698770317653782
 51
241.9827449560472417
  0
LINE
  5
3E2
100
AcDbEntity
  8
layer 1
 62
256
370
9
 48
1.0
  6
BYLAYER
100
AcDbLine
 10
16.8626666666667404
 20
41.3066666666666436
 30
0.0
 11
15.0
 21
39.4439999999999884
 31
0.0
  0
LINE
  5
3E3
100
AcDbEntity
  8
layer 1
 62
256
370
9
 48
1.0
  6
BYLAYER
100
AcDbLine
 10
16.8626666666667404
 20
106.3066666666666436
 30
0.0
 11
15.0
 21
104.4439999999999884
 31
0.0
  0
LINE
  5
3E4
100
AcDbEntity
  8
layer 1
 62
256
370
9
 48
1.0
  6
BYLAYER
100
AcDbLine
 10
16.8626666666667404
 20
170.3066666666666436
 30
0.0
 11
15.0
 21
168.4439999999999884
 31
0.0
  0
LINE
  5
3E5
100
AcDbEntity
  8
layer 1
 62
256
370
9
 48
1.0
  6
BYLAYER
100
AcDbLine
 10
16.8626666666667404
 20
235.3066666666666436
 30
0.0
 11
15.0
 21
233.4439999999999884
 31
0.0
  0
LINE
  5
3E6
100
AcDbEntity
  8
layer 1
 62
256
370
9
 48
1.0
  6
BYLAYER
100
AcDbLine
 10
80.8626666666667404
 20
41.3066666666666436
 30
0.0
 11
79.0
 21
39.4439999999999884
 31
0.0
  0
LINE
  5
3E7
100
AcDbEntity
  8
layer 1
 62
256
370
9
 48
1.0
  6
BYLAYER
100
AcDbLine
 10
80.8626666666667404
 20
106.3066666666666436
 30
0.0
 11
79.0
 21
104.4439999999999884
 31
0.0
  0
LINE
  5
3E8
100
AcDbEntity
  8
layer 1
 62
256
370
9
 48
1.0
  6
BYLAYER
100
AcDbLine
 10
80.8626666666667404
 20
170.3066666666666436
 30
0.0
 11
79.0
 21
168.4439999999999884
 31
0.0
  0
LINE
  5
3E9
100
AcDbEntity
  8
layer 1
 62
256
370
9
 48
1.0
  6
BYLAYER
100
AcDbLine
 10
80.8626666666667404
 20
235.3066666666666436
 30
0.0
 11
79.0
 21
233.4439999999999884
 31
0.0
  0
LINE
  5
3EA
100
AcDbEntity
  8
layer 1
 62
256
370
9
 48
1.0
  6
BYLAYER
100
AcDbLine
 10
15.0
 20
39.4439999999999884
 30
0.0
 11
13.1373333333333449
 21
41.3066666666666436
 31
0.0
  0
LINE
  5
3EB
100
AcDbEntity
  8
layer 1
 62
256
370
9
 48
1.0
  6
BYLAYER
100
AcDbLine
 10
15.0
 20
104.4439999999999884
 30
0.0
 11
13.1373333333333449
 21
106.3066666666666436
 31
0.0
  0
LINE
  5
3EC
100
AcDbEntity
  8
layer 1
 62
256
370
9
 48
1.0
  6
BYLAYER
100
AcDbLine
 10
15.0
 20
168.4439999999999884
 30
0.0
 11
13.1373333333333449
 21
170.3066666666666436
 31
0.0
  0
LINE
  5
3ED
100
AcDbEntity
  8
layer 1
 62
256
370
9
 48
1.0
  6
BYLAYER
100
AcDbLine
 10
15.0
 20
233.4439999999999884
 30
0.0
 11
13.1373333333333449
 21
235.3066666666666436
 31
0.0
  0
LINE
  5
3EE
100
AcDbEntity
  8
layer 1
 62
256
370
9
 48
1.0
  6
BYLAYER
100
AcDbLine
 10
79.0
 20
39.4439999999999884
 30
0.0
 11
77.1373333333333449
 21
41.3066666666666436
 31
0.0
  0
LINE
  5
3EF
100
AcDbEntity
  8
layer 1
 62
256
370
9
 48
1.0
  6
BYLAYER
100
AcDbLine
 10
79.0
 20
104.4439999999999884
 30
0.0
 11
77.1373333333333449
 21
106.3066666666666436
 31
0.0
  0
LINE
  5
3F0
100
AcDbEntity
  8
layer 1
 62
256
370
9
 48
1.0
  6
BYLAYER
100
AcDbLine
 10
79.0
 20
168.4439999999999884
 30
0.0
 11
77.1373333333333449
 21
170.3066666666666436
 31
0.0
  0
LINE
  5
3F1
100
AcDbEntity
  8
layer 1
 62
256
370
9
 48
1.0
  6
BYLAYER
100
AcDbLine
 10
79.0
 20
233.4439999999999884
 30
0.0
 11
77.1373333333333449
 21
235.3066666666666436
 31
0.0
  0
ARC
  5
3F2
100
AcDbEntity
  8
layer 1
 62
256
370
9
 48
1.0
  6
BYLAYER
100
AcDbCircle
 10
10.7825086085081239
 20
45.7681071973076712
 30
0.0
 40
5.0447647212823323
100
AcDbArc
 50
297.8258597334825026
 51
326.7215182787049912
  0
ARC
  5
3F3
100
AcDbEntity
  8
layer 1
 62
256
370
9
 48
1.0
  6
BYLAYER
100
AcDbCircle
 10
10.7825086085081239
 20
110.7681071973076712
 30
0.0
 40
5.0447647212823323
100
AcDbArc
 50
297.8258597334825026
 51
326.7215182787049912
  0
ARC
  5
3F4
100
AcDbEntity
  8
layer 1
 62
256
370
9
 48
1.0
  6
BYLAYER
100
AcDbCircle
 10
10.7825086085081239
 20
174.7681071973076712
 30
0.0
 40
5.0447647212823323
100
AcDbArc
 50
297.8258597334825026
 51
326.7215182787049912
  0
ARC
  5
3F5
100
AcDbEntity
  8
layer 1
 62
256
370
9
 48
1.0
  6
BYLAYER
100
AcDbCircle
 10
10.7825086085081239
 20
239.7681071973076712
 30
0.0
 40
5.0447647212823323
100
AcDbArc
 50
297.8258597334825026
 51
326.7215182787049912
  0
ARC
  5
3F6
100
AcDbEntity
  8
layer 1
 62
256
370
9
 48
1.0
  6
BYLAYER
100
AcDbCircle
 10
74.7825086085081239
 20
45.7681071973076712
 30
0.0
 40
5.0447647212823323
100
AcDbArc
 50
297.8258597334825026
 51
326.7215182787049912
  0
ARC
  5
3F7
100
AcDbEntity
  8
layer 1
 62
256
370
9
 48
1.0
  6
BYLAYER
100
AcDbCircle
 10
74.7825086085081239
 20
110.7681071973076712
 30
0.0
 40
5.0447647212823323
100
AcDbArc
 50
297.8258597334825026
 51
326.7215182787049912
  0
ARC
  5
3F8
100
AcDbEntity
  8
layer 1
 62
256
370
9
 48
1.0
  6
BYLAYER
100
AcDbCircle
 10
74.7825086085081239
 20
174.7681071973076712
 30
0.0
 40
5.0447647212823323
100
AcDbArc
 50
297.8258597334825026
 51
326.7215182787049912
  0
ARC
  5
3F9
100
AcDbEntity
  8
layer 1
 62
256
370
9
 48
1.0
  6
BYLAYER
100
AcDbCircle
 10
74.7825086085081239
 20
239.7681071973076712
 30
0.0
 40
5.0447647212823323
100
AcDbArc
 50
297.8258597334825026
 51
326.7215182787049912
  0
ARC
  5
3FA
100
AcDbEntity
  8
layer 1
 62
256
370
9
 48
1.0
  6
BYLAYER
100
AcDbCircle
 10
19.2333333333333769
 20
45.3706666666666223
 30
0.0
 40
1.6933333333333334
100
AcDbArc
 50
90.0000000000000142
 51
180.0
  0
ARC
  5
3FB
100
AcDbEntity
  8
layer 1
 62
256
370
9
 48
1.0
  6
BYLAYER
100
AcDbCircle
 10
19.2333333333333769
 20
110.3706666666666223
 30
0.0
 40
1.6933333333333334
100
AcDbArc
 50
90.0000000000000142
 51
180.0
  0
ARC
  5
3FC
100
AcDbEntity
  8
layer 1
 62
256
370
9
 48
1.0
  6
BYLAYER
100
AcDbCircle
 10
19.2333333333333769
 20
174.3706666666666365
 30
0.0
 40
1.6933333333333334
100
AcDbArc
 50
90.0000000000000142
 51
180.0
  0
ARC
  5
3FD
100
AcDbEntity
  8
layer 1
 62
256
370
9
 48
1.0
  6
BYLAYER
100
AcDbCircle
 10
19.2333333333333769
 20
239.3706666666666365
 30
0.0
 40
1.6933333333333334
100
AcDbArc
 50
90.0000000000000142
 51
180.0
  0
ARC
  5
3FE
100
AcDbEntity
  8
layer 1
 62
256
370
9
 48
1.0
  6
BYLAYER
100
AcDbCircle
 10
83.2333333333333769
 20
45.3706666666666223
 30
0.0
 40
1.6933333333333334
100
AcDbArc
 50
90.0000000000000142
 51
180.0
  0
ARC
  5
3FF
100
AcDbEntity
  8
layer 1
 62
256
370
9
 48
1.0
  6
BYLAYER
100
AcDbCircle
 10
83.2333333333333769
 20
110.3706666666666223
 30
0.0
 40
1.6933333333333334
100
AcDbArc
 50
90.0000000000000142
 51
180.0
  0
ARC
  5
400
100
AcDbEntity
  8
layer 1
 62
256
370
9
 48
1.0
  6
BYLAYER
100
AcDbCircle
 10
83.2333333333333769
 20
174.3706666666666365
 30
0.0
 40
1.6933333333333334
100
AcDbArc
 50
90.0000000000000142
 51
180.0
  0
ARC
  5
401
100
AcDbEntity
  8
layer 1
 62
256
370
9
 48
1.0
  6
BYLAYER
100
AcDbCircle
 10
83.2333333333333769
 20
239.3706666666666365
 30
0.0
 40
1.6933333333333334
100
AcDbArc
 50
90.0000000000000142
 51
180.0
  0
ARC
  5
402
100
AcDbEntity
  8
layer 1
 62
256
370
9
 48
1.0
  6
BYLAYER
100
AcDbCircle
 10
19.2333333333333769
 20
45.3706666666666223
 30
0.0
 40
1.6933333333333334
100
AcDbArc
 50
180.0
 51
270.0
  0
ARC
  5
403
100
AcDbEntity
  8
layer 1
 62
256
370
9
 48
1.0
  6
BYLAYER
100
AcDbCircle
 10
19.2333333333333769
 20
110.3706666666666223
 30
0.0
 40
1.6933333333333334
100
AcDbArc
 50
180.0
 51
270.0
  0
ARC
  5
404
100
AcDbEntity
  8
layer 1
 62
256
370
9
 48
1.0
  6
BYLAYER
100
AcDbCircle
 10
19.2333333333333769
 20
174.3706666666666365
 30
0.0
 40
1.6933333333333334
100
AcDbArc
 50
180.0
 51
270.0
  0
ARC
  5
405
100
AcDbEntity
  8
layer 1
 62
256
370
9
 48
1.0
  6
BYLAYER
100
AcDbCircle
 10
19.2333333333333769
 20
239.3706666666666365
 30
0.0
 40
1.6933333333333334
100
AcDbArc
 50
180.0
 51
270.0
  0
ARC
  5
406
100
AcDbEntity
  8
layer 1
 62
256
370
9
 48
1.0
  6
BYLAYER
100
AcDbCircle
 10
83.2333333333333769
 20
45.3706666666666223
 30
0.0
 40
1.6933333333333334
100
AcDbArc
 50
180.0
 51
270.0
  0
ARC
  5
407
100
AcDbEntity
  8
layer 1
 62
256
370
9
 48
1.0
  6
BYLAYER
100
AcDbCircle
 10
83.2333333333333769
 20
110.3706666666666223
 30
0.0
 40
1.6933333333333334
100
AcDbArc
 50
180.0
 51
270.0
  0
ARC
  5
408
100
AcDbEntity
  8
layer 1
 62
256
370
9
 48
1.0
  6
BYLAYER
100
AcDbCircle
 10
83.2333333333333769
 20
174.3706666666666365
 30
0.0
 40
1.6933333333333334
100
AcDbArc
 50
180.0
 51
270.0
  0
ARC
  5
409
100
AcDbEntity
  8
layer 1
 62
256
370
9
 48
1.0
  6
BYLAYER
100
AcDbCircle
 10
83.2333333333333769
 20
239.3706666666666365
 30
0.0
 40
1.6933333333333334
100
AcDbArc
 50
180.0
 51
270.0
  0
ARC
  5
40A
100
AcDbEntity
  8
layer 1
 62
256
370
9
 48
1.0
  6
BYLAYER
100
AcDbCircle
 10
19.2333333333333769
 20
45.3706666666666223
 30
0.0
 40
1.6933333333333334
100
AcDbArc
 50
270.0
 51
0.0
  0
ARC
  5
40B
100
AcDbEntity
  8
layer 1
 62
256
370
9
 48
1.0
  6
BYLAYER
100
AcDbCircle
 10
19.2333333333333769
 20
110.3706666666666223
 30
0.0
 40
1.6933333333333334
100
AcDbArc
 50
270.0
 51
0.0
  0
ARC
  5
40C
100
AcDbEntity
  8
layer 1
 62
256
370
9
 48
1.0
  6
BYLAYER
100
AcDbCircle
 10
19.2333333333333769
 20
174.3706666666666365
 30
0.0
 40
1.6933333333333334
100
AcDbArc
 50
270.0
 51
0.0
  0
ARC
  5
40D
100
AcDbEntity
  8
layer 1
 62
256
370
9
 48
1.0
  6
BYLAYER
100
AcDbCircle
 10
19.2333333333333769
 20
239.3706666666666365
 30
0.0
 40
1.6933333333333334
100
AcDbArc
 50
270.0
 51
0.0
  0
ARC
  5
40E
100
AcDbEntity
  8
layer 1
 62
256
370
9
 48
1.0
  6
BYLAYER
100
AcDbCircle
 10
83.2333333333333769
 20
45.3706666666666223
 30
0.0
 40
1.6933333333333334
100
AcDbArc
 50
270.0
 51
0.0
  0
ARC
  5
40F
100
AcDbEntity
  8
layer 1
 62
256
370
9
 48
1.0
  6
BYLAYER
100
AcDbCircle
 10
83.2333333333333769
 20
110.3706666666666223
 30
0.0
 40
1.6933333333333334
100
AcDbArc
 50
270.0
 51
0.0
  0
ARC
  5
410
100
AcDbEntity
  8
layer 1
 62
256
370
9
 48
1.0
  6
BYLAYER
100
AcDbCircle
 10
83.2333333333333769
 20
174.3706666666666365
 30
0.0
 40
1.6933333333333334
100
AcDbArc
 50
270.0
 51
0.0
  0
ARC
  5
411
100
AcDbEntity
  8
layer 1
 62
256
370
9
 48
1.0
  6
BYLAYER
100
AcDbCircle
 10
83.2333333333333769
 20
239.3706666666666365
 30
0.0
 40
1.6933333333333334
100
AcDbArc
 50
270.0
 51
0.0
  0
ARC
  5
412
100
AcDbEntity
  8
layer 1
 62
256
370
9
 48
1.0
  6
BYLAYER
100
AcDbCircle
 10
19.2338034376571443
 20
45.3711367709904323
 30
0.0
 40
1.6928632942830086
100
AcDbArc
 50
359.984089090884595
 51
90.0159109091153766
  0
ARC
  5
413
100
AcDbEntity
  8
layer 1
 62
256
370
9
 48
1.0
  6
BYLAYER
100
AcDbCircle
 10
19.2338034376571443
 20
110.3711367709904323
 30
0.0
 40
1.6928632942830086
100
AcDbArc
 50
359.984089090884595
 51
90.0159109091153766
  0
ARC
  5
414
100
AcDbEntity
  8
layer 1
 62
256
370
9
 48
1.0
  6
BYLAYER
100
AcDbCircle
 10
19.2338034376571443
 20
174.3711367709904323
 30
0.0
 40
1.6928632942830086
100
AcDbArc
 50
359.984089090884595
 51
90.0159109091153766
  0
ARC
  5
415
100
AcDbEntity
  8
layer 1
 62
256
370
9
 48
1.0
  6
BYLAYER
100
AcDbCircle
 10
19.2338034376571443
 20
239.3711367709904323
 30
0.0
 40
1.6928632942830086
100
AcDbArc
 50
359.984089090884595
 51
90.0159109091153766
  0
ARC
  5
416
100
AcDbEntity
  8
layer 1
 62
256
370
9
 48
1.0
  6
BYLAYER
100
AcDbCircle
 10
83.2338034376571443
 20
45.3711367709904323
 30
0.0
 40
1.6928632942830086
100
AcDbArc
 50
359.984089090884595
 51
90.0159109091153766
  0
ARC
  5
417
100
AcDbEntity
  8
layer 1
 62
256
370
9
 48
1.0
  6
BYLAYER
100
AcDbCircle
 10
83.2338034376571443
 20
110.3711367709904323
 30
0.0
 40
1.6928632942830086
100
AcDbArc
 50
359.984089090884595
 51
90.0159109091153766
  0
ARC
  5
418
100
AcDbEntity
  8
layer 1
 62
256
370
9
 48
1.0
  6
BYLAYER
100
AcDbCircle
 10
83.2338034376571443
 20
174.3711367709904323
 30
0.0
 40
1.6928632942830086
100
AcDbArc
 50
359.984089090884595
 51
90.0159109091153766
  0
ARC
  5
419
100
AcDbEntity
  8
layer 1
 62
256
370
9
 48
1.0
  6
BYLAYER
100
AcDbCircle
 10
83.2338034376571443
 20
239.3711367709904323
 30
0.0
 40
1.6928632942830086
100
AcDbArc
 50
359.984089090884595
 51
90.0159109091153766
  0
ARC
  5
41A
100
AcDbEntity
  8
layer 1
 62
256
370
9
 48
1.0
  6
BYLAYER
100
AcDbCircle
 10
10.7666666666667084
 20
45.3706666666666223
 30
0.0
 40
1.6933333333333334
100
AcDbArc
 50
90.0000000000000142
 51
180.0
  0
ARC
  5
41B
100
AcDbEntity
  8
layer 1
 62
256
370
9
 48
1.0
  6
BYLAYER
100
AcDbCircle
 10
10.7666666666667084
 20
110.3706666666666223
 30
0.0
 40
1.6933333333333334
100
AcDbArc
 50
90.0000000000000142
 51
180.0
  0
ARC
  5
41C
100
AcDbEntity
  8
layer 1
 62
256
370
9
 48
1.0
  6
BYLAYER
100
AcDbCircle
 10
10.7666666666667084
 20
174.3706666666666365
 30
0.0
 40
1.6933333333333334
100
AcDbArc
 50
90.0000000000000142
 51
180.0
  0
ARC
  5
41D
100
AcDbEntity
  8
layer 1
 62
256
370
9
 48
1.0
  6
BYLAYER
100
AcDbCircle
 10
10.7666666666667084
 20
239.3706666666666365
 30
0.0
 40
1.6933333333333334
100
AcDbArc
 50
90.0000000000000142
 51
180.0
  0
ARC
  5
41E
100
AcDbEntity
  8
layer 1
 62
256
370
9
 48
1.0
  6
BYLAYER
100
AcDbCircle
 10
74.7666666666667084
 20
45.3706666666666223
 30
0.0
 40
1.6933333333333334
100
AcDbArc
 50
90.0000000000000142
 51
180.0
  0
ARC
  5
41F
100
AcDbEntity
  8
layer 1
 62
256
370
9
 48
1.0
  6
BYLAYER
100
AcDbCircle
 10
74.7666666666667084
 20
110.3706666666666223
 30
0.0
 40
1.6933333333333334
100
AcDbArc
 50
90.0000000000000142
 51
180.0
  0
ARC
  5
420
100
AcDbEntity
  8
layer 1
 62
256
370
9
 48
1.0
  6
BYLAYER
100
AcDbCircle
 10
74.7666666666667084
 20
174.3706666666666365
 30
0.0
 40
1.6933333333333334
100
AcDbArc
 50
90.0000000000000142
 51
180.0
  0
ARC
  5
421
100
AcDbEntity
  8
layer 1
 62
256
370
9
 48
1.0
  6
BYLAYER
100
AcDbCircle
 10
74.7666666666667084
 20
239.3706666666666365
 30
0.0
 40
1.6933333333333334
100
AcDbArc
 50
90.0000000000000142
 51
180.0
  0
ARC
  5
422
100
AcDbEntity
  8
layer 1
 62
256
370
9
 48
1.0
  6
BYLAYER
100
AcDbCircle
 10
10.7666666666667084
 20
45.3706666666666223
 30
0.0
 40
1.6933333333333334
100
AcDbArc
 50
180.0
 51
270.0
  0
ARC
  5
423
100
AcDbEntity
  8
layer 1
 62
256
370
9
 48
1.0
  6
BYLAYER
100
AcDbCircle
 10
10.7666666666667084
 20
110.3706666666666223
 30
0.0
 40
1.6933333333333334
100
AcDbArc
 50
180.0
 51
270.0
  0
ARC
  5
424
100
AcDbEntity
  8
layer 1
 62
256
370
9
 48
1.0
  6
BYLAYER
100
AcDbCircle
 10
10.7666666666667084
 20
174.3706666666666365
 30
0.0
 40
1.6933333333333334
100
AcDbArc
 50
180.0
 51
270.0
  0
ARC
  5
425
100
AcDbEntity
  8
layer 1
 62
256
370
9
 48
1.0
  6
BYLAYER
100
AcDbCircle
 10
10.7666666666667084
 20
239.3706666666666365
 30
0.0
 40
1.6933333333333334
100
AcDbArc
 50
180.0
 51
270.0
  0
ARC
  5
426
100
AcDbEntity
  8
layer 1
 62
256
370
9
 48
1.0
  6
BYLAYER
100
AcDbCircle
 10
74.7666666666667084
 20
45.3706666666666223
 30
0.0
 40
1.6933333333333334
100
AcDbArc
 50
180.0
 51
270.0
  0
ARC
  5
427
100
AcDbEntity
  8
layer 1
 62
256
370
9
 48
1.0
  6
BYLAYER
100
AcDbCircle
 10
74.7666666666667084
 20
110.3706666666666223
 30
0.0
 40
1.6933333333333334
100
AcDbArc
 50
180.0
 51
270.0
  0
ARC
  5
428
100
AcDbEntity
  8
layer 1
 62
256
370
9
 48
1.0
  6
BYLAYER
100
AcDbCircle
 10
74.7666666666667084
 20
174.3706666666666365
 30
0.0
 40
1.6933333333333334
100
AcDbArc
 50
180.0
 51
270.0
  0
ARC
  5
429
100
AcDbEntity
  8
layer 1
 62
256
370
9
 48
1.0
  6
BYLAYER
100
AcDbCircle
 10
74.7666666666667084
 20
239.3706666666666365
 30
0.0
 40
1.6933333333333334
100
AcDbArc
 50
180.0
 51
270.0
  0
ARC
  5
42A
100
AcDbEntity
  8
layer 1
 62
256
370
9
 48
1.0
  6
BYLAYER
100
AcDbCircle
 10
10.7666666666667084
 20
45.3706666666666223
 30
0.0
 40
1.6933333333333334
100
AcDbArc
 50
270.0
 51
0.0
  0
ARC
  5
42B
100
AcDbEntity
  8
layer 1
 62
256
370
9
 48
1.0
  6
BYLAYER
100
AcDbCircle
 10
10.7666666666667084
 20
110.3706666666666223
 30
0.0
 40
1.6933333333333334
100
AcDbArc
 50
270.0
 51
0.0
  0
ARC
  5
42C
100
AcDbEntity
  8
layer 1
 62
256
370
9
 48
1.0
  6
BYLAYER
100
AcDbCircle
 10
10.7666666666667084
 20
174.3706666666666365
 30
0.0
 40
1.6933333333333334
100
AcDbArc
 50
270.0
 51
0.0
  0
ARC
  5
42D
100
AcDbEntity
  8
layer 1
 62
256
370
9
 48
1.0
  6
BYLAYER
100
AcDbCircle
 10
10.7666666666667084
 20
239.3706666666666365
 30
0.0
 40
1.6933333333333334
100
AcDbArc
 50
270.0
 51
0.0
  0
ARC
  5
42E
100
AcDbEntity
  8
layer 1
 62
256
370
9
 48
1.0
  6
BYLAYER
100
AcDbCircle
 10
74.7666666666667084
 20
45.3706666666666223
 30
0.0
 40
1.6933333333333334
100
AcDbArc
 50
270.0
 51
0.0
  0
ARC
  5
42F
100
AcDbEntity
  8
layer 1
 62
256
370
9
 48
1.0
  6
BYLAYER
100
AcDbCircle
 10
74.7666666666667084
 20
110.3706666666666223
 30
0.0
 40
1.6933333333333334
100
AcDbArc
 50
270.0
 51
0.0
  0
ARC
  5
430
100
AcDbEntity
  8
layer 1
 62
256
370
9
 48
1.0
  6
BYLAYER
100
AcDbCircle
 10
74.7666666666667084
 20
174.3706666666666365
 30
0.0
 40
1.6933333333333334
100
AcDbArc
 50
270.0
 51
0.0
  0
ARC
  5
431
100
AcDbEntity
  8
layer 1
 62
256
370
9
 48
1.0
  6
BYLAYER
100
AcDbCircle
 10
74.7666666666667084
 20
239.3706666666666365
 30
0.0
 40
1.6933333333333334
100
AcDbArc
 50
270.0
 51
0.0
  0
ARC
  5
432
100
AcDbEntity
  8
layer 1
 62
256
370
9
 48
1.0
  6
BYLAYER
100
AcDbCircle
 10
10.7671367709904757
 20
45.3711367709904323
 30
0.0
 40
1.69286329428301
100
AcDbArc
 50
359.984089090884595
 51
90.0159109091212741
  0
ARC
  5
433
100
AcDbEntity
  8
layer 1
 62
256
370
9
 48
1.0
  6
BYLAYER
100
AcDbCircle
 10
10.7671367709904757
 20
110.3711367709904323
 30
0.0
 40
1.69286329428301
100
AcDbArc
 50
359.984089090884595
 51
90.0159109091212741
  0
ARC
  5
434
100
AcDbEntity
  8
layer 1
 62
256
370
9
 48
1.0
  6
BYLAYER
100
AcDbCircle
 10
10.7671367709904757
 20
174.3711367709904323
 30
0.0
 40
1.69286329428301
100
AcDbArc
 50
359.984089090884595
 51
90.0159109091212741
  0
ARC
  5
435
100
AcDbEntity
  8
layer 1
 62
256
370
9
 48
1.0
  6
BYLAYER
100
AcDbCircle
 10
10.7671367709904757
 20
239.3711367709904323
 30
0.0
 40
1.69286329428301
100
AcDbArc
 50
359.984089090884595
 51
90.0159109091212741
  0
ARC
  5
436
100
AcDbEntity
  8
layer 1
 62
256
370
9
 48
1.0
  6
BYLAYER
100
AcDbCircle
 10
74.7671367709904757
 20
45.3711367709904323
 30
0.0
 40
1.69286329428301
100
AcDbArc
 50
359.984089090884595
 51
90.0159109091212741
  0
ARC
  5
437
100
AcDbEntity
  8
layer 1
 62
256
370
9
 48
1.0
  6
BYLAYER
100
AcDbCircle
 10
74.7671367709904757
 20
110.3711367709904323
 30
0.0
 40
1.69286329428301
100
AcDbArc
 50
359.984089090884595
 51
90.0159109091212741
  0
ARC
  5
438
100
AcDbEntity
  8
layer 1
 62
256
370
9
 48
1.0
  6
BYLAYER
100
AcDbCircle
 10
74.7671367709904757
 20
174.3711367709904323
 30
0.0
 40
1.69286329428301
100
AcDbArc
 50
359.984089090884595
 51
90.0159109091212741
  0
ARC
  5
439
100
AcDbEntity
  8
layer 1
 62
256
370
9
 48
1.0
  6
BYLAYER
100
AcDbCircle
 10
74.7671367709904757
 20
239.3711367709904323
 30
0.0
 40
1.69286329428301
100
AcDbArc
 50
359.984089090884595
 51
90.0159109091212741
  0
ARC
  5
43A
100
AcDbEntity
  8
layer 1
 62
256
370
9
 48
1.0
  6
BYLAYER
100
AcDbCircle
 10
19.2333333333333769
 20
45.7939999999999685
 30
0.0
 40
3.3866666666666667
100
AcDbArc
 50
0.0
 51
90.0000000000000142
  0
ARC
  5
43B
100
AcDbEntity
  8
layer 1
 62
256
370
9
 48
1.0
  6
BYLAYER
100
AcDbCircle
 10
19.2333333333333769
 20
110.7939999999999685
 30
0.0
 40
3.3866666666666667
100
AcDbArc
 50
0.0
 51
90.0000000000000142
  0
ARC
  5
43C
100
AcDbEntity
  8
layer 1
 62
256
370
9
 48
1.0
  6
BYLAYER
100
AcDbCircle
 10
19.2333333333333769
 20
174.7939999999999827
 30
0.0
 40
3.3866666666666667
100
AcDbArc
 50
0.0
 51
90.0000000000000142
  0
ARC
  5
43D
100
AcDbEntity
  8
layer 1
 62
256
370
9
 48
1.0
  6
BYLAYER
100
AcDbCircle
 10
19.2333333333333769
 20
239.7939999999999827
 30
0.0
 40
3.3866666666666667
100
AcDbArc
 50
0.0
 51
90.0000000000000142
  0
ARC
  5
43E
100
AcDbEntity
  8
layer 1
 62
256
370
9
 48
1.0
  6
BYLAYER
100
AcDbCircle
 10
83.2333333333333769
 20
45.7939999999999685
 30
0.0
 40
3.3866666666666667
100
AcDbArc
 50
0.0
 51
90.0000000000000142
  0
ARC
  5
43F
100
AcDbEntity
  8
layer 1
 62
256
370
9
 48
1.0
  6
BYLAYER
100
AcDbCircle
 10
83.2333333333333769
 20
110.7939999999999685
 30
0.0
 40
3.3866666666666667
100
AcDbArc
 50
0.0
 51
90.0000000000000142
  0
ARC
  5
440
100
AcDbEntity
  8
layer 1
 62
256
370
9
 48
1.0
  6
BYLAYER
100
AcDbCircle
 10
83.2333333333333769
 20
174.7939999999999827
 30
0.0
 40
3.3866666666666667
100
AcDbArc
 50
0.0
 51
90.0000000000000142
  0
ARC
  5
441
100
AcDbEntity
  8
layer 1
 62
256
370
9
 48
1.0
  6
BYLAYER
100
AcDbCircle
 10
83.2333333333333769
 20
239.7939999999999827
 30
0.0
 40
3.3866666666666667
100
AcDbArc
 50
0.0
 51
90.0000000000000142
  0
ARC
  5
442
100
AcDbEntity
  8
layer 1
 62
256
370
9
 48
1.0
  6
BYLAYER
100
AcDbCircle
 10
19.2333333333333769
 20
45.7939999999999685
 30
0.0
 40
3.3866666666666667
100
AcDbArc
 50
270.0
 51
0.0
  0
ARC
  5
443
100
AcDbEntity
  8
layer 1
 62
256
370
9
 48
1.0
  6
BYLAYER
100
AcDbCircle
 10
19.2333333333333769
 20
110.7939999999999685
 30
0.0
 40
3.3866666666666667
100
AcDbArc
 50
270.0
 51
0.0
  0
ARC
  5
444
100
AcDbEntity
  8
layer 1
 62
256
370
9
 48
1.0
  6
BYLAYER
100
AcDbCircle
 10
19.2333333333333769
 20
174.7939999999999827
 30
0.0
 40
3.3866666666666667
100
AcDbArc
 50
270.0
 51
0.0
  0
ARC
  5
445
100
AcDbEntity
  8
layer 1
 62
256
370
9
 48
1.0
  6
BYLAYER
100
AcDbCircle
 10
19.2333333333333769
 20
239.7939999999999827
 30
0.0
 40
3.3866666666666667
100
AcDbArc
 50
270.0
 51
0.0
  0
ARC
  5
446
100
AcDbEntity
  8
layer 1
 62
256
370
9
 48
1.0
  6
BYLAYER
100
AcDbCircle
 10
83.2333333333333769
 20
45.7939999999999685
 30
0.0
 40
3.3866666666666667
100
AcDbArc
 50
270.0
 51
0.0
  0
ARC
  5
447
100
AcDbEntity
  8
layer 1
 62
256
370
9
 48
1.0
  6
BYLAYER
100
AcDbCircle
 10
83.2333333333333769
 20
110.7939999999999685
 30
0.0
 40
3.3866666666666667
100
AcDbArc
 50
270.0
 51
0.0
  0
ARC
  5
448
100
AcDbEntity
  8
layer 1
 62
256
370
9
 48
1.0
  6
BYLAYER
100
AcDbCircle
 10
83.2333333333333769
 20
174.7939999999999827
 30
0.0
 40
3.3866666666666667
100
AcDbArc
 50
270.0
 51
0.0
  0
ARC
  5
449
100
AcDbEntity
  8
layer 1
 62
256
370
9
 48
1.0
  6
BYLAYER
100
AcDbCircle
 10
83.2333333333333769
 20
239.7939999999999827
 30
0.0
 40
3.3866666666666667
100
AcDbArc
 50
270.0
 51
0.0
  0
ARC
  5
44A
100
AcDbEntity
  8
layer 1
 62
256
370
9
 48
1.0
  6
BYLAYER
100
AcDbCircle
 10
19.2333333333333769
 20
45.7939999999999685
 30
0.0
 40
3.3866666666666667
100
AcDbArc
 50
180.0
 51
270.0
  0
ARC
  5
44B
100
AcDbEntity
  8
layer 1
 62
256
370
9
 48
1.0
  6
BYLAYER
100
AcDbCircle
 10
19.2333333333333769
 20
110.7939999999999685
 30
0.0
 40
3.3866666666666667
100
AcDbArc
 50
180.0
 51
270.0
  0
ARC
  5
44C
100
AcDbEntity
  8
layer 1
 62
256
370
9
 48
1.0
  6
BYLAYER
100
AcDbCircle
 10
19.2333333333333769
 20
174.7939999999999827
 30
0.0
 40
3.3866666666666667
100
AcDbArc
 50
180.0
 51
270.0
  0
ARC
  5
44D
100
AcDbEntity
  8
layer 1
 62
256
370
9
 48
1.0
  6
BYLAYER
100
AcDbCircle
 10
19.2333333333333769
 20
239.7939999999999827
 30
0.0
 40
3.3866666666666667
100
AcDbArc
 50
180.0
 51
270.0
  0
ARC
  5
44E
100
AcDbEntity
  8
layer 1
 62
256
370
9
 48
1.0
  6
BYLAYER
100
AcDbCircle
 10
83.2333333333333769
 20
45.7939999999999685
 30
0.0
 40
3.3866666666666667
100
AcDbArc
 50
180.0
 51
270.0
  0
ARC
  5
44F
100
AcDbEntity
  8
layer 1
 62
256
370
9
 48
1.0
  6
BYLAYER
100
AcDbCircle
 10
83.2333333333333769
 20
110.7939999999999685
 30
0.0
 40
3.3866666666666667
100
AcDbArc
 50
180.0
 51
270.0
  0
ARC
  5
450
100
AcDbEntity
  8
layer 1
 62
256
370
9
 48
1.0
  6
BYLAYER
100
AcDbCircle
 10
83.2333333333333769
 20
174.7939999999999827
 30
0.0
 40
3.3866666666666667
100
AcDbArc
 50
180.0
 51
270.0
  0
ARC
  5
451
100
AcDbEntity
  8
layer 1
 62
256
370
9
 48
1.0
  6
BYLAYER
100
AcDbCircle
 10
83.2333333333333769
 20
239.7939999999999827
 30
0.0
 40
3.3866666666666667
100
AcDbArc
 50
180.0
 51
270.0
  0
ARC
  5
452
100
AcDbEntity
  8
layer 1
 62
256
370
9
 48
1.0
  6
BYLAYER
100
AcDbCircle
 10
19.2333333333333769
 20
45.7939999999999685
 30
0.0
 40
3.3866666666666667
100
AcDbArc
 50
90.0000000000000142
 51
180.0
  0
ARC
  5
453
100
AcDbEntity
  8
layer 1
 62
256
370
9
 48
1.0
  6
BYLAYER
100
AcDbCircle
 10
19.2333333333333769
 20
110.7939999999999685
 30
0.0
 40
3.3866666666666667
100
AcDbArc
 50
90.0000000000000142
 51
180.0
  0
ARC
  5
454
100
AcDbEntity
  8
layer 1
 62
256
370
9
 48
1.0
  6
BYLAYER
100
AcDbCircle
 10
19.2333333333333769
 20
174.7939999999999827
 30
0.0
 40
3.3866666666666667
100
AcDbArc
 50
90.0000000000000142
 51
180.0
  0
ARC
  5
455
100
AcDbEntity
  8
layer 1
 62
256
370
9
 48
1.0
  6
BYLAYER
100
AcDbCircle
 10
19.2333333333333769
 20
239.7939999999999827
 30
0.0
 40
3.3866666666666667
100
AcDbArc
 50
90.0000000000000142
 51
180.0
  0
ARC
  5
456
100
AcDbEntity
  8
layer 1
 62
256
370
9
 48
1.0
  6
BYLAYER
100
AcDbCircle
 10
83.2333333333333769
 20
45.7939999999999685
 30
0.0
 40
3.3866666666666667
100
AcDbArc
 50
90.0000000000000142
 51
180.0
  0
ARC
  5
457
100
AcDbEntity
  8
layer 1
 62
256
370
9
 48
1.0
  6
BYLAYER
100
AcDbCircle
 10
83.2333333333333769
 20
110.7939999999999685
 30
0.0
 40
3.3866666666666667
100
AcDbArc
 50
90.0000000000000142
 51
180.0
  0
ARC
  5
458
100
AcDbEntity
  8
layer 1
 62
256
370
9
 48
1.0
  6
BYLAYER
100
AcDbCircle
 10
83.2333333333333769
 20
174.7939999999999827
 30
0.0
 40
3.3866666666666667
100
AcDbArc
 50
90.0000000000000142
 51
180.0
  0
ARC
  5
459
100
AcDbEntity
  8
layer 1
 62
256
370
9
 48
1.0
  6
BYLAYER
100
AcDbCircle
 10
83.2333333333333769
 20
239.7939999999999827
 30
0.0
 40
3.3866666666666667
100
AcDbArc
 50
90.0000000000000142
 51
180.0
  0
ARC
  5
45A
100
AcDbEntity
  8
layer 1
 62
256
370
9
 48
1.0
  6
BYLAYER
100
AcDbCircle
 10
10.7666666666667084
 20
45.7939999999999685
 30
0.0
 40
3.3866666666666667
100
AcDbArc
 50
0.0
 51
90.0000000000000142
  0
ARC
  5
45B
100
AcDbEntity
  8
layer 1
 62
256
370
9
 48
1.0
  6
BYLAYER
100
AcDbCircle
 10
10.7666666666667084
 20
110.7939999999999685
 30
0.0
 40
3.3866666666666667
100
AcDbArc
 50
0.0
 51
90.0000000000000142
  0
ARC
  5
45C
100
AcDbEntity
  8
layer 1
 62
256
370
9
 48
1.0
  6
BYLAYER
100
AcDbCircle
 10
10.7666666666667084
 20
174.7939999999999827
 30
0.0
 40
3.3866666666666667
100
AcDbArc
 50
0.0
 51
90.0000000000000142
  0
ARC
  5
45D
100
AcDbEntity
  8
layer 1
 62
256
370
9
 48
1.0
  6
BYLAYER
100
AcDbCircle
 10
10.7666666666667084
 20
239.7939999999999827
 30
0.0
 40
3.3866666666666667
100
AcDbArc
 50
0.0
 51
90.0000000000000142
  0
ARC
  5
45E
100
AcDbEntity
  8
layer 1
 62
256
370
9
 48
1.0
  6
BYLAYER
100
AcDbCircle
 10
74.7666666666667084
 20
45.7939999999999685
 30
0.0
 40
3.3866666666666667
100
AcDbArc
 50
0.0
 51
90.0000000000000142
  0
ARC
  5
45F
100
AcDbEntity
  8
layer 1
 62
256
370
9
 48
1.0
  6
BYLAYER
100
AcDbCircle
 10
74.7666666666667084
 20
110.7939999999999685
 30
0.0
 40
3.3866666666666667
100
AcDbArc
 50
0.0
 51
90.0000000000000142
  0
ARC
  5
460
100
AcDbEntity
  8
layer 1
 62
256
370
9
 48
1.0
  6
BYLAYER
100
AcDbCircle
 10
74.7666666666667084
 20
174.7939999999999827
 30
0.0
 40
3.3866666666666667
100
AcDbArc
 50
0.0
 51
90.0000000000000142
  0
ARC
  5
461
100
AcDbEntity
  8
layer 1
 62
256
370
9
 48
1.0
  6
BYLAYER
100
AcDbCircle
 10
74.7666666666667084
 20
239.7939999999999827
 30
0.0
 40
3.3866666666666667
100
AcDbArc
 50
0.0
 51
90.0000000000000142
  0
ARC
  5
462
100
AcDbEntity
  8
layer 1
 62
256
370
9
 48
1.0
  6
BYLAYER
100
AcDbCircle
 10
10.7666666666667084
 20
45.7939999999999685
 30
0.0
 40
3.3866666666666667
100
AcDbArc
 50
270.0
 51
0.0
  0
ARC
  5
463
100
AcDbEntity
  8
layer 1
 62
256
370
9
 48
1.0
  6
BYLAYER
100
AcDbCircle
 10
10.7666666666667084
 20
110.7939999999999685
 30
0.0
 40
3.3866666666666667
100
AcDbArc
 50
270.0
 51
0.0
  0
ARC
  5
464
100
AcDbEntity
  8
layer 1
 62
256
370
9
 48
1.0
  6
BYLAYER
100
AcDbCircle
 10
10.7666666666667084
 20
174.7939999999999827
 30
0.0
 40
3.3866666666666667
100
AcDbArc
 50
270.0
 51
0.0
  0
ARC
  5
465
100
AcDbEntity
  8
layer 1
 62
256
370
9
 48
1.0
  6
BYLAYER
100
AcDbCircle
 10
10.7666666666667084
 20
239.7939999999999827
 30
0.0
 40
3.3866666666666667
100
AcDbArc
 50
270.0
 51
0.0
  0
ARC
  5
466
100
AcDbEntity
  8
layer 1
 62
256
370
9
 48
1.0
  6
BYLAYER
100
AcDbCircle
 10
74.7666666666667084
 20
45.7939999999999685
 30
0.0
 40
3.3866666666666667
100
AcDbArc
 50
270.0
 51
0.0
  0
ARC
  5
467
100
AcDbEntity
  8
layer 1
 62
256
370
9
 48
1.0
  6
BYLAYER
100
AcDbCircle
 10
74.7666666666667084
 20
110.7939999999999685
 30
0.0
 40
3.3866666666666667
100
AcDbArc
 50
270.0
 51
0.0
  0
ARC
  5
468
100
AcDbEntity
  8
layer 1
 62
256
370
9
 48
1.0
  6
BYLAYER
100
AcDbCircle
 10
74.7666666666667084
 20
174.7939999999999827
 30
0.0
 40
3.3866666666666667
100
AcDbArc
 50
270.0
 51
0.0
  0
ARC
  5
469
100
AcDbEntity
  8
layer 1
 62
256
370
9
 48
1.0
  6
BYLAYER
100
AcDbCircle
 10
74.7666666666667084
 20
239.7939999999999827
 30
0.0
 40
3.3866666666666667
100
AcDbArc
 50
270.0
 51
0.0
  0
ARC
  5
46A
100
AcDbEntity
  8
layer 1
 62
256
370
9
 48
1.0
  6
BYLAYER
100
AcDbCircle
 10
10.7666666666667084
 20
45.7939999999999685
 30
0.0
 40
3.3866666666666667
100
AcDbArc
 50
180.0
 51
270.0
  0
ARC
  5
46B
100
AcDbEntity
  8
layer 1
 62
256
370
9
 48
1.0
  6
BYLAYER
100
AcDbCircle
 10
10.7666666666667084
 20
110.7939999999999685
 30
0.0
 40
3.3866666666666667
100
AcDbArc
 50
180.0
 51
270.0
  0
ARC
  5
46C
100
AcDbEntity
  8
layer 1
 62
256
370
9
 48
1.0
  6
BYLAYER
100
AcDbCircle
 10
10.7666666666667084
 20
174.7939999999999827
 30
0.0
 40
3.3866666666666667
100
AcDbArc
 50
180.0
 51
270.0
  0
ARC
  5
46D
100
AcDbEntity
  8
layer 1
 62
256
370
9
 48
1.0
  6
BYLAYER
100
AcDbCircle
 10
10.7666666666667084
 20
239.7939999999999827
 30
0.0
 40
3.3866666666666667
100
AcDbArc
 50
180.0
 51
270.0
  0
ARC
  5
46E
100
AcDbEntity
  8
layer 1
 62
256
370
9
 48
1.0
  6
BYLAYER
100
AcDbCircle
 10
74.7666666666667084
 20
45.7939999999999685
 30
0.0
 40
3.3866666666666667
100
AcDbArc
 50
180.0
 51
270.0
  0
ARC
  5
46F
100
AcDbEntity
  8
layer 1
 62
256
370
9
 48
1.0
  6
BYLAYER
100
AcDbCircle
 10
74.7666666666667084
 20
110.7939999999999685
 30
0.0
 40
3.3866666666666667
100
AcDbArc
 50
180.0
 51
270.0
  0
ARC
  5
470
100
AcDbEntity
  8
layer 1
 62
256
370
9
 48
1.0
  6
BYLAYER
100
AcDbCircle
 10
74.7666666666667084
 20
174.7939999999999827
 30
0.0
 40
3.3866666666666667
100
AcDbArc
 50
180.0
 51
270.0
  0
ARC
  5
471
100
AcDbEntity
  8
layer 1
 62
256
370
9
 48
1.0
  6
BYLAYER
100
AcDbCircle
 10
74.7666666666667084
 20
239.7939999999999827
 30
0.0
 40
3.3866666666666667
100
AcDbArc
 50
180.0
 51
270.0
  0
ARC
  5
472
100
AcDbEntity
  8
layer 1
 62
256
370
9
 48
1.0
  6
BYLAYER
100
AcDbCircle
 10
10.7666666666667084
 20
45.7939999999999685
 30
0.0
 40
3.3866666666666667
100
AcDbArc
 50
90.0000000000000142
 51
180.0
  0
ARC
  5
473
100
AcDbEntity
  8
layer 1
 62
256
370
9
 48
1.0
  6
BYLAYER
100
AcDbCircle
 10
10.7666666666667084
 20
110.7939999999999685
 30
0.0
 40
3.3866666666666667
100
AcDbArc
 50
90.0000000000000142
 51
180.0
  0
ARC
  5
474
100
AcDbEntity
  8
layer 1
 62
256
370
9
 48
1.0
  6
BYLAYER
100
AcDbCircle
 10
10.7666666666667084
 20
174.7939999999999827
 30
0.0
 40
3.3866666666666667
100
AcDbArc
 50
90.0000000000000142
 51
180.0
  0
ARC
  5
475
100
AcDbEntity
  8
layer 1
 62
256
370
9
 48
1.0
  6
BYLAYER
100
AcDbCircle
 10
10.7666666666667084
 20
239.7939999999999827
 30
0.0
 40
3.3866666666666667
100
AcDbArc
 50
90.0000000000000142
 51
180.0
  0
ARC
  5
476
100
AcDbEntity
  8
layer 1
 62
256
370
9
 48
1.0
  6
BYLAYER
100
AcDbCircle
 10
74.7666666666667084
 20
45.7939999999999685
 30
0.0
 40
3.3866666666666667
100
AcDbArc
 50
90.0000000000000142
 51
180.0
  0
ARC
  5
477
100
AcDbEntity
  8
layer 1
 62
256
370
9
 48
1.0
  6
BYLAYER
100
AcDbCircle
 10
74.7666666666667084
 20
110.7939999999999685
 30
0.0
 40
3.3866666666666667
100
AcDbArc
 50
90.0000000000000142
 51
180.0
  0
ARC
  5
478
100
AcDbEntity
  8
layer 1
 62
256
370
9
 48
1.0
  6
BYLAYER
100
AcDbCircle
 10
74.7666666666667084
 20
174.7939999999999827
 30
0.0
 40
3.3866666666666667
100
AcDbArc
 50
90.0000000000000142
 51
180.0
  0
ARC
  5
479
100
AcDbEntity
  8
layer 1
 62
256
370
9
 48
1.0
  6
BYLAYER
100
AcDbCircle
 10
74.7666666666667084
 20
239.7939999999999827
 30
0.0
 40
3.3866666666666667
100
AcDbArc
 50
90.0000000000000142
 51
180.0
  0
SPLINE
  5
47A
100
AcDbEntity
  8
layer 1
 62
256
370
9
 48
1.0
  6
BYLAYER
100
AcDbSpline
 70
8
 71
3
 72
8
 73
4
 74
0
 40
0.0
 40
0.0
 40
0.0
 40
0.0
 40
1.0
 40
1.0
 40
1.0
 40
1.0
 10
6.736533333333341
 20
55.6999999999999886
 30
0.0
 10
8.2266666666667163
 20
52.5673333333332948
 30
0.0
 10
7.1514000000000237
 20
50.2305333333333124
 30
0.0
 10
6.1523333333333881
 20
47.910666666666657
 30
0.0
  0
SPLINE
  5
47B
100
AcDbEntity
  8
layer 1
 62
256
370
9
 48
1.0
  6
BYLAYER
100
AcDbSpline
 70
8
 71
3
 72
8
 73
4
 74
0
 40
0.0
 40
0.0
 40
0.0
 40
0.0
 40
1.0
 40
1.0
 40
1.0
 40
1.0
 10
6.736533333333341
 20
120.6999999999999886
 30
0.0
 10
8.2266666666667163
 20
117.5673333333332948
 30
0.0
 10
7.1514000000000237
 20
115.2305333333333124
 30
0.0
 10
6.1523333333333881
 20
112.910666666666657
 30
0.0
  0
SPLINE
  5
47C
100
AcDbEntity
  8
layer 1
 62
256
370
9
 48
1.0
  6
BYLAYER
100
AcDbSpline
 70
8
 71
3
 72
8
 73
4
 74
0
 40
0.0
 40
0.0
 40
0.0
 40
0.0
 40
1.0
 40
1.0
 40
1.0
 40
1.0
 10
6.736533333333341
 20
184.6999999999999886
 30
0.0
 10
8.2266666666667163
 20
181.5673333333332948
 30
0.0
 10
7.1514000000000237
 20
179.2305333333333124
 30
0.0
 10
6.1523333333333881
 20
176.910666666666657
 30
0.0
  0
SPLINE
  5
47D
100
AcDbEntity
  8
layer 1
 62
256
370
9
 48
1.0
  6
BYLAYER
100
AcDbSpline
 70
8
 71
3
 72
8
 73
4
 74
0
 40
0.0
 40
0.0
 40
0.0
 40
0.0
 40
1.0
 40
1.0
 40
1.0
 40
1.0
 10
6.736533333333341
 20
249.6999999999999886
 30
0.0
 10
8.2266666666667163
 20
246.5673333333332948
 30
0.0
 10
7.1514000000000237
 20
244.2305333333333124
 30
0.0
 10
6.1523333333333881
 20
241.910666666666657
 30
0.0
  0
SPLINE
  5
47E
100
AcDbEntity
  8
layer 1
 62
256
370
9
 48
1.0
  6
BYLAYER
100
AcDbSpline
 70
8
 71
3
 72
8
 73
4
 74
0
 40
0.0
 40
0.0
 40
0.0
 40
0.0
 40
1.0
 40
1.0
 40
1.0
 40
1.0
 10
70.736533333333341
 20
55.6999999999999886
 30
0.0
 10
72.2266666666667163
 20
52.5673333333332948
 30
0.0
 10
71.1514000000000237
 20
50.2305333333333124
 30
0.0
 10
70.1523333333333881
 20
47.910666666666657
 30
0.0
  0
SPLINE
  5
47F
100
AcDbEntity
  8
layer 1
 62
256
370
9
 48
1.0
  6
BYLAYER
100
AcDbSpline
 70
8
 71
3
 72
8
 73
4
 74
0
 40
0.0
 40
0.0
 40
0.0
 40
0.0
 40
1.0
 40
1.0
 40
1.0
 40
1.0
 10
70.736533333333341
 20
120.6999999999999886
 30
0.0
 10
72.2266666666667163
 20
117.5673333333332948
 30
0.0
 10
71.1514000000000237
 20
115.2305333333333124
 30
0.0
 10
70.1523333333333881
 20
112.910666666666657
 30
0.0
  0
SPLINE
  5
480
100
AcDbEntity
  8
layer 1
 62
256
370
9
 48
1.0
  6
BYLAYER
100
AcDbSpline
 70
8
 71
3
 72
8
 73
4
 74
0
 40
0.0
 40
0.0
 40
0.0
 40
0.0
 40
1.0
 40
1.0
 40
1.0
 40
1.0
 10
70.736533333333341
 20
184.6999999999999886
 30
0.0
 10
72.2266666666667163
 20
181.5673333333332948
 30
0.0
 10
71.1514000000000237
 20
179.2305333333333124
 30
0.0
 10
70.1523333333333881
 20
176.910666666666657
 30
0.0
  0
SPLINE
  5
481
100
AcDbEntity
  8
layer 1
 62
256
370
9
 48
1.0
  6
BYLAYER
100
AcDbSpline
 70
8
 71
3
 72
8
 73
4
 74
0
 40
0.0
 40
0.0
 40
0.0
 40
0.0
 40
1.0
 40
1.0
 40
1.0
 40
1.0
 10
70.736533333333341
 20
249.6999999999999886
 30
0.0
 10
72.2266666666667163
 20
246.5673333333332948
 30
0.0
 10
71.1514000000000237
 20
244.2305333333333124
 30
0.0
 10
70.1523333333333881
 20
241.910666666666657
 30
0.0
  0
ARC
  5
482
100
AcDbEntity
  8
layer 1
 62
256
370
9
 48
1.0
  6
BYLAYER
100
AcDbCircle
 10
10.7887307834606361
 20
45.7811025609719877
 30
0.0
 40
5.1020804183989465
100
AcDbArc
 50
155.3299998645055382
 51
179.8551630806959452
  0
ARC
  5
483
100
AcDbEntity
  8
layer 1
 62
256
370
9
 48
1.0
  6
BYLAYER
100
AcDbCircle
 10
10.7887307834606361
 20
110.7811025609719877
 30
0.0
 40
5.1020804183989465
100
AcDbArc
 50
155.3299998645055382
 51
179.8551630806959452
  0
ARC
  5
484
100
AcDbEntity
  8
layer 1
 62
256
370
9
 48
1.0
  6
BYLAYER
100
AcDbCircle
 10
10.7887307834606361
 20
174.7811025609719877
 30
0.0
 40
5.1020804183989465
100
AcDbArc
 50
155.3299998645055382
 51
179.8551630806959452
  0
ARC
  5
485
100
AcDbEntity
  8
layer 1
 62
256
370
9
 48
1.0
  6
BYLAYER
100
AcDbCircle
 10
10.7887307834606361
 20
239.7811025609719877
 30
0.0
 40
5.1020804183989465
100
AcDbArc
 50
155.3299998645055382
 51
179.8551630806959452
  0
ARC
  5
486
100
AcDbEntity
  8
layer 1
 62
256
370
9
 48
1.0
  6
BYLAYER
100
AcDbCircle
 10
74.7887307834606361
 20
45.7811025609719877
 30
0.0
 40
5.1020804183989465
100
AcDbArc
 50
155.3299998645055382
 51
179.8551630806959452
  0
ARC
  5
487
100
AcDbEntity
  8
layer 1
 62
256
370
9
 48
1.0
  6
BYLAYER
100
AcDbCircle
 10
74.7887307834606361
 20
110.7811025609719877
 30
0.0
 40
5.1020804183989465
100
AcDbArc
 50
155.3299998645055382
 51
179.8551630806959452
  0
ARC
  5
488
100
AcDbEntity
  8
layer 1
 62
256
370
9
 48
1.0
  6
BYLAYER
100
AcDbCircle
 10
74.7887307834606361
 20
174.7811025609719877
 30
0.0
 40
5.1020804183989465
100
AcDbArc
 50
155.3299998645055382
 51
179.8551630806959452
  0
ARC
  5
489
100
AcDbEntity
  8
layer 1
 62
256
370
9
 48
1.0
  6
BYLAYER
100
AcDbCircle
 10
74.7887307834606361
 20
239.7811025609719877
 30
0.0
 40
5.1020804183989465
100
AcDbArc
 50
155.3299998645055382
 51
179.8551630806959452
  0
ARC
  5
48A
100
AcDbEntity
  8
layer 1
 62
256
370
9
 48
1.0
  6
BYLAYER
100
AcDbCircle
 10
10.7666666666667084
 20
45.7939999999999685
 30
0.0
 40
5.0800000000000001
100
AcDbArc
 50
180.0
 51
270.0
  0
ARC
  5
48B
100
AcDbEntity
  8
layer 1
 62
256
370
9
 48
1.0
  6
BYLAYER
100
AcDbCircle
 10
10.7666666666667084
 20
110.7939999999999685
 30
0.0
 40
5.0800000000000001
100
AcDbArc
 50
180.0
 51
270.0
  0
ARC
  5
48C
100
AcDbEntity
  8
layer 1
 62
256
370
9
 48
1.0
  6
BYLAYER
100
AcDbCircle
 10
10.7666666666667084
 20
174.7939999999999827
 30
0.0
 40
5.0800000000000001
100
AcDbArc
 50
180.0
 51
270.0
  0
ARC
  5
48D
100
AcDbEntity
  8
layer 1
 62
256
370
9
 48
1.0
  6
BYLAYER
100
AcDbCircle
 10
10.7666666666667084
 20
239.7939999999999827
 30
0.0
 40
5.0800000000000001
100
AcDbArc
 50
180.0
 51
270.0
  0
ARC
  5
48E
100
AcDbEntity
  8
layer 1
 62
256
370
9
 48
1.0
  6
BYLAYER
100
AcDbCircle
 10
74.7666666666667084
 20
45.7939999999999685
 30
0.0
 40
5.0800000000000001
100
AcDbArc
 50
180.0
 51
270.0
  0
ARC
  5
48F
100
AcDbEntity
  8
layer 1
 62
256
370
9
 48
1.0
  6
BYLAYER
100
AcDbCircle
 10
74.7666666666667084
 20
110.7939999999999685
 30
0.0
 40
5.0800000000000001
100
AcDbArc
 50
180.0
 51
270.0
  0
ARC
  5
490
100
AcDbEntity
  8
layer 1
 62
256
370
9
 48
1.0
  6
BYLAYER
100
AcDbCircle
 10
74.7666666666667084
 20
174.7939999999999827
 30
0.0
 40
5.0800000000000001
100
AcDbArc
 50
180.0
 51
270.0
  0
ARC
  5
491
100
AcDbEntity
  8
layer 1
 62
256
370
9
 48
1.0
  6
BYLAYER
100
AcDbCircle
 10
74.7666666666667084
 20
239.7939999999999827
 30
0.0
 40
5.0800000000000001
100
AcDbArc
 50
180.0
 51
270.0
  0
ARC
  5
492
100
AcDbEntity
  8
layer 1
 62
256
370
9
 48
1.0
  6
BYLAYER
100
AcDbCircle
 10
10.5863188271605964
 20
46.3679694444430766
 30
0.0
 40
5.6568450413557141
100
AcDbArc
 50
271.8269762115662047
 51
277.2485688042472134
  0
ARC
  5
493
100
AcDbEntity
  8
layer 1
 62
256
370
9
 48
1.0
  6
BYLAYER
100
AcDbCircle
 10
10.5863188271605964
 20
111.3679694444430766
 30
0.0
 40
5.6568450413557141
100
AcDbArc
 50
271.8269762115662047
 51
277.2485688042472134
  0
ARC
  5
494
100
AcDbEntity
  8
layer 1
 62
256
370
9
 48
1.0
  6
BYLAYER
100
AcDbCircle
 10
10.5863188271605964
 20
175.3679694444430766
 30
0.0
 40
5.6568450413557141
100
AcDbArc
 50
271.8269762115662047
 51
277.2485688042472134
  0
ARC
  5
495
100
AcDbEntity
  8
layer 1
 62
256
370
9
 48
1.0
  6
BYLAYER
100
AcDbCircle
 10
10.5863188271605964
 20
240.3679694444430766
 30
0.0
 40
5.6568450413557141
100
AcDbArc
 50
271.8269762115662047
 51
277.2485688042472134
  0
ARC
  5
496
100
AcDbEntity
  8
layer 1
 62
256
370
9
 48
1.0
  6
BYLAYER
100
AcDbCircle
 10
74.5863188271605964
 20
46.3679694444430766
 30
0.0
 40
5.6568450413557141
100
AcDbArc
 50
271.8269762115662047
 51
277.2485688042472134
  0
ARC
  5
497
100
AcDbEntity
  8
layer 1
 62
256
370
9
 48
1.0
  6
BYLAYER
100
AcDbCircle
 10
74.5863188271605964
 20
111.3679694444430766
 30
0.0
 40
5.6568450413557141
100
AcDbArc
 50
271.8269762115662047
 51
277.2485688042472134
  0
ARC
  5
498
100
AcDbEntity
  8
layer 1
 62
256
370
9
 48
1.0
  6
BYLAYER
100
AcDbCircle
 10
74.5863188271605964
 20
175.3679694444430766
 30
0.0
 40
5.6568450413557141
100
AcDbArc
 50
271.8269762115662047
 51
277.2485688042472134
  0
ARC
  5
499
100
AcDbEntity
  8
layer 1
 62
256
370
9
 48
1.0
  6
BYLAYER
100
AcDbCircle
 10
74.5863188271605964
 20
240.3679694444430766
 30
0.0
 40
5.6568450413557141
100
AcDbArc
 50
271.8269762115662047
 51
277.2485688042472134
  0
LINE
  5
49A
100
AcDbEntity
  8
layer 1
 62
256
370
9
 48
1.0
  6
BYLAYER
100
AcDbLine
 10
11.3000666666666802
 20
40.756333333333302
 30
0.0
 11
13.8062000000000182
 21
38.250199999999964
 31
0.0
  0
LINE
  5
49B
100
AcDbEntity
  8
layer 1
 62
256
370
9
 48
1.0
  6
BYLAYER
100
AcDbLine
 10
11.3000666666666802
 20
105.756333333333302
 30
0.0
 11
13.8062000000000182
 21
103.250199999999964
 31
0.0
  0
LINE
  5
49C
100
AcDbEntity
  8
layer 1
 62
256
370
9
 48
1.0
  6
BYLAYER
100
AcDbLine
 10
11.3000666666666802
 20
169.7563333333333162
 30
0.0
 11
13.8062000000000182
 21
167.2501999999999498
 31
0.0
  0
LINE
  5
49D
100
AcDbEntity
  8
layer 1
 62
256
370
9
 48
1.0
  6
BYLAYER
100
AcDbLine
 10
11.3000666666666802
 20
234.7563333333333162
 30
0.0
 11
13.8062000000000182
 21
232.2501999999999498
 31
0.0
  0
LINE
  5
49E
100
AcDbEntity
  8
layer 1
 62
256
370
9
 48
1.0
  6
BYLAYER
100
AcDbLine
 10
75.3000666666666802
 20
40.756333333333302
 30
0.0
 11
77.8062000000000182
 21
38.250199999999964
 31
0.0
  0
LINE
  5
49F
100
AcDbEntity
  8
layer 1
 62
256
370
9
 48
1.0
  6
BYLAYER
100
AcDbLine
 10
75.3000666666666802
 20
105.756333333333302
 30
0.0
 11
77.8062000000000182
 21
103.250199999999964
 31
0.0
  0
LINE
  5
4A0
100
AcDbEntity
  8
layer 1
 62
256
370
9
 48
1.0
  6
BYLAYER
100
AcDbLine
 10
75.3000666666666802
 20
169.7563333333333162
 30
0.0
 11
77.8062000000000182
 21
167.2501999999999498
 31
0.0
  0
LINE
  5
4A1
100
AcDbEntity
  8
layer 1
 62
256
370
9
 48
1.0
  6
BYLAYER
100
AcDbLine
 10
75.3000666666666802
 20
234.7563333333333162
 30
0.0
 11
77.8062000000000182
 21
232.2501999999999498
 31
0.0
  0
LINE
  5
4A2
100
AcDbEntity
  8
layer 1
 62
256
370
9
 48
1.0
  6
BYLAYER
100
AcDbLine
 10
13.8062000000000182
 20
38.250199999999964
 30
0.0
 11
15.0
 21
37.0733333333333093
 31
0.0
  0
LINE
  5
4A3
100
AcDbEntity
  8
layer 1
 62
256
370
9
 48
1.0
  6
BYLAYER
100
AcDbLine
 10
13.8062000000000182
 20
103.250199999999964
 30
0.0
 11
15.0
 21
102.0733333333333093
 31
0.0
  0
LINE
  5
4A4
100
AcDbEntity
  8
layer 1
 62
256
370
9
 48
1.0
  6
BYLAYER
100
AcDbLine
 10
13.8062000000000182
 20
167.2501999999999498
 30
0.0
 11
15.0
 21
166.0733333333333235
 31
0.0
  0
LINE
  5
4A5
100
AcDbEntity
  8
layer 1
 62
256
370
9
 48
1.0
  6
BYLAYER
100
AcDbLine
 10
13.8062000000000182
 20
232.2501999999999498
 30
0.0
 11
15.0
 21
231.0733333333333235
 31
0.0
  0
LINE
  5
4A6
100
AcDbEntity
  8
layer 1
 62
256
370
9
 48
1.0
  6
BYLAYER
100
AcDbLine
 10
77.8062000000000182
 20
38.250199999999964
 30
0.0
 11
79.0
 21
37.0733333333333093
 31
0.0
  0
LINE
  5
4A7
100
AcDbEntity
  8
layer 1
 62
256
370
9
 48
1.0
  6
BYLAYER
100
AcDbLine
 10
77.8062000000000182
 20
103.250199999999964
 30
0.0
 11
79.0
 21
102.0733333333333093
 31
0.0
  0
LINE
  5
4A8
100
AcDbEntity
  8
layer 1
 62
256
370
9
 48
1.0
  6
BYLAYER
100
AcDbLine
 10
77.8062000000000182
 20
167.2501999999999498
 30
0.0
 11
79.0
 21
166.0733333333333235
 31
0.0
  0
LINE
  5
4A9
100
AcDbEntity
  8
layer 1
 62
256
370
9
 48
1.0
  6
BYLAYER
100
AcDbLine
 10
77.8062000000000182
 20
232.2501999999999498
 30
0.0
 11
79.0
 21
231.0733333333333235
 31
0.0
  0
LINE
  5
4AA
100
AcDbEntity
  8
layer 1
 62
256
370
9
 48
1.0
  6
BYLAYER
100
AcDbLine
 10
15.0
 20
37.0733333333333093
 30
0.0
 11
16.193800000000067
 21
38.250199999999964
 31
0.0
  0
LINE
  5
4AB
100
AcDbEntity
  8
layer 1
 62
256
370
9
 48
1.0
  6
BYLAYER
100
AcDbLine
 10
15.0
 20
102.0733333333333093
 30
0.0
 11
16.193800000000067
 21
103.250199999999964
 31
0.0
  0
LINE
  5
4AC
100
AcDbEntity
  8
layer 1
 62
256
370
9
 48
1.0
  6
BYLAYER
100
AcDbLine
 10
15.0
 20
166.0733333333333235
 30
0.0
 11
16.193800000000067
 21
167.2501999999999498
 31
0.0
  0
LINE
  5
4AD
100
AcDbEntity
  8
layer 1
 62
256
370
9
 48
1.0
  6
BYLAYER
100
AcDbLine
 10
15.0
 20
231.0733333333333235
 30
0.0
 11
16.193800000000067
 21
232.2501999999999498
 31
0.0
  0
LINE
  5
4AE
100
AcDbEntity
  8
layer 1
 62
256
370
9
 48
1.0
  6
BYLAYER
100
AcDbLine
 10
79.0
 20
37.0733333333333093
 30
0.0
 11
80.193800000000067
 21
38.250199999999964
 31
0.0
  0
LINE
  5
4AF
100
AcDbEntity
  8
layer 1
 62
256
370
9
 48
1.0
  6
BYLAYER
100
AcDbLine
 10
79.0
 20
102.0733333333333093
 30
0.0
 11
80.193800000000067
 21
103.250199999999964
 31
0.0
  0
LINE
  5
4B0
100
AcDbEntity
  8
layer 1
 62
256
370
9
 48
1.0
  6
BYLAYER
100
AcDbLine
 10
79.0
 20
166.0733333333333235
 30
0.0
 11
80.193800000000067
 21
167.2501999999999498
 31
0.0
  0
LINE
  5
4B1
100
AcDbEntity
  8
layer 1
 62
256
370
9
 48
1.0
  6
BYLAYER
100
AcDbLine
 10
79.0
 20
231.0733333333333235
 30
0.0
 11
80.193800000000067
 21
232.2501999999999498
 31
0.0
  0
LINE
  5
4B2
100
AcDbEntity
  8
layer 1
 62
256
370
9
 48
1.0
  6
BYLAYER
100
AcDbLine
 10
16.193800000000067
 20
38.250199999999964
 30
0.0
 11
18.699933333333405
 21
40.756333333333302
 31
0.0
  0
LINE
  5
4B3
100
AcDbEntity
  8
layer 1
 62
256
370
9
 48
1.0
  6
BYLAYER
100
AcDbLine
 10
16.193800000000067
 20
103.250199999999964
 30
0.0
 11
18.699933333333405
 21
105.756333333333302
 31
0.0
  0
LINE
  5
4B4
100
AcDbEntity
  8
layer 1
 62
256
370
9
 48
1.0
  6
BYLAYER
100
AcDbLine
 10
16.193800000000067
 20
167.2501999999999498
 30
0.0
 11
18.699933333333405
 21
169.7563333333333162
 31
0.0
  0
LINE
  5
4B5
100
AcDbEntity
  8
layer 1
 62
256
370
9
 48
1.0
  6
BYLAYER
100
AcDbLine
 10
16.193800000000067
 20
232.2501999999999498
 30
0.0
 11
18.699933333333405
 21
234.7563333333333162
 31
0.0
  0
LINE
  5
4B6
100
AcDbEntity
  8
layer 1
 62
256
370
9
 48
1.0
  6
BYLAYER
100
AcDbLine
 10
80.193800000000067
 20
38.250199999999964
 30
0.0
 11
82.699933333333405
 21
40.756333333333302
 31
0.0
  0
LINE
  5
4B7
100
AcDbEntity
  8
layer 1
 62
256
370
9
 48
1.0
  6
BYLAYER
100
AcDbLine
 10
80.193800000000067
 20
103.250199999999964
 30
0.0
 11
82.699933333333405
 21
105.756333333333302
 31
0.0
  0
LINE
  5
4B8
100
AcDbEntity
  8
layer 1
 62
256
370
9
 48
1.0
  6
BYLAYER
100
AcDbLine
 10
80.193800000000067
 20
167.2501999999999498
 30
0.0
 11
82.699933333333405
 21
169.7563333333333162
 31
0.0
  0
LINE
  5
4B9
100
AcDbEntity
  8
layer 1
 62
256
370
9
 48
1.0
  6
BYLAYER
100
AcDbLine
 10
80.193800000000067
 20
232.2501999999999498
 30
0.0
 11
82.699933333333405
 21
234.7563333333333162
 31
0.0
  0
ARC
  5
4BA
100
AcDbEntity
  8
layer 1
 62
256
370
9
 48
1.0
  6
BYLAYER
100
AcDbCircle
 10
19.4136811728394036
 20
46.3679694444426502
 30
0.0
 40
5.6568450413552815
100
AcDbArc
 50
262.7514311957523887
 51
268.173023788433909
  0
ARC
  5
4BB
100
AcDbEntity
  8
layer 1
 62
256
370
9
 48
1.0
  6
BYLAYER
100
AcDbCircle
 10
19.4136811728394036
 20
111.3679694444426502
 30
0.0
 40
5.6568450413552815
100
AcDbArc
 50
262.7514311957523887
 51
268.173023788433909
  0
ARC
  5
4BC
100
AcDbEntity
  8
layer 1
 62
256
370
9
 48
1.0
  6
BYLAYER
100
AcDbCircle
 10
19.4136811728394036
 20
175.3679694444426502
 30
0.0
 40
5.6568450413552815
100
AcDbArc
 50
262.7514311957523887
 51
268.173023788433909
  0
ARC
  5
4BD
100
AcDbEntity
  8
layer 1
 62
256
370
9
 48
1.0
  6
BYLAYER
100
AcDbCircle
 10
19.4136811728394036
 20
240.3679694444426502
 30
0.0
 40
5.6568450413552815
100
AcDbArc
 50
262.7514311957523887
 51
268.173023788433909
  0
ARC
  5
4BE
100
AcDbEntity
  8
layer 1
 62
256
370
9
 48
1.0
  6
BYLAYER
100
AcDbCircle
 10
83.4136811728394036
 20
46.3679694444426502
 30
0.0
 40
5.6568450413552815
100
AcDbArc
 50
262.7514311957523887
 51
268.173023788433909
  0
ARC
  5
4BF
100
AcDbEntity
  8
layer 1
 62
256
370
9
 48
1.0
  6
BYLAYER
100
AcDbCircle
 10
83.4136811728394036
 20
111.3679694444426502
 30
0.0
 40
5.6568450413552815
100
AcDbArc
 50
262.7514311957523887
 51
268.173023788433909
  0
ARC
  5
4C0
100
AcDbEntity
  8
layer 1
 62
256
370
9
 48
1.0
  6
BYLAYER
100
AcDbCircle
 10
83.4136811728394036
 20
175.3679694444426502
 30
0.0
 40
5.6568450413552815
100
AcDbArc
 50
262.7514311957523887
 51
268.173023788433909
  0
ARC
  5
4C1
100
AcDbEntity
  8
layer 1
 62
256
370
9
 48
1.0
  6
BYLAYER
100
AcDbCircle
 10
83.4136811728394036
 20
240.3679694444426502
 30
0.0
 40
5.6568450413552815
100
AcDbArc
 50
262.7514311957523887
 51
268.173023788433909
  0
ARC
  5
4C2
100
AcDbEntity
  8
layer 1
 62
256
370
9
 48
1.0
  6
BYLAYER
100
AcDbCircle
 10
19.2333333333333769
 20
45.7939999999999685
 30
0.0
 40
5.0800000000000001
100
AcDbArc
 50
270.0
 51
0.0
  0
ARC
  5
4C3
100
AcDbEntity
  8
layer 1
 62
256
370
9
 48
1.0
  6
BYLAYER
100
AcDbCircle
 10
19.2333333333333769
 20
110.7939999999999685
 30
0.0
 40
5.0800000000000001
100
AcDbArc
 50
270.0
 51
0.0
  0
ARC
  5
4C4
100
AcDbEntity
  8
layer 1
 62
256
370
9
 48
1.0
  6
BYLAYER
100
AcDbCircle
 10
19.2333333333333769
 20
174.7939999999999827
 30
0.0
 40
5.0800000000000001
100
AcDbArc
 50
270.0
 51
0.0
  0
ARC
  5
4C5
100
AcDbEntity
  8
layer 1
 62
256
370
9
 48
1.0
  6
BYLAYER
100
AcDbCircle
 10
19.2333333333333769
 20
239.7939999999999827
 30
0.0
 40
5.0800000000000001
100
AcDbArc
 50
270.0
 51
0.0
  0
ARC
  5
4C6
100
AcDbEntity
  8
layer 1
 62
256
370
9
 48
1.0
  6
BYLAYER
100
AcDbCircle
 10
83.2333333333333769
 20
45.7939999999999685
 30
0.0
 40
5.0800000000000001
100
AcDbArc
 50
270.0
 51
0.0
  0
ARC
  5
4C7
100
AcDbEntity
  8
layer 1
 62
256
370
9
 48
1.0
  6
BYLAYER
100
AcDbCircle
 10
83.2333333333333769
 20
110.7939999999999685
 30
0.0
 40
5.0800000000000001
100
AcDbArc
 50
270.0
 51
0.0
  0
ARC
  5
4C8
100
AcDbEntity
  8
layer 1
 62
256
370
9
 48
1.0
  6
BYLAYER
100
AcDbCircle
 10
83.2333333333333769
 20
174.7939999999999827
 30
0.0
 40
5.0800000000000001
100
AcDbArc
 50
270.0
 51
0.0
  0
ARC
  5
4C9
100
AcDbEntity
  8
layer 1
 62
256
370
9
 48
1.0
  6
BYLAYER
100
AcDbCircle
 10
83.2333333333333769
 20
239.7939999999999827
 30
0.0
 40
5.0800000000000001
100
AcDbArc
 50
270.0
 51
0.0
  0
ARC
  5
4CA
100
AcDbEntity
  8
layer 1
 62
256
370
9
 48
1.0
  6
BYLAYER
100
AcDbCircle
 10
19.2112692165393639
 20
45.7811025609719451
 30
0.0
 40
5.1020804183989652
100
AcDbArc
 50
0.1448369193040411
 51
24.6700001354945897
  0
ARC
  5
4CB
100
AcDbEntity
  8
layer 1
 62
256
370
9
 48
1.0
  6
BYLAYER
100
AcDbCircle
 10
19.2112692165393639
 20
110.7811025609719451
 30
0.0
 40
5.1020804183989652
100
AcDbArc
 50
0.1448369193040411
 51
24.6700001354945897
  0
ARC
  5
4CC
100
AcDbEntity
  8
layer 1
 62
256
370
9
 48
1.0
  6
BYLAYER
100
AcDbCircle
 10
19.2112692165393639
 20
174.7811025609719309
 30
0.0
 40
5.1020804183989652
100
AcDbArc
 50
0.1448369193040411
 51
24.6700001354945897
  0
ARC
  5
4CD
100
AcDbEntity
  8
layer 1
 62
256
370
9
 48
1.0
  6
BYLAYER
100
AcDbCircle
 10
19.2112692165393639
 20
239.7811025609719309
 30
0.0
 40
5.1020804183989652
100
AcDbArc
 50
0.1448369193040411
 51
24.6700001354945897
  0
ARC
  5
4CE
100
AcDbEntity
  8
layer 1
 62
256
370
9
 48
1.0
  6
BYLAYER
100
AcDbCircle
 10
83.2112692165393639
 20
45.7811025609719451
 30
0.0
 40
5.1020804183989652
100
AcDbArc
 50
0.1448369193040411
 51
24.6700001354945897
  0
ARC
  5
4CF
100
AcDbEntity
  8
layer 1
 62
256
370
9
 48
1.0
  6
BYLAYER
100
AcDbCircle
 10
83.2112692165393639
 20
110.7811025609719451
 30
0.0
 40
5.1020804183989652
100
AcDbArc
 50
0.1448369193040411
 51
24.6700001354945897
  0
ARC
  5
4D0
100
AcDbEntity
  8
layer 1
 62
256
370
9
 48
1.0
  6
BYLAYER
100
AcDbCircle
 10
83.2112692165393639
 20
174.7811025609719309
 30
0.0
 40
5.1020804183989652
100
AcDbArc
 50
0.1448369193040411
 51
24.6700001354945897
  0
ARC
  5
4D1
100
AcDbEntity
  8
layer 1
 62
256
370
9
 48
1.0
  6
BYLAYER
100
AcDbCircle
 10
83.2112692165393639
 20
239.7811025609719309
 30
0.0
 40
5.1020804183989652
100
AcDbArc
 50
0.1448369193040411
 51
24.6700001354945897
  0
SPLINE
  5
4D2
100
AcDbEntity
  8
layer 1
 62
256
370
9
 48
1.0
  6
BYLAYER
100
AcDbSpline
 70
8
 71
3
 72
8
 73
4
 74
0
 40
0.0
 40
0.0
 40
0.0
 40
0.0
 40
1.0
 40
1.0
 40
1.0
 40
1.0
 10
23.8476666666666972
 20
47.910666666666657
 30
0.0
 10
22.8486000000000615
 20
50.2305333333333124
 30
0.0
 10
21.773333333333369
 20
52.5673333333332948
 30
0.0
 10
23.263466666666659
 20
55.6999999999999886
 30
0.0
  0
SPLINE
  5
4D3
100
AcDbEntity
  8
layer 1
 62
256
370
9
 48
1.0
  6
BYLAYER
100
AcDbSpline
 70
8
 71
3
 72
8
 73
4
 74
0
 40
0.0
 40
0.0
 40
0.0
 40
0.0
 40
1.0
 40
1.0
 40
1.0
 40
1.0
 10
23.8476666666666972
 20
112.910666666666657
 30
0.0
 10
22.8486000000000615
 20
115.2305333333333124
 30
0.0
 10
21.773333333333369
 20
117.5673333333332948
 30
0.0
 10
23.263466666666659
 20
120.6999999999999886
 30
0.0
  0
SPLINE
  5
4D4
100
AcDbEntity
  8
layer 1
 62
256
370
9
 48
1.0
  6
BYLAYER
100
AcDbSpline
 70
8
 71
3
 72
8
 73
4
 74
0
 40
0.0
 40
0.0
 40
0.0
 40
0.0
 40
1.0
 40
1.0
 40
1.0
 40
1.0
 10
23.8476666666666972
 20
176.910666666666657
 30
0.0
 10
22.8486000000000615
 20
179.2305333333333124
 30
0.0
 10
21.773333333333369
 20
181.5673333333332948
 30
0.0
 10
23.263466666666659
 20
184.6999999999999886
 30
0.0
  0
SPLINE
  5
4D5
100
AcDbEntity
  8
layer 1
 62
256
370
9
 48
1.0
  6
BYLAYER
100
AcDbSpline
 70
8
 71
3
 72
8
 73
4
 74
0
 40
0.0
 40
0.0
 40
0.0
 40
0.0
 40
1.0
 40
1.0
 40
1.0
 40
1.0
 10
23.8476666666666972
 20
241.910666666666657
 30
0.0
 10
22.8486000000000615
 20
244.2305333333333124
 30
0.0
 10
21.773333333333369
 20
246.5673333333332948
 30
0.0
 10
23.263466666666659
 20
249.6999999999999886
 30
0.0
  0
SPLINE
  5
4D6
100
AcDbEntity
  8
layer 1
 62
256
370
9
 48
1.0
  6
BYLAYER
100
AcDbSpline
 70
8
 71
3
 72
8
 73
4
 74
0
 40
0.0
 40
0.0
 40
0.0
 40
0.0
 40
1.0
 40
1.0
 40
1.0
 40
1.0
 10
87.8476666666666972
 20
47.910666666666657
 30
0.0
 10
86.8486000000000615
 20
50.2305333333333124
 30
0.0
 10
85.773333333333369
 20
52.5673333333332948
 30
0.0
 10
87.263466666666659
 20
55.6999999999999886
 30
0.0
  0
SPLINE
  5
4D7
100
AcDbEntity
  8
layer 1
 62
256
370
9
 48
1.0
  6
BYLAYER
100
AcDbSpline
 70
8
 71
3
 72
8
 73
4
 74
0
 40
0.0
 40
0.0
 40
0.0
 40
0.0
 40
1.0
 40
1.0
 40
1.0
 40
1.0
 10
87.8476666666666972
 20
112.910666666666657
 30
0.0
 10
86.8486000000000615
 20
115.2305333333333124
 30
0.0
 10
85.773333333333369
 20
117.5673333333332948
 30
0.0
 10
87.263466666666659
 20
120.6999999999999886
 30
0.0
  0
SPLINE
  5
4D8
100
AcDbEntity
  8
layer 1
 62
256
370
9
 48
1.0
  6
BYLAYER
100
AcDbSpline
 70
8
 71
3
 72
8
 73
4
 74
0
 40
0.0
 40
0.0
 40
0.0
 40
0.0
 40
1.0
 40
1.0
 40
1.0
 40
1.0
 10
87.8476666666666972
 20
176.910666666666657
 30
0.0
 10
86.8486000000000615
 20
179.2305333333333124
 30
0.0
 10
85.773333333333369
 20
181.5673333333332948
 30
0.0
 10
87.263466666666659
 20
184.6999999999999886
 30
0.0
  0
SPLINE
  5
4D9
100
AcDbEntity
  8
layer 1
 62
256
370
9
 48
1.0
  6
BYLAYER
100
AcDbSpline
 70
8
 71
3
 72
8
 73
4
 74
0
 40
0.0
 40
0.0
 40
0.0
 40
0.0
 40
1.0
 40
1.0
 40
1.0
 40
1.0
 10
87.8476666666666972
 20
241.910666666666657
 30
0.0
 10
86.8486000000000615
 20
244.2305333333333124
 30
0.0
 10
85.773333333333369
 20
246.5673333333332948
 30
0.0
 10
87.263466666666659
 20
249.6999999999999886
 30
0.0
  0
ARC
  5
4DA
100
AcDbEntity
  8
layer 1
 62
256
370
9
 48
1.0
  6
BYLAYER
100
AcDbCircle
 10
14.2361543663134
 20
67.0474101039951051
 30
0.0
 40
14.5002097721502636
100
AcDbArc
 50
273.0196389136729067
 51
308.5036327489827954
  0
ARC
  5
4DB
100
AcDbEntity
  8
layer 1
 62
256
370
9
 48
1.0
  6
BYLAYER
100
AcDbCircle
 10
14.2361543663134
 20
132.0474101039951051
 30
0.0
 40
14.5002097721502636
100
AcDbArc
 50
273.0196389136729067
 51
308.5036327489827954
  0
ARC
  5
4DC
100
AcDbEntity
  8
layer 1
 62
256
370
9
 48
1.0
  6
BYLAYER
100
AcDbCircle
 10
14.2361543663134
 20
196.0474101039951051
 30
0.0
 40
14.5002097721502636
100
AcDbArc
 50
273.0196389136729067
 51
308.5036327489827954
  0
ARC
  5
4DD
100
AcDbEntity
  8
layer 1
 62
256
370
9
 48
1.0
  6
BYLAYER
100
AcDbCircle
 10
14.2361543663134
 20
261.0474101039951051
 30
0.0
 40
14.5002097721502636
100
AcDbArc
 50
273.0196389136729067
 51
308.5036327489827954
  0
ARC
  5
4DE
100
AcDbEntity
  8
layer 1
 62
256
370
9
 48
1.0
  6
BYLAYER
100
AcDbCircle
 10
78.2361543663134
 20
67.0474101039951051
 30
0.0
 40
14.5002097721502636
100
AcDbArc
 50
273.0196389136729067
 51
308.5036327489827954
  0
ARC
  5
4DF
100
AcDbEntity
  8
layer 1
 62
256
370
9
 48
1.0
  6
BYLAYER
100
AcDbCircle
 10
78.2361543663134
 20
132.0474101039951051
 30
0.0
 40
14.5002097721502636
100
AcDbArc
 50
273.0196389136729067
 51
308.5036327489827954
  0
ARC
  5
4E0
100
AcDbEntity
  8
layer 1
 62
256
370
9
 48
1.0
  6
BYLAYER
100
AcDbCircle
 10
78.2361543663134
 20
196.0474101039951051
 30
0.0
 40
14.5002097721502636
100
AcDbArc
 50
273.0196389136729067
 51
308.5036327489827954
  0
ARC
  5
4E1
100
AcDbEntity
  8
layer 1
 62
256
370
9
 48
1.0
  6
BYLAYER
100
AcDbCircle
 10
78.2361543663134
 20
261.0474101039951051
 30
0.0
 40
14.5002097721502636
100
AcDbArc
 50
273.0196389136729067
 51
308.5036327489827954
  0
ARC
  5
4E2
100
AcDbEntity
  8
layer 1
 62
256
370
9
 48
1.0
  6
BYLAYER
100
AcDbCircle
 10
15.7638456336866852
 20
67.0474101039951051
 30
0.0
 40
14.5002097721502281
100
AcDbArc
 50
231.4963672510171762
 51
266.9803610863270933
  0
ARC
  5
4E3
100
AcDbEntity
  8
layer 1
 62
256
370
9
 48
1.0
  6
BYLAYER
100
AcDbCircle
 10
15.7638456336866852
 20
132.0474101039951051
 30
0.0
 40
14.5002097721502281
100
AcDbArc
 50
231.4963672510171762
 51
266.9803610863270933
  0
ARC
  5
4E4
100
AcDbEntity
  8
layer 1
 62
256
370
9
 48
1.0
  6
BYLAYER
100
AcDbCircle
 10
15.7638456336866852
 20
196.0474101039951051
 30
0.0
 40
14.5002097721502281
100
AcDbArc
 50
231.4963672510171762
 51
266.9803610863270933
  0
ARC
  5
4E5
100
AcDbEntity
  8
layer 1
 62
256
370
9
 48
1.0
  6
BYLAYER
100
AcDbCircle
 10
15.7638456336866852
 20
261.0474101039951051
 30
0.0
 40
14.5002097721502281
100
AcDbArc
 50
231.4963672510171762
 51
266.9803610863270933
  0
ARC
  5
4E6
100
AcDbEntity
  8
layer 1
 62
256
370
9
 48
1.0
  6
BYLAYER
100
AcDbCircle
 10
79.7638456336866852
 20
67.0474101039951051
 30
0.0
 40
14.5002097721502281
100
AcDbArc
 50
231.4963672510171762
 51
266.9803610863270933
  0
ARC
  5
4E7
100
AcDbEntity
  8
layer 1
 62
256
370
9
 48
1.0
  6
BYLAYER
100
AcDbCircle
 10
79.7638456336866852
 20
132.0474101039951051
 30
0.0
 40
14.5002097721502281
100
AcDbArc
 50
231.4963672510171762
 51
266.9803610863270933
  0
ARC
  5
4E8
100
AcDbEntity
  8
layer 1
 62
256
370
9
 48
1.0
  6
BYLAYER
100
AcDbCircle
 10
79.7638456336866852
 20
196.0474101039951051
 30
0.0
 40
14.5002097721502281
100
AcDbArc
 50
231.4963672510171762
 51
266.9803610863270933
  0
ARC
  5
4E9
100
AcDbEntity
  8
layer 1
 62
256
370
9
 48
1.0
  6
BYLAYER
100
AcDbCircle
 10
79.7638456336866852
 20
261.0474101039951051
 30
0.0
 40
14.5002097721502281
100
AcDbArc
 50
231.4963672510171762
 51
266.9803610863270933
  0
LINE
  5
4EA
100
AcDbEntity
  8
layer 1
 62
256
370
9
 48
1.0
  6
BYLAYER
100
AcDbLine
 10
38.166136639295587
 20
49.5825581709431447
 30
0.0
 11
39.7465810837400397
 21
49.5825581709431447
 31
0.0
  0
LINE
  5
4EB
100
AcDbEntity
  8
layer 1
 62
256
370
9
 48
1.0
  6
BYLAYER
100
AcDbLine
 10
38.166136639295587
 20
114.5825581709431447
 30
0.0
 11
39.7465810837400397
 21
114.5825581709431447
 31
0.0
  0
LINE
  5
4EC
100
AcDbEntity
  8
layer 1
 62
256
370
9
 48
1.0
  6
BYLAYER
100
AcDbLine
 10
38.166136639295587
 20
178.5825581709431447
 30
0.0
 11
39.7465810837400397
 21
178.5825581709431447
 31
0.0
  0
LINE
  5
4ED
100
AcDbEntity
  8
layer 1
 62
256
370
9
 48
1.0
  6
BYLAYER
100
AcDbLine
 10
38.166136639295587
 20
243.5825581709431447
 30
0.0
 11
39.7465810837400397
 21
243.5825581709431447
 31
0.0
  0
LINE
  5
4EE
100
AcDbEntity
  8
layer 1
 62
256
370
9
 48
1.0
  6
BYLAYER
100
AcDbLine
 10
102.166136639295587
 20
49.5825581709431447
 30
0.0
 11
103.7465810837400397
 21
49.5825581709431447
 31
0.0
  0
LINE
  5
4EF
100
AcDbEntity
  8
layer 1
 62
256
370
9
 48
1.0
  6
BYLAYER
100
AcDbLine
 10
102.166136639295587
 20
114.5825581709431447
 30
0.0
 11
103.7465810837400397
 21
114.5825581709431447
 31
0.0
  0
LINE
  5
4F0
100
AcDbEntity
  8
layer 1
 62
256
370
9
 48
1.0
  6
BYLAYER
100
AcDbLine
 10
102.166136639295587
 20
178.5825581709431447
 30
0.0
 11
103.7465810837400397
 21
178.5825581709431447
 31
0.0
  0
LINE
  5
4F1
100
AcDbEntity
  8
layer 1
 62
256
370
9
 48
1.0
  6
BYLAYER
100
AcDbLine
 10
102.166136639295587
 20
243.5825581709431447
 30
0.0
 11
103.7465810837400397
 21
243.5825581709431447
 31
0.0
  0
LINE
  5
4F2
100
AcDbEntity
  8
layer 1
 62
256
370
9
 48
1.0
  6
BYLAYER
100
AcDbLine
 10
39.7465810837400397
 20
49.5825581709431447
 30
0.0
 11
41.1012477504066851
 21
47.8892248376098166
 31
0.0
  0
LINE
  5
4F3
100
AcDbEntity
  8
layer 1
 62
256
370
9
 48
1.0
  6
BYLAYER
100
AcDbLine
 10
39.7465810837400397
 20
114.5825581709431447
 30
0.0
 11
41.1012477504066851
 21
112.8892248376098166
 31
0.0
  0
LINE
  5
4F4
100
AcDbEntity
  8
layer 1
 62
256
370
9
 48
1.0
  6
BYLAYER
100
AcDbLine
 10
39.7465810837400397
 20
178.5825581709431447
 30
0.0
 11
41.1012477504066851
 21
176.8892248376098166
 31
0.0
  0
LINE
  5
4F5
100
AcDbEntity
  8
layer 1
 62
256
370
9
 48
1.0
  6
BYLAYER
100
AcDbLine
 10
39.7465810837400397
 20
243.5825581709431447
 30
0.0
 11
41.1012477504066851
 21
241.8892248376098166
 31
0.0
  0
LINE
  5
4F6
100
AcDbEntity
  8
layer 1
 62
256
370
9
 48
1.0
  6
BYLAYER
100
AcDbLine
 10
103.7465810837400397
 20
49.5825581709431447
 30
0.0
 11
105.1012477504066851
 21
47.8892248376098166
 31
0.0
  0
LINE
  5
4F7
100
AcDbEntity
  8
layer 1
 62
256
370
9
 48
1.0
  6
BYLAYER
100
AcDbLine
 10
103.7465810837400397
 20
114.5825581709431447
 30
0.0
 11
105.1012477504066851
 21
112.8892248376098166
 31
0.0
  0
LINE
  5
4F8
100
AcDbEntity
  8
layer 1
 62
256
370
9
 48
1.0
  6
BYLAYER
100
AcDbLine
 10
103.7465810837400397
 20
178.5825581709431447
 30
0.0
 11
105.1012477504066851
 21
176.8892248376098166
 31
0.0
  0
LINE
  5
4F9
100
AcDbEntity
  8
layer 1
 62
256
370
9
 48
1.0
  6
BYLAYER
100
AcDbLine
 10
103.7465810837400397
 20
243.5825581709431447
 30
0.0
 11
105.1012477504066851
 21
241.8892248376098166
 31
0.0
  0
LINE
  5
4FA
100
AcDbEntity
  8
layer 1
 62
256
370
9
 48
1.0
  6
BYLAYER
100
AcDbLine
 10
41.1012477504066851
 20
47.8892248376098166
 30
0.0
 11
45.1652477504066781
 21
47.8892248376098166
 31
0.0
  0
LINE
  5
4FB
100
AcDbEntity
  8
layer 1
 62
256
370
9
 48
1.0
  6
BYLAYER
100
AcDbLine
 10
41.1012477504066851
 20
112.8892248376098166
 30
0.0
 11
45.1652477504066781
 21
112.8892248376098166
 31
0.0
  0
LINE
  5
4FC
100
AcDbEntity
  8
layer 1
 62
256
370
9
 48
1.0
  6
BYLAYER
100
AcDbLine
 10
41.1012477504066851
 20
176.8892248376098166
 30
0.0
 11
45.1652477504066781
 21
176.8892248376098166
 31
0.0
  0
LINE
  5
4FD
100
AcDbEntity
  8
layer 1
 62
256
370
9
 48
1.0
  6
BYLAYER
100
AcDbLine
 10
41.1012477504066851
 20
241.8892248376098166
 30
0.0
 11
45.1652477504066781
 21
241.8892248376098166
 31
0.0
  0
LINE
  5
4FE
100
AcDbEntity
  8
layer 1
 62
256
370
9
 48
1.0
  6
BYLAYER
100
AcDbLine
 10
105.1012477504066851
 20
47.8892248376098166
 30
0.0
 11
109.1652477504066781
 21
47.8892248376098166
 31
0.0
  0
LINE
  5
4FF
100
AcDbEntity
  8
layer 1
 62
256
370
9
 48
1.0
  6
BYLAYER
100
AcDbLine
 10
105.1012477504066851
 20
112.8892248376098166
 30
0.0
 11
109.1652477504066781
 21
112.8892248376098166
 31
0.0
  0
LINE
  5
500
100
AcDbEntity
  8
layer 1
 62
256
370
9
 48
1.0
  6
BYLAYER
100
AcDbLine
 10
105.1012477504066851
 20
176.8892248376098166
 30
0.0
 11
109.1652477504066781
 21
176.8892248376098166
 31
0.0
  0
LINE
  5
501
100
AcDbEntity
  8
layer 1
 62
256
370
9
 48
1.0
  6
BYLAYER
100
AcDbLine
 10
105.1012477504066851
 20
241.8892248376098166
 30
0.0
 11
109.1652477504066781
 21
241.8892248376098166
 31
0.0
  0
LINE
  5
502
100
AcDbEntity
  8
layer 1
 62
256
370
9
 48
1.0
  6
BYLAYER
100
AcDbLine
 10
45.1652477504066781
 20
47.8892248376098166
 30
0.0
 11
42.6816921948511379
 21
55.3963359487209175
 31
0.0
  0
LINE
  5
503
100
AcDbEntity
  8
layer 1
 62
256
370
9
 48
1.0
  6
BYLAYER
100
AcDbLine
 10
45.1652477504066781
 20
112.8892248376098166
 30
0.0
 11
42.6816921948511379
 21
120.3963359487209175
 31
0.0
  0
LINE
  5
504
100
AcDbEntity
  8
layer 1
 62
256
370
9
 48
1.0
  6
BYLAYER
100
AcDbLine
 10
45.1652477504066781
 20
176.8892248376098166
 30
0.0
 11
42.6816921948511379
 21
184.3963359487209175
 31
0.0
  0
LINE
  5
505
100
AcDbEntity
  8
layer 1
 62
256
370
9
 48
1.0
  6
BYLAYER
100
AcDbLine
 10
45.1652477504066781
 20
241.8892248376098166
 30
0.0
 11
42.6816921948511379
 21
249.3963359487209175
 31
0.0
  0
LINE
  5
506
100
AcDbEntity
  8
layer 1
 62
256
370
9
 48
1.0
  6
BYLAYER
100
AcDbLine
 10
109.1652477504066781
 20
47.8892248376098166
 30
0.0
 11
106.6816921948511379
 21
55.3963359487209175
 31
0.0
  0
LINE
  5
507
100
AcDbEntity
  8
layer 1
 62
256
370
9
 48
1.0
  6
BYLAYER
100
AcDbLine
 10
109.1652477504066781
 20
112.8892248376098166
 30
0.0
 11
106.6816921948511379
 21
120.3963359487209175
 31
0.0
  0
LINE
  5
508
100
AcDbEntity
  8
layer 1
 62
256
370
9
 48
1.0
  6
BYLAYER
100
AcDbLine
 10
109.1652477504066781
 20
176.8892248376098166
 30
0.0
 11
106.6816921948511379
 21
184.3963359487209175
 31
0.0
  0
LINE
  5
509
100
AcDbEntity
  8
layer 1
 62
256
370
9
 48
1.0
  6
BYLAYER
100
AcDbLine
 10
109.1652477504066781
 20
241.8892248376098166
 30
0.0
 11
106.6816921948511379
 21
249.3963359487209175
 31
0.0
  0
LINE
  5
50A
100
AcDbEntity
  8
layer 1
 62
256
370
9
 48
1.0
  6
BYLAYER
100
AcDbLine
 10
42.6816921948511379
 20
55.3963359487209175
 30
0.0
 11
44.6572477504066967
 21
55.3963359487209175
 31
0.0
  0
LINE
  5
50B
100
AcDbEntity
  8
layer 1
 62
256
370
9
 48
1.0
  6
BYLAYER
100
AcDbLine
 10
42.6816921948511379
 20
120.3963359487209175
 30
0.0
 11
44.6572477504066967
 21
120.3963359487209175
 31
0.0
  0
LINE
  5
50C
100
AcDbEntity
  8
layer 1
 62
256
370
9
 48
1.0
  6
BYLAYER
100
AcDbLine
 10
42.6816921948511379
 20
184.3963359487209175
 30
0.0
 11
44.6572477504066967
 21
184.3963359487209175
 31
0.0
  0
LINE
  5
50D
100
AcDbEntity
  8
layer 1
 62
256
370
9
 48
1.0
  6
BYLAYER
100
AcDbLine
 10
42.6816921948511379
 20
249.3963359487209175
 30
0.0
 11
44.6572477504066967
 21
249.3963359487209175
 31
0.0
  0
LINE
  5
50E
100
AcDbEntity
  8
layer 1
 62
256
370
9
 48
1.0
  6
BYLAYER
100
AcDbLine
 10
106.6816921948511379
 20
55.3963359487209175
 30
0.0
 11
108.6572477504066967
 21
55.3963359487209175
 31
0.0
  0
LINE
  5
50F
100
AcDbEntity
  8
layer 1
 62
256
370
9
 48
1.0
  6
BYLAYER
100
AcDbLine
 10
106.6816921948511379
 20
120.3963359487209175
 30
0.0
 11
108.6572477504066967
 21
120.3963359487209175
 31
0.0
  0
LINE
  5
510
100
AcDbEntity
  8
layer 1
 62
256
370
9
 48
1.0
  6
BYLAYER
100
AcDbLine
 10
106.6816921948511379
 20
184.3963359487209175
 30
0.0
 11
108.6572477504066967
 21
184.3963359487209175
 31
0.0
  0
LINE
  5
511
100
AcDbEntity
  8
layer 1
 62
256
370
9
 48
1.0
  6
BYLAYER
100
AcDbLine
 10
106.6816921948511379
 20
249.3963359487209175
 30
0.0
 11
108.6572477504066967
 21
249.3963359487209175
 31
0.0
  0
LINE
  5
512
100
AcDbEntity
  8
layer 1
 62
256
370
9
 48
1.0
  6
BYLAYER
100
AcDbLine
 10
44.6572477504066967
 20
55.3963359487209175
 30
0.0
 11
49.1728033059622476
 21
47.9456692820542543
 31
0.0
  0
LINE
  5
513
100
AcDbEntity
  8
layer 1
 62
256
370
9
 48
1.0
  6
BYLAYER
100
AcDbLine
 10
44.6572477504066967
 20
120.3963359487209175
 30
0.0
 11
49.1728033059622476
 21
112.9456692820542543
 31
0.0
  0
LINE
  5
514
100
AcDbEntity
  8
layer 1
 62
256
370
9
 48
1.0
  6
BYLAYER
100
AcDbLine
 10
44.6572477504066967
 20
184.3963359487209175
 30
0.0
 11
49.1728033059622476
 21
176.9456692820542685
 31
0.0
  0
LINE
  5
515
100
AcDbEntity
  8
layer 1
 62
256
370
9
 48
1.0
  6
BYLAYER
100
AcDbLine
 10
44.6572477504066967
 20
249.3963359487209175
 30
0.0
 11
49.1728033059622476
 21
241.9456692820542685
 31
0.0
  0
LINE
  5
516
100
AcDbEntity
  8
layer 1
 62
256
370
9
 48
1.0
  6
BYLAYER
100
AcDbLine
 10
108.6572477504066967
 20
55.3963359487209175
 30
0.0
 11
113.1728033059622476
 21
47.9456692820542543
 31
0.0
  0
LINE
  5
517
100
AcDbEntity
  8
layer 1
 62
256
370
9
 48
1.0
  6
BYLAYER
100
AcDbLine
 10
108.6572477504066967
 20
120.3963359487209175
 30
0.0
 11
113.1728033059622476
 21
112.9456692820542543
 31
0.0
  0
LINE
  5
518
100
AcDbEntity
  8
layer 1
 62
256
370
9
 48
1.0
  6
BYLAYER
100
AcDbLine
 10
108.6572477504066967
 20
184.3963359487209175
 30
0.0
 11
113.1728033059622476
 21
176.9456692820542685
 31
0.0
  0
LINE
  5
519
100
AcDbEntity
  8
layer 1
 62
256
370
9
 48
1.0
  6
BYLAYER
100
AcDbLine
 10
108.6572477504066967
 20
249.3963359487209175
 30
0.0
 11
113.1728033059622476
 21
241.9456692820542685
 31
0.0
  0
LINE
  5
51A
100
AcDbEntity
  8
layer 1
 62
256
370
9
 48
1.0
  6
BYLAYER
100
AcDbLine
 10
49.1728033059622476
 20
47.9456692820542543
 30
0.0
 11
54.704358861517818
 21
47.9456692820542543
 31
0.0
  0
LINE
  5
51B
100
AcDbEntity
  8
layer 1
 62
256
370
9
 48
1.0
  6
BYLAYER
100
AcDbLine
 10
49.1728033059622476
 20
112.9456692820542543
 30
0.0
 11
54.704358861517818
 21
112.9456692820542543
 31
0.0
  0
LINE
  5
51C
100
AcDbEntity
  8
layer 1
 62
256
370
9
 48
1.0
  6
BYLAYER
100
AcDbLine
 10
49.1728033059622476
 20
176.9456692820542685
 30
0.0
 11
54.704358861517818
 21
176.9456692820542685
 31
0.0
  0
LINE
  5
51D
100
AcDbEntity
  8
layer 1
 62
256
370
9
 48
1.0
  6
BYLAYER
100
AcDbLine
 10
49.1728033059622476
 20
241.9456692820542685
 30
0.0
 11
54.704358861517818
 21
241.9456692820542685
 31
0.0
  0
LINE
  5
51E
100
AcDbEntity
  8
layer 1
 62
256
370
9
 48
1.0
  6
BYLAYER
100
AcDbLine
 10
113.1728033059622476
 20
47.9456692820542543
 30
0.0
 11
118.704358861517818
 21
47.9456692820542543
 31
0.0
  0
LINE
  5
51F
100
AcDbEntity
  8
layer 1
 62
256
370
9
 48
1.0
  6
BYLAYER
100
AcDbLine
 10
113.1728033059622476
 20
112.9456692820542543
 30
0.0
 11
118.704358861517818
 21
112.9456692820542543
 31
0.0
  0
LINE
  5
520
100
AcDbEntity
  8
layer 1
 62
256
370
9
 48
1.0
  6
BYLAYER
100
AcDbLine
 10
113.1728033059622476
 20
176.9456692820542685
 30
0.0
 11
118.704358861517818
 21
176.9456692820542685
 31
0.0
  0
LINE
  5
521
100
AcDbEntity
  8
layer 1
 62
256
370
9
 48
1.0
  6
BYLAYER
100
AcDbLine
 10
113.1728033059622476
 20
241.9456692820542685
 30
0.0
 11
118.704358861517818
 21
241.9456692820542685
 31
0.0
  0
SPLINE
  5
522
100
AcDbEntity
  8
layer 1
 62
256
370
9
 48
1.0
  6
BYLAYER
100
AcDbSpline
 70
8
 71
3
 72
8
 73
4
 74
0
 40
0.0
 40
0.0
 40
0.0
 40
0.0
 40
1.0
 40
1.0
 40
1.0
 40
1.0
 10
54.704358861517818
 20
47.9456692820542543
 30
0.0
 10
55.8896921948511078
 20
47.9456692820542543
 30
0.0
 10
55.8896921948511078
 20
46.0265581709431473
 30
0.0
 10
54.704358861517818
 20
46.0265581709431473
 30
0.0
  0
SPLINE
  5
523
100
AcDbEntity
  8
layer 1
 62
256
370
9
 48
1.0
  6
BYLAYER
100
AcDbSpline
 70
8
 71
3
 72
8
 73
4
 74
0
 40
0.0
 40
0.0
 40
0.0
 40
0.0
 40
1.0
 40
1.0
 40
1.0
 40
1.0
 10
54.704358861517818
 20
112.9456692820542543
 30
0.0
 10
55.8896921948511078
 20
112.9456692820542543
 30
0.0
 10
55.8896921948511078
 20
111.0265581709431473
 30
0.0
 10
54.704358861517818
 20
111.0265581709431473
 30
0.0
  0
SPLINE
  5
524
100
AcDbEntity
  8
layer 1
 62
256
370
9
 48
1.0
  6
BYLAYER
100
AcDbSpline
 70
8
 71
3
 72
8
 73
4
 74
0
 40
0.0
 40
0.0
 40
0.0
 40
0.0
 40
1.0
 40
1.0
 40
1.0
 40
1.0
 10
54.704358861517818
 20
176.9456692820542685
 30
0.0
 10
55.8896921948511078
 20
176.9456692820542685
 30
0.0
 10
55.8896921948511078
 20
175.0265581709431331
 30
0.0
 10
54.704358861517818
 20
175.0265581709431331
 30
0.0
  0
SPLINE
  5
525
100
AcDbEntity
  8
layer 1
 62
256
370
9
 48
1.0
  6
BYLAYER
100
AcDbSpline
 70
8
 71
3
 72
8
 73
4
 74
0
 40
0.0
 40
0.0
 40
0.0
 40
0.0
 40
1.0
 40
1.0
 40
1.0
 40
1.0
 10
54.704358861517818
 20
241.9456692820542685
 30
0.0
 10
55.8896921948511078
 20
241.9456692820542685
 30
0.0
 10
55.8896921948511078
 20
240.0265581709431331
 30
0.0
 10
54.704358861517818
 20
240.0265581709431331
 30
0.0
  0
SPLINE
  5
526
100
AcDbEntity
  8
layer 1
 62
256
370
9
 48
1.0
  6
BYLAYER
100
AcDbSpline
 70
8
 71
3
 72
8
 73
4
 74
0
 40
0.0
 40
0.0
 40
0.0
 40
0.0
 40
1.0
 40
1.0
 40
1.0
 40
1.0
 10
118.704358861517818
 20
47.9456692820542543
 30
0.0
 10
119.8896921948511078
 20
47.9456692820542543
 30
0.0
 10
119.8896921948511078
 20
46.0265581709431473
 30
0.0
 10
118.704358861517818
 20
46.0265581709431473
 30
0.0
  0
SPLINE
  5
527
100
AcDbEntity
  8
layer 1
 62
256
370
9
 48
1.0
  6
BYLAYER
100
AcDbSpline
 70
8
 71
3
 72
8
 73
4
 74
0
 40
0.0
 40
0.0
 40
0.0
 40
0.0
 40
1.0
 40
1.0
 40
1.0
 40
1.0
 10
118.704358861517818
 20
112.9456692820542543
 30
0.0
 10
119.8896921948511078
 20
112.9456692820542543
 30
0.0
 10
119.8896921948511078
 20
111.0265581709431473
 30
0.0
 10
118.704358861517818
 20
111.0265581709431473
 30
0.0
  0
SPLINE
  5
528
100
AcDbEntity
  8
layer 1
 62
256
370
9
 48
1.0
  6
BYLAYER
100
AcDbSpline
 70
8
 71
3
 72
8
 73
4
 74
0
 40
0.0
 40
0.0
 40
0.0
 40
0.0
 40
1.0
 40
1.0
 40
1.0
 40
1.0
 10
118.704358861517818
 20
176.9456692820542685
 30
0.0
 10
119.8896921948511078
 20
176.9456692820542685
 30
0.0
 10
119.8896921948511078
 20
175.0265581709431331
 30
0.0
 10
118.704358861517818
 20
175.0265581709431331
 30
0.0
  0
SPLINE
  5
529
100
AcDbEntity
  8
layer 1
 62
256
370
9
 48
1.0
  6
BYLAYER
100
AcDbSpline
 70
8
 71
3
 72
8
 73
4
 74
0
 40
0.0
 40
0.0
 40
0.0
 40
0.0
 40
1.0
 40
1.0
 40
1.0
 40
1.0
 10
118.704358861517818
 20
241.9456692820542685
 30
0.0
 10
119.8896921948511078
 20
241.9456692820542685
 30
0.0
 10
119.8896921948511078
 20
240.0265581709431331
 30
0.0
 10
118.704358861517818
 20
240.0265581709431331
 30
0.0
  0
LINE
  5
52A
100
AcDbEntity
  8
layer 1
 62
256
370
9
 48
1.0
  6
BYLAYER
100
AcDbLine
 10
54.704358861517818
 20
46.0265581709431473
 30
0.0
 11
49.1728033059622476
 21
46.0265581709431473
 31
0.0
  0
LINE
  5
52B
100
AcDbEntity
  8
layer 1
 62
256
370
9
 48
1.0
  6
BYLAYER
100
AcDbLine
 10
54.704358861517818
 20
111.0265581709431473
 30
0.0
 11
49.1728033059622476
 21
111.0265581709431473
 31
0.0
  0
LINE
  5
52C
100
AcDbEntity
  8
layer 1
 62
256
370
9
 48
1.0
  6
BYLAYER
100
AcDbLine
 10
54.704358861517818
 20
175.0265581709431331
 30
0.0
 11
49.1728033059622476
 21
175.0265581709431331
 31
0.0
  0
LINE
  5
52D
100
AcDbEntity
  8
layer 1
 62
256
370
9
 48
1.0
  6
BYLAYER
100
AcDbLine
 10
54.704358861517818
 20
240.0265581709431331
 30
0.0
 11
49.1728033059622476
 21
240.0265581709431331
 31
0.0
  0
LINE
  5
52E
100
AcDbEntity
  8
layer 1
 62
256
370
9
 48
1.0
  6
BYLAYER
100
AcDbLine
 10
118.704358861517818
 20
46.0265581709431473
 30
0.0
 11
113.1728033059622476
 21
46.0265581709431473
 31
0.0
  0
LINE
  5
52F
100
AcDbEntity
  8
layer 1
 62
256
370
9
 48
1.0
  6
BYLAYER
100
AcDbLine
 10
118.704358861517818
 20
111.0265581709431473
 30
0.0
 11
113.1728033059622476
 21
111.0265581709431473
 31
0.0
  0
LINE
  5
530
100
AcDbEntity
  8
layer 1
 62
256
370
9
 48
1.0
  6
BYLAYER
100
AcDbLine
 10
118.704358861517818
 20
175.0265581709431331
 30
0.0
 11
113.1728033059622476
 21
175.0265581709431331
 31
0.0
  0
LINE
  5
531
100
AcDbEntity
  8
layer 1
 62
256
370
9
 48
1.0
  6
BYLAYER
100
AcDbLine
 10
118.704358861517818
 20
240.0265581709431331
 30
0.0
 11
113.1728033059622476
 21
240.0265581709431331
 31
0.0
  0
LINE
  5
532
100
AcDbEntity
  8
layer 1
 62
256
370
9
 48
1.0
  6
BYLAYER
100
AcDbLine
 10
49.1728033059622476
 20
46.0265581709431473
 30
0.0
 11
44.6572477504066967
 21
38.4630026153875946
 31
0.0
  0
LINE
  5
533
100
AcDbEntity
  8
layer 1
 62
256
370
9
 48
1.0
  6
BYLAYER
100
AcDbLine
 10
49.1728033059622476
 20
111.0265581709431473
 30
0.0
 11
44.6572477504066967
 21
103.4630026153875946
 31
0.0
  0
LINE
  5
534
100
AcDbEntity
  8
layer 1
 62
256
370
9
 48
1.0
  6
BYLAYER
100
AcDbLine
 10
49.1728033059622476
 20
175.0265581709431331
 30
0.0
 11
44.6572477504066967
 21
167.4630026153876088
 31
0.0
  0
LINE
  5
535
100
AcDbEntity
  8
layer 1
 62
256
370
9
 48
1.0
  6
BYLAYER
100
AcDbLine
 10
49.1728033059622476
 20
240.0265581709431331
 30
0.0
 11
44.6572477504066967
 21
232.4630026153876088
 31
0.0
  0
LINE
  5
536
100
AcDbEntity
  8
layer 1
 62
256
370
9
 48
1.0
  6
BYLAYER
100
AcDbLine
 10
113.1728033059622476
 20
46.0265581709431473
 30
0.0
 11
108.6572477504066967
 21
38.4630026153875946
 31
0.0
  0
LINE
  5
537
100
AcDbEntity
  8
layer 1
 62
256
370
9
 48
1.0
  6
BYLAYER
100
AcDbLine
 10
113.1728033059622476
 20
111.0265581709431473
 30
0.0
 11
108.6572477504066967
 21
103.4630026153875946
 31
0.0
  0
LINE
  5
538
100
AcDbEntity
  8
layer 1
 62
256
370
9
 48
1.0
  6
BYLAYER
100
AcDbLine
 10
113.1728033059622476
 20
175.0265581709431331
 30
0.0
 11
108.6572477504066967
 21
167.4630026153876088
 31
0.0
  0
LINE
  5
539
100
AcDbEntity
  8
layer 1
 62
256
370
9
 48
1.0
  6
BYLAYER
100
AcDbLine
 10
113.1728033059622476
 20
240.0265581709431331
 30
0.0
 11
108.6572477504066967
 21
232.4630026153876088
 31
0.0
  0
LINE
  5
53A
100
AcDbEntity
  8
layer 1
 62
256
370
9
 48
1.0
  6
BYLAYER
100
AcDbLine
 10
44.6572477504066967
 20
38.4630026153875946
 30
0.0
 11
42.6816921948511379
 21
38.4630026153875946
 31
0.0
  0
LINE
  5
53B
100
AcDbEntity
  8
layer 1
 62
256
370
9
 48
1.0
  6
BYLAYER
100
AcDbLine
 10
44.6572477504066967
 20
103.4630026153875946
 30
0.0
 11
42.6816921948511379
 21
103.4630026153875946
 31
0.0
  0
LINE
  5
53C
100
AcDbEntity
  8
layer 1
 62
256
370
9
 48
1.0
  6
BYLAYER
100
AcDbLine
 10
44.6572477504066967
 20
167.4630026153876088
 30
0.0
 11
42.6816921948511379
 21
167.4630026153876088
 31
0.0
  0
LINE
  5
53D
100
AcDbEntity
  8
layer 1
 62
256
370
9
 48
1.0
  6
BYLAYER
100
AcDbLine
 10
44.6572477504066967
 20
232.4630026153876088
 30
0.0
 11
42.6816921948511379
 21
232.4630026153876088
 31
0.0
  0
LINE
  5
53E
100
AcDbEntity
  8
layer 1
 62
256
370
9
 48
1.0
  6
BYLAYER
100
AcDbLine
 10
108.6572477504066967
 20
38.4630026153875946
 30
0.0
 11
106.6816921948511379
 21
38.4630026153875946
 31
0.0
  0
LINE
  5
53F
100
AcDbEntity
  8
layer 1
 62
256
370
9
 48
1.0
  6
BYLAYER
100
AcDbLine
 10
108.6572477504066967
 20
103.4630026153875946
 30
0.0
 11
106.6816921948511379
 21
103.4630026153875946
 31
0.0
  0
LINE
  5
540
100
AcDbEntity
  8
layer 1
 62
256
370
9
 48
1.0
  6
BYLAYER
100
AcDbLine
 10
108.6572477504066967
 20
167.4630026153876088
 30
0.0
 11
106.6816921948511379
 21
167.4630026153876088
 31
0.0
  0
LINE
  5
541
100
AcDbEntity
  8
layer 1
 62
256
370
9
 48
1.0
  6
BYLAYER
100
AcDbLine
 10
108.6572477504066967
 20
232.4630026153876088
 30
0.0
 11
106.6816921948511379
 21
232.4630026153876088
 31
0.0
  0
LINE
  5
542
100
AcDbEntity
  8
layer 1
 62
256
370
9
 48
1.0
  6
BYLAYER
100
AcDbLine
 10
42.6816921948511379
 20
38.4630026153875946
 30
0.0
 11
45.1088033059622546
 21
45.9701137264987096
 31
0.0
  0
LINE
  5
543
100
AcDbEntity
  8
layer 1
 62
256
370
9
 48
1.0
  6
BYLAYER
100
AcDbLine
 10
42.6816921948511379
 20
103.4630026153875946
 30
0.0
 11
45.1088033059622546
 21
110.9701137264987096
 31
0.0
  0
LINE
  5
544
100
AcDbEntity
  8
layer 1
 62
256
370
9
 48
1.0
  6
BYLAYER
100
AcDbLine
 10
42.6816921948511379
 20
167.4630026153876088
 30
0.0
 11
45.1088033059622546
 21
174.9701137264987096
 31
0.0
  0
LINE
  5
545
100
AcDbEntity
  8
layer 1
 62
256
370
9
 48
1.0
  6
BYLAYER
100
AcDbLine
 10
42.6816921948511379
 20
232.4630026153876088
 30
0.0
 11
45.1088033059622546
 21
239.9701137264987096
 31
0.0
  0
LINE
  5
546
100
AcDbEntity
  8
layer 1
 62
256
370
9
 48
1.0
  6
BYLAYER
100
AcDbLine
 10
106.6816921948511379
 20
38.4630026153875946
 30
0.0
 11
109.1088033059622546
 21
45.9701137264987096
 31
0.0
  0
LINE
  5
547
100
AcDbEntity
  8
layer 1
 62
256
370
9
 48
1.0
  6
BYLAYER
100
AcDbLine
 10
106.6816921948511379
 20
103.4630026153875946
 30
0.0
 11
109.1088033059622546
 21
110.9701137264987096
 31
0.0
  0
LINE
  5
548
100
AcDbEntity
  8
layer 1
 62
256
370
9
 48
1.0
  6
BYLAYER
100
AcDbLine
 10
106.6816921948511379
 20
167.4630026153876088
 30
0.0
 11
109.1088033059622546
 21
174.9701137264987096
 31
0.0
  0
LINE
  5
549
100
AcDbEntity
  8
layer 1
 62
256
370
9
 48
1.0
  6
BYLAYER
100
AcDbLine
 10
106.6816921948511379
 20
232.4630026153876088
 30
0.0
 11
109.1088033059622546
 21
239.9701137264987096
 31
0.0
  0
LINE
  5
54A
100
AcDbEntity
  8
layer 1
 62
256
370
9
 48
1.0
  6
BYLAYER
100
AcDbLine
 10
45.1088033059622546
 20
45.9701137264987096
 30
0.0
 11
41.1012477504066851
 21
45.9701137264987096
 31
0.0
  0
LINE
  5
54B
100
AcDbEntity
  8
layer 1
 62
256
370
9
 48
1.0
  6
BYLAYER
100
AcDbLine
 10
45.1088033059622546
 20
110.9701137264987096
 30
0.0
 11
41.1012477504066851
 21
110.9701137264987096
 31
0.0
  0
LINE
  5
54C
100
AcDbEntity
  8
layer 1
 62
256
370
9
 48
1.0
  6
BYLAYER
100
AcDbLine
 10
45.1088033059622546
 20
174.9701137264987096
 30
0.0
 11
41.1012477504066851
 21
174.9701137264987096
 31
0.0
  0
LINE
  5
54D
100
AcDbEntity
  8
layer 1
 62
256
370
9
 48
1.0
  6
BYLAYER
100
AcDbLine
 10
45.1088033059622546
 20
239.9701137264987096
 30
0.0
 11
41.1012477504066851
 21
239.9701137264987096
 31
0.0
  0
LINE
  5
54E
100
AcDbEntity
  8
layer 1
 62
256
370
9
 48
1.0
  6
BYLAYER
100
AcDbLine
 10
109.1088033059622546
 20
45.9701137264987096
 30
0.0
 11
105.1012477504066851
 21
45.9701137264987096
 31
0.0
  0
LINE
  5
54F
100
AcDbEntity
  8
layer 1
 62
256
370
9
 48
1.0
  6
BYLAYER
100
AcDbLine
 10
109.1088033059622546
 20
110.9701137264987096
 30
0.0
 11
105.1012477504066851
 21
110.9701137264987096
 31
0.0
  0
LINE
  5
550
100
AcDbEntity
  8
layer 1
 62
256
370
9
 48
1.0
  6
BYLAYER
100
AcDbLine
 10
109.1088033059622546
 20
174.9701137264987096
 30
0.0
 11
105.1012477504066851
 21
174.9701137264987096
 31
0.0
  0
LINE
  5
551
100
AcDbEntity
  8
layer 1
 62
256
370
9
 48
1.0
  6
BYLAYER
100
AcDbLine
 10
109.1088033059622546
 20
239.9701137264987096
 30
0.0
 11
105.1012477504066851
 21
239.9701137264987096
 31
0.0
  0
LINE
  5
552
100
AcDbEntity
  8
layer 1
 62
256
370
9
 48
1.0
  6
BYLAYER
100
AcDbLine
 10
41.1012477504066851
 20
45.9701137264987096
 30
0.0
 11
39.7465810837400397
 21
44.2767803931653674
 31
0.0
  0
LINE
  5
553
100
AcDbEntity
  8
layer 1
 62
256
370
9
 48
1.0
  6
BYLAYER
100
AcDbLine
 10
41.1012477504066851
 20
110.9701137264987096
 30
0.0
 11
39.7465810837400397
 21
109.2767803931653674
 31
0.0
  0
LINE
  5
554
100
AcDbEntity
  8
layer 1
 62
256
370
9
 48
1.0
  6
BYLAYER
100
AcDbLine
 10
41.1012477504066851
 20
174.9701137264987096
 30
0.0
 11
39.7465810837400397
 21
173.2767803931653816
 31
0.0
  0
LINE
  5
555
100
AcDbEntity
  8
layer 1
 62
256
370
9
 48
1.0
  6
BYLAYER
100
AcDbLine
 10
41.1012477504066851
 20
239.9701137264987096
 30
0.0
 11
39.7465810837400397
 21
238.2767803931653816
 31
0.0
  0
LINE
  5
556
100
AcDbEntity
  8
layer 1
 62
256
370
9
 48
1.0
  6
BYLAYER
100
AcDbLine
 10
105.1012477504066851
 20
45.9701137264987096
 30
0.0
 11
103.7465810837400397
 21
44.2767803931653674
 31
0.0
  0
LINE
  5
557
100
AcDbEntity
  8
layer 1
 62
256
370
9
 48
1.0
  6
BYLAYER
100
AcDbLine
 10
105.1012477504066851
 20
110.9701137264987096
 30
0.0
 11
103.7465810837400397
 21
109.2767803931653674
 31
0.0
  0
LINE
  5
558
100
AcDbEntity
  8
layer 1
 62
256
370
9
 48
1.0
  6
BYLAYER
100
AcDbLine
 10
105.1012477504066851
 20
174.9701137264987096
 30
0.0
 11
103.7465810837400397
 21
173.2767803931653816
 31
0.0
  0
LINE
  5
559
100
AcDbEntity
  8
layer 1
 62
256
370
9
 48
1.0
  6
BYLAYER
100
AcDbLine
 10
105.1012477504066851
 20
239.9701137264987096
 30
0.0
 11
103.7465810837400397
 21
238.2767803931653816
 31
0.0
  0
LINE
  5
55A
100
AcDbEntity
  8
layer 1
 62
256
370
9
 48
1.0
  6
BYLAYER
100
AcDbLine
 10
39.7465810837400397
 20
44.2767803931653674
 30
0.0
 11
38.166136639295587
 21
44.2767803931653674
 31
0.0
  0
LINE
  5
55B
100
AcDbEntity
  8
layer 1
 62
256
370
9
 48
1.0
  6
BYLAYER
100
AcDbLine
 10
39.7465810837400397
 20
109.2767803931653674
 30
0.0
 11
38.166136639295587
 21
109.2767803931653674
 31
0.0
  0
LINE
  5
55C
100
AcDbEntity
  8
layer 1
 62
256
370
9
 48
1.0
  6
BYLAYER
100
AcDbLine
 10
39.7465810837400397
 20
173.2767803931653816
 30
0.0
 11
38.166136639295587
 21
173.2767803931653816
 31
0.0
  0
LINE
  5
55D
100
AcDbEntity
  8
layer 1
 62
256
370
9
 48
1.0
  6
BYLAYER
100
AcDbLine
 10
39.7465810837400397
 20
238.2767803931653816
 30
0.0
 11
38.166136639295587
 21
238.2767803931653816
 31
0.0
  0
LINE
  5
55E
100
AcDbEntity
  8
layer 1
 62
256
370
9
 48
1.0
  6
BYLAYER
100
AcDbLine
 10
103.7465810837400397
 20
44.2767803931653674
 30
0.0
 11
102.166136639295587
 21
44.2767803931653674
 31
0.0
  0
LINE
  5
55F
100
AcDbEntity
  8
layer 1
 62
256
370
9
 48
1.0
  6
BYLAYER
100
AcDbLine
 10
103.7465810837400397
 20
109.2767803931653674
 30
0.0
 11
102.166136639295587
 21
109.2767803931653674
 31
0.0
  0
LINE
  5
560
100
AcDbEntity
  8
layer 1
 62
256
370
9
 48
1.0
  6
BYLAYER
100
AcDbLine
 10
103.7465810837400397
 20
173.2767803931653816
 30
0.0
 11
102.166136639295587
 21
173.2767803931653816
 31
0.0
  0
LINE
  5
561
100
AcDbEntity
  8
layer 1
 62
256
370
9
 48
1.0
  6
BYLAYER
100
AcDbLine
 10
103.7465810837400397
 20
238.2767803931653816
 30
0.0
 11
102.166136639295587
 21
238.2767803931653816
 31
0.0
  0
LINE
  5
562
100
AcDbEntity
  8
layer 1
 62
256
370
9
 48
1.0
  6
BYLAYER
100
AcDbLine
 10
38.166136639295587
 20
44.2767803931653674
 30
0.0
 11
39.012803305962251
 21
46.9296692820542489
 31
0.0
  0
LINE
  5
563
100
AcDbEntity
  8
layer 1
 62
256
370
9
 48
1.0
  6
BYLAYER
100
AcDbLine
 10
38.166136639295587
 20
109.2767803931653674
 30
0.0
 11
39.012803305962251
 21
111.9296692820542489
 31
0.0
  0
LINE
  5
564
100
AcDbEntity
  8
layer 1
 62
256
370
9
 48
1.0
  6
BYLAYER
100
AcDbLine
 10
38.166136639295587
 20
173.2767803931653816
 30
0.0
 11
39.012803305962251
 21
175.9296692820542489
 31
0.0
  0
LINE
  5
565
100
AcDbEntity
  8
layer 1
 62
256
370
9
 48
1.0
  6
BYLAYER
100
AcDbLine
 10
38.166136639295587
 20
238.2767803931653816
 30
0.0
 11
39.012803305962251
 21
240.9296692820542489
 31
0.0
  0
LINE
  5
566
100
AcDbEntity
  8
layer 1
 62
256
370
9
 48
1.0
  6
BYLAYER
100
AcDbLine
 10
102.166136639295587
 20
44.2767803931653674
 30
0.0
 11
103.012803305962251
 21
46.9296692820542489
 31
0.0
  0
LINE
  5
567
100
AcDbEntity
  8
layer 1
 62
256
370
9
 48
1.0
  6
BYLAYER
100
AcDbLine
 10
102.166136639295587
 20
109.2767803931653674
 30
0.0
 11
103.012803305962251
 21
111.9296692820542489
 31
0.0
  0
LINE
  5
568
100
AcDbEntity
  8
layer 1
 62
256
370
9
 48
1.0
  6
BYLAYER
100
AcDbLine
 10
102.166136639295587
 20
173.2767803931653816
 30
0.0
 11
103.012803305962251
 21
175.9296692820542489
 31
0.0
  0
LINE
  5
569
100
AcDbEntity
  8
layer 1
 62
256
370
9
 48
1.0
  6
BYLAYER
100
AcDbLine
 10
102.166136639295587
 20
238.2767803931653816
 30
0.0
 11
103.012803305962251
 21
240.9296692820542489
 31
0.0
  0
LINE
  5
56A
100
AcDbEntity
  8
layer 1
 62
256
370
9
 48
1.0
  6
BYLAYER
100
AcDbLine
 10
38.166136639295587
 20
49.5825581709431447
 30
0.0
 11
39.012803305962251
 21
46.9296692820542489
 31
0.0
  0
LINE
  5
56B
100
AcDbEntity
  8
layer 1
 62
256
370
9
 48
1.0
  6
BYLAYER
100
AcDbLine
 10
38.166136639295587
 20
114.5825581709431447
 30
0.0
 11
39.012803305962251
 21
111.9296692820542489
 31
0.0
  0
LINE
  5
56C
100
AcDbEntity
  8
layer 1
 62
256
370
9
 48
1.0
  6
BYLAYER
100
AcDbLine
 10
38.166136639295587
 20
178.5825581709431447
 30
0.0
 11
39.012803305962251
 21
175.9296692820542489
 31
0.0
  0
LINE
  5
56D
100
AcDbEntity
  8
layer 1
 62
256
370
9
 48
1.0
  6
BYLAYER
100
AcDbLine
 10
38.166136639295587
 20
243.5825581709431447
 30
0.0
 11
39.012803305962251
 21
240.9296692820542489
 31
0.0
  0
LINE
  5
56E
100
AcDbEntity
  8
layer 1
 62
256
370
9
 48
1.0
  6
BYLAYER
100
AcDbLine
 10
102.166136639295587
 20
49.5825581709431447
 30
0.0
 11
103.012803305962251
 21
46.9296692820542489
 31
0.0
  0
LINE
  5
56F
100
AcDbEntity
  8
layer 1
 62
256
370
9
 48
1.0
  6
BYLAYER
100
AcDbLine
 10
102.166136639295587
 20
114.5825581709431447
 30
0.0
 11
103.012803305962251
 21
111.9296692820542489
 31
0.0
  0
LINE
  5
570
100
AcDbEntity
  8
layer 1
 62
256
370
9
 48
1.0
  6
BYLAYER
100
AcDbLine
 10
102.166136639295587
 20
178.5825581709431447
 30
0.0
 11
103.012803305962251
 21
175.9296692820542489
 31
0.0
  0
LINE
  5
571
100
AcDbEntity
  8
layer 1
 62
256
370
9
 48
1.0
  6
BYLAYER
100
AcDbLine
 10
102.166136639295587
 20
243.5825581709431447
 30
0.0
 11
103.012803305962251
 21
240.9296692820542489
 31
0.0
  0
ARC
  5
572
100
AcDbEntity
  8
layer 1
 62
256
370
9
 48
1.0
  6
BYLAYER
100
AcDbCircle
 10
12.3211200338861602
 20
14.2415036246789484
 30
0.0
 40
0.8484274793267772
100
AcDbArc
 50
345.4237757286069268
 51
74.9722281045256835
  0
ARC
  5
573
100
AcDbEntity
  8
layer 1
 62
256
370
9
 48
1.0
  6
BYLAYER
100
AcDbCircle
 10
12.3211200338861602
 20
79.2415036246789555
 30
0.0
 40
0.8484274793267772
100
AcDbArc
 50
345.4237757286069268
 51
74.9722281045256835
  0
ARC
  5
574
100
AcDbEntity
  8
layer 1
 62
256
370
9
 48
1.0
  6
BYLAYER
100
AcDbCircle
 10
12.3211200338861602
 20
143.2415036246789555
 30
0.0
 40
0.8484274793267772
100
AcDbArc
 50
345.4237757286069268
 51
74.9722281045256835
  0
ARC
  5
575
100
AcDbEntity
  8
layer 1
 62
256
370
9
 48
1.0
  6
BYLAYER
100
AcDbCircle
 10
12.3211200338861602
 20
208.2415036246789555
 30
0.0
 40
0.8484274793267772
100
AcDbArc
 50
345.4237757286069268
 51
74.9722281045256835
  0
ARC
  5
576
100
AcDbEntity
  8
layer 1
 62
256
370
9
 48
1.0
  6
BYLAYER
100
AcDbCircle
 10
76.3211200338861602
 20
14.2415036246789484
 30
0.0
 40
0.8484274793267772
100
AcDbArc
 50
345.4237757286069268
 51
74.9722281045256835
  0
ARC
  5
577
100
AcDbEntity
  8
layer 1
 62
256
370
9
 48
1.0
  6
BYLAYER
100
AcDbCircle
 10
76.3211200338861602
 20
79.2415036246789555
 30
0.0
 40
0.8484274793267772
100
AcDbArc
 50
345.4237757286069268
 51
74.9722281045256835
  0
ARC
  5
578
100
AcDbEntity
  8
layer 1
 62
256
370
9
 48
1.0
  6
BYLAYER
100
AcDbCircle
 10
76.3211200338861602
 20
143.2415036246789555
 30
0.0
 40
0.8484274793267772
100
AcDbArc
 50
345.4237757286069268
 51
74.9722281045256835
  0
ARC
  5
579
100
AcDbEntity
  8
layer 1
 62
256
370
9
 48
1.0
  6
BYLAYER
100
AcDbCircle
 10
76.3211200338861602
 20
208.2415036246789555
 30
0.0
 40
0.8484274793267772
100
AcDbArc
 50
345.4237757286069268
 51
74.9722281045256835
  0
LINE
  5
57A
100
AcDbEntity
  8
layer 1
 62
256
370
9
 48
1.0
  6
BYLAYER
100
AcDbLine
 10
13.1422397608552046
 20
14.0279817717948063
 30
0.0
 11
12.0415730941885215
 21
9.9385817717948157
 31
0.0
  0
LINE
  5
57B
100
AcDbEntity
  8
layer 1
 62
256
370
9
 48
1.0
  6
BYLAYER
100
AcDbLine
 10
13.1422397608552046
 20
79.0279817717947992
 30
0.0
 11
12.0415730941885215
 21
74.9385817717948157
 31
0.0
  0
LINE
  5
57C
100
AcDbEntity
  8
layer 1
 62
256
370
9
 48
1.0
  6
BYLAYER
100
AcDbLine
 10
13.1422397608552046
 20
143.0279817717947992
 30
0.0
 11
12.0415730941885215
 21
138.9385817717948157
 31
0.0
  0
LINE
  5
57D
100
AcDbEntity
  8
layer 1
 62
256
370
9
 48
1.0
  6
BYLAYER
100
AcDbLine
 10
13.1422397608552046
 20
208.0279817717947992
 30
0.0
 11
12.0415730941885215
 21
203.9385817717948157
 31
0.0
  0
LINE
  5
57E
100
AcDbEntity
  8
layer 1
 62
256
370
9
 48
1.0
  6
BYLAYER
100
AcDbLine
 10
77.1422397608552046
 20
14.0279817717948063
 30
0.0
 11
76.0415730941885215
 21
9.9385817717948157
 31
0.0
  0
LINE
  5
57F
100
AcDbEntity
  8
layer 1
 62
256
370
9
 48
1.0
  6
BYLAYER
100
AcDbLine
 10
77.1422397608552046
 20
79.0279817717947992
 30
0.0
 11
76.0415730941885215
 21
74.9385817717948157
 31
0.0
  0
LINE
  5
580
100
AcDbEntity
  8
layer 1
 62
256
370
9
 48
1.0
  6
BYLAYER
100
AcDbLine
 10
77.1422397608552046
 20
143.0279817717947992
 30
0.0
 11
76.0415730941885215
 21
138.9385817717948157
 31
0.0
  0
LINE
  5
581
100
AcDbEntity
  8
layer 1
 62
256
370
9
 48
1.0
  6
BYLAYER
100
AcDbLine
 10
77.1422397608552046
 20
208.0279817717947992
 30
0.0
 11
76.0415730941885215
 21
203.9385817717948157
 31
0.0
  0
ARC
  5
582
100
AcDbEntity
  8
layer 1
 62
256
370
9
 48
1.0
  6
BYLAYER
100
AcDbCircle
 10
11.2268769734123168
 20
10.1504657164150061
 30
0.0
 40
0.8417984171971586
100
AcDbArc
 50
254.9743669752874382
 51
345.4216368578449874
  0
ARC
  5
583
100
AcDbEntity
  8
layer 1
 62
256
370
9
 48
1.0
  6
BYLAYER
100
AcDbCircle
 10
11.2268769734123168
 20
75.150465716414999
 30
0.0
 40
0.8417984171971586
100
AcDbArc
 50
254.9743669752874382
 51
345.4216368578449874
  0
ARC
  5
584
100
AcDbEntity
  8
layer 1
 62
256
370
9
 48
1.0
  6
BYLAYER
100
AcDbCircle
 10
11.2268769734123168
 20
139.150465716414999
 30
0.0
 40
0.8417984171971586
100
AcDbArc
 50
254.9743669752874382
 51
345.4216368578449874
  0
ARC
  5
585
100
AcDbEntity
  8
layer 1
 62
256
370
9
 48
1.0
  6
BYLAYER
100
AcDbCircle
 10
11.2268769734123168
 20
204.150465716414999
 30
0.0
 40
0.8417984171971586
100
AcDbArc
 50
254.9743669752874382
 51
345.4216368578449874
  0
ARC
  5
586
100
AcDbEntity
  8
layer 1
 62
256
370
9
 48
1.0
  6
BYLAYER
100
AcDbCircle
 10
75.2268769734123168
 20
10.1504657164150061
 30
0.0
 40
0.8417984171971586
100
AcDbArc
 50
254.9743669752874382
 51
345.4216368578449874
  0
ARC
  5
587
100
AcDbEntity
  8
layer 1
 62
256
370
9
 48
1.0
  6
BYLAYER
100
AcDbCircle
 10
75.2268769734123168
 20
75.150465716414999
 30
0.0
 40
0.8417984171971586
100
AcDbArc
 50
254.9743669752874382
 51
345.4216368578449874
  0
ARC
  5
588
100
AcDbEntity
  8
layer 1
 62
256
370
9
 48
1.0
  6
BYLAYER
100
AcDbCircle
 10
75.2268769734123168
 20
139.150465716414999
 30
0.0
 40
0.8417984171971586
100
AcDbArc
 50
254.9743669752874382
 51
345.4216368578449874
  0
ARC
  5
589
100
AcDbEntity
  8
layer 1
 62
256
370
9
 48
1.0
  6
BYLAYER
100
AcDbCircle
 10
75.2268769734123168
 20
204.150465716414999
 30
0.0
 40
0.8417984171971586
100
AcDbArc
 50
254.9743669752874382
 51
345.4216368578449874
  0
ARC
  5
58A
100
AcDbEntity
  8
layer 1
 62
256
370
9
 48
1.0
  6
BYLAYER
100
AcDbCircle
 10
11.2080725364564842
 20
10.1319131503452624
 30
0.0
 40
0.8191139178481794
100
AcDbArc
 50
163.0743813984181259
 51
255.9083422079224874
  0
ARC
  5
58B
100
AcDbEntity
  8
layer 1
 62
256
370
9
 48
1.0
  6
BYLAYER
100
AcDbCircle
 10
11.2080725364564842
 20
75.1319131503452695
 30
0.0
 40
0.8191139178481794
100
AcDbArc
 50
163.0743813984181259
 51
255.9083422079224874
  0
ARC
  5
58C
100
AcDbEntity
  8
layer 1
 62
256
370
9
 48
1.0
  6
BYLAYER
100
AcDbCircle
 10
11.2080725364564842
 20
139.1319131503452695
 30
0.0
 40
0.8191139178481794
100
AcDbArc
 50
163.0743813984181259
 51
255.9083422079224874
  0
ARC
  5
58D
100
AcDbEntity
  8
layer 1
 62
256
370
9
 48
1.0
  6
BYLAYER
100
AcDbCircle
 10
11.2080725364564842
 20
204.1319131503452695
 30
0.0
 40
0.8191139178481794
100
AcDbArc
 50
163.0743813984181259
 51
255.9083422079224874
  0
ARC
  5
58E
100
AcDbEntity
  8
layer 1
 62
256
370
9
 48
1.0
  6
BYLAYER
100
AcDbCircle
 10
75.2080725364564842
 20
10.1319131503452624
 30
0.0
 40
0.8191139178481794
100
AcDbArc
 50
163.0743813984181259
 51
255.9083422079224874
  0
ARC
  5
58F
100
AcDbEntity
  8
layer 1
 62
256
370
9
 48
1.0
  6
BYLAYER
100
AcDbCircle
 10
75.2080725364564842
 20
75.1319131503452695
 30
0.0
 40
0.8191139178481794
100
AcDbArc
 50
163.0743813984181259
 51
255.9083422079224874
  0
ARC
  5
590
100
AcDbEntity
  8
layer 1
 62
256
370
9
 48
1.0
  6
BYLAYER
100
AcDbCircle
 10
75.2080725364564842
 20
139.1319131503452695
 30
0.0
 40
0.8191139178481794
100
AcDbArc
 50
163.0743813984181259
 51
255.9083422079224874
  0
ARC
  5
591
100
AcDbEntity
  8
layer 1
 62
256
370
9
 48
1.0
  6
BYLAYER
100
AcDbCircle
 10
75.2080725364564842
 20
204.1319131503452695
 30
0.0
 40
0.8191139178481794
100
AcDbArc
 50
163.0743813984181259
 51
255.9083422079224874
  0
LINE
  5
592
100
AcDbEntity
  8
layer 1
 62
256
370
9
 48
1.0
  6
BYLAYER
100
AcDbLine
 10
10.4244397608551935
 20
10.3703817717948255
 30
0.0
 11
11.5081730941885496
 21
14.4597817717948161
 31
0.0
  0
LINE
  5
593
100
AcDbEntity
  8
layer 1
 62
256
370
9
 48
1.0
  6
BYLAYER
100
AcDbLine
 10
10.4244397608551935
 20
75.3703817717948255
 30
0.0
 11
11.5081730941885496
 21
79.4597817717948089
 31
0.0
  0
LINE
  5
594
100
AcDbEntity
  8
layer 1
 62
256
370
9
 48
1.0
  6
BYLAYER
100
AcDbLine
 10
10.4244397608551935
 20
139.3703817717948255
 30
0.0
 11
11.5081730941885496
 21
143.4597817717948089
 31
0.0
  0
LINE
  5
595
100
AcDbEntity
  8
layer 1
 62
256
370
9
 48
1.0
  6
BYLAYER
100
AcDbLine
 10
10.4244397608551935
 20
204.3703817717948255
 30
0.0
 11
11.5081730941885496
 21
208.4597817717948089
 31
0.0
  0
LINE
  5
596
100
AcDbEntity
  8
layer 1
 62
256
370
9
 48
1.0
  6
BYLAYER
100
AcDbLine
 10
74.4244397608551935
 20
10.3703817717948255
 30
0.0
 11
75.5081730941885496
 21
14.4597817717948161
 31
0.0
  0
LINE
  5
597
100
AcDbEntity
  8
layer 1
 62
256
370
9
 48
1.0
  6
BYLAYER
100
AcDbLine
 10
74.4244397608551935
 20
75.3703817717948255
 30
0.0
 11
75.5081730941885496
 21
79.4597817717948089
 31
0.0
  0
LINE
  5
598
100
AcDbEntity
  8
layer 1
 62
256
370
9
 48
1.0
  6
BYLAYER
100
AcDbLine
 10
74.4244397608551935
 20
139.3703817717948255
 30
0.0
 11
75.5081730941885496
 21
143.4597817717948089
 31
0.0
  0
LINE
  5
599
100
AcDbEntity
  8
layer 1
 62
256
370
9
 48
1.0
  6
BYLAYER
100
AcDbLine
 10
74.4244397608551935
 20
204.3703817717948255
 30
0.0
 11
75.5081730941885496
 21
208.4597817717948089
 31
0.0
  0
ARC
  5
59A
100
AcDbEntity
  8
layer 1
 62
256
370
9
 48
1.0
  6
BYLAYER
100
AcDbCircle
 10
12.3228692149647543
 20
14.247897827174647
 30
0.0
 40
0.8417984171971535
100
AcDbArc
 50
74.9743669752870545
 51
165.4216368578454137
  0
ARC
  5
59B
100
AcDbEntity
  8
layer 1
 62
256
370
9
 48
1.0
  6
BYLAYER
100
AcDbCircle
 10
12.3228692149647543
 20
79.2478978271746541
 30
0.0
 40
0.8417984171971535
100
AcDbArc
 50
74.9743669752870545
 51
165.4216368578454137
  0
ARC
  5
59C
100
AcDbEntity
  8
layer 1
 62
256
370
9
 48
1.0
  6
BYLAYER
100
AcDbCircle
 10
12.3228692149647543
 20
143.2478978271746541
 30
0.0
 40
0.8417984171971535
100
AcDbArc
 50
74.9743669752870545
 51
165.4216368578454137
  0
ARC
  5
59D
100
AcDbEntity
  8
layer 1
 62
256
370
9
 48
1.0
  6
BYLAYER
100
AcDbCircle
 10
12.3228692149647543
 20
208.2478978271746541
 30
0.0
 40
0.8417984171971535
100
AcDbArc
 50
74.9743669752870545
 51
165.4216368578454137
  0
ARC
  5
59E
100
AcDbEntity
  8
layer 1
 62
256
370
9
 48
1.0
  6
BYLAYER
100
AcDbCircle
 10
76.3228692149647543
 20
14.247897827174647
 30
0.0
 40
0.8417984171971535
100
AcDbArc
 50
74.9743669752870545
 51
165.4216368578454137
  0
ARC
  5
59F
100
AcDbEntity
  8
layer 1
 62
256
370
9
 48
1.0
  6
BYLAYER
100
AcDbCircle
 10
76.3228692149647543
 20
79.2478978271746541
 30
0.0
 40
0.8417984171971535
100
AcDbArc
 50
74.9743669752870545
 51
165.4216368578454137
  0
ARC
  5
5A0
100
AcDbEntity
  8
layer 1
 62
256
370
9
 48
1.0
  6
BYLAYER
100
AcDbCircle
 10
76.3228692149647543
 20
143.2478978271746541
 30
0.0
 40
0.8417984171971535
100
AcDbArc
 50
74.9743669752870545
 51
165.4216368578454137
  0
ARC
  5
5A1
100
AcDbEntity
  8
layer 1
 62
256
370
9
 48
1.0
  6
BYLAYER
100
AcDbCircle
 10
76.3228692149647543
 20
208.2478978271746541
 30
0.0
 40
0.8417984171971535
100
AcDbArc
 50
74.9743669752870545
 51
165.4216368578454137
  0
ARC
  5
5A2
100
AcDbEntity
  8
layer 1
 62
256
370
9
 48
1.0
  6
BYLAYER
100
AcDbCircle
 10
15.7077867005528446
 20
14.2415036246789484
 30
0.0
 40
0.8484274793267756
100
AcDbArc
 50
345.4237757286069268
 51
74.972228104525783
  0
ARC
  5
5A3
100
AcDbEntity
  8
layer 1
 62
256
370
9
 48
1.0
  6
BYLAYER
100
AcDbCircle
 10
15.7077867005528446
 20
79.2415036246789555
 30
0.0
 40
0.8484274793267756
100
AcDbArc
 50
345.4237757286069268
 51
74.972228104525783
  0
ARC
  5
5A4
100
AcDbEntity
  8
layer 1
 62
256
370
9
 48
1.0
  6
BYLAYER
100
AcDbCircle
 10
15.7077867005528446
 20
143.2415036246789555
 30
0.0
 40
0.8484274793267756
100
AcDbArc
 50
345.4237757286069268
 51
74.972228104525783
  0
ARC
  5
5A5
100
AcDbEntity
  8
layer 1
 62
256
370
9
 48
1.0
  6
BYLAYER
100
AcDbCircle
 10
15.7077867005528446
 20
208.2415036246789555
 30
0.0
 40
0.8484274793267756
100
AcDbArc
 50
345.4237757286069268
 51
74.972228104525783
  0
ARC
  5
5A6
100
AcDbEntity
  8
layer 1
 62
256
370
9
 48
1.0
  6
BYLAYER
100
AcDbCircle
 10
79.7077867005528446
 20
14.2415036246789484
 30
0.0
 40
0.8484274793267756
100
AcDbArc
 50
345.4237757286069268
 51
74.972228104525783
  0
ARC
  5
5A7
100
AcDbEntity
  8
layer 1
 62
256
370
9
 48
1.0
  6
BYLAYER
100
AcDbCircle
 10
79.7077867005528446
 20
79.2415036246789555
 30
0.0
 40
0.8484274793267756
100
AcDbArc
 50
345.4237757286069268
 51
74.972228104525783
  0
ARC
  5
5A8
100
AcDbEntity
  8
layer 1
 62
256
370
9
 48
1.0
  6
BYLAYER
100
AcDbCircle
 10
79.7077867005528446
 20
143.2415036246789555
 30
0.0
 40
0.8484274793267756
100
AcDbArc
 50
345.4237757286069268
 51
74.972228104525783
  0
ARC
  5
5A9
100
AcDbEntity
  8
layer 1
 62
256
370
9
 48
1.0
  6
BYLAYER
100
AcDbCircle
 10
79.7077867005528446
 20
208.2415036246789555
 30
0.0
 40
0.8484274793267756
100
AcDbArc
 50
345.4237757286069268
 51
74.972228104525783
  0
LINE
  5
5AA
100
AcDbEntity
  8
layer 1
 62
256
370
9
 48
1.0
  6
BYLAYER
100
AcDbLine
 10
16.5289064275218891
 20
14.0279817717948063
 30
0.0
 11
14.7763064275218596
 21
7.4832484384614801
 31
0.0
  0
LINE
  5
5AB
100
AcDbEntity
  8
layer 1
 62
256
370
9
 48
1.0
  6
BYLAYER
100
AcDbLine
 10
16.5289064275218891
 20
79.0279817717947992
 30
0.0
 11
14.7763064275218596
 21
72.4832484384614872
 31
0.0
  0
LINE
  5
5AC
100
AcDbEntity
  8
layer 1
 62
256
370
9
 48
1.0
  6
BYLAYER
100
AcDbLine
 10
16.5289064275218891
 20
143.0279817717947992
 30
0.0
 11
14.7763064275218596
 21
136.4832484384614872
 31
0.0
  0
LINE
  5
5AD
100
AcDbEntity
  8
layer 1
 62
256
370
9
 48
1.0
  6
BYLAYER
100
AcDbLine
 10
16.5289064275218891
 20
208.0279817717947992
 30
0.0
 11
14.7763064275218596
 21
201.4832484384614872
 31
0.0
  0
LINE
  5
5AE
100
AcDbEntity
  8
layer 1
 62
256
370
9
 48
1.0
  6
BYLAYER
100
AcDbLine
 10
80.5289064275218891
 20
14.0279817717948063
 30
0.0
 11
78.7763064275218596
 21
7.4832484384614801
 31
0.0
  0
LINE
  5
5AF
100
AcDbEntity
  8
layer 1
 62
256
370
9
 48
1.0
  6
BYLAYER
100
AcDbLine
 10
80.5289064275218891
 20
79.0279817717947992
 30
0.0
 11
78.7763064275218596
 21
72.4832484384614872
 31
0.0
  0
LINE
  5
5B0
100
AcDbEntity
  8
layer 1
 62
256
370
9
 48
1.0
  6
BYLAYER
100
AcDbLine
 10
80.5289064275218891
 20
143.0279817717947992
 30
0.0
 11
78.7763064275218596
 21
136.4832484384614872
 31
0.0
  0
LINE
  5
5B1
100
AcDbEntity
  8
layer 1
 62
256
370
9
 48
1.0
  6
BYLAYER
100
AcDbLine
 10
80.5289064275218891
 20
208.0279817717947992
 30
0.0
 11
78.7763064275218596
 21
201.4832484384614872
 31
0.0
  0
ARC
  5
5B2
100
AcDbEntity
  8
layer 1
 62
256
370
9
 48
1.0
  6
BYLAYER
100
AcDbCircle
 10
13.9620904422408785
 20
7.6911672110844194
 30
0.0
 40
0.8403439097751133
100
AcDbArc
 50
254.3151147683591375
 51
345.6750444659203367
  0
ARC
  5
5B3
100
AcDbEntity
  8
layer 1
 62
256
370
9
 48
1.0
  6
BYLAYER
100
AcDbCircle
 10
13.9620904422408785
 20
72.6911672110844194
 30
0.0
 40
0.8403439097751133
100
AcDbArc
 50
254.3151147683591375
 51
345.6750444659203367
  0
ARC
  5
5B4
100
AcDbEntity
  8
layer 1
 62
256
370
9
 48
1.0
  6
BYLAYER
100
AcDbCircle
 10
13.9620904422408785
 20
136.6911672110844052
 30
0.0
 40
0.8403439097751133
100
AcDbArc
 50
254.3151147683591375
 51
345.6750444659203367
  0
ARC
  5
5B5
100
AcDbEntity
  8
layer 1
 62
256
370
9
 48
1.0
  6
BYLAYER
100
AcDbCircle
 10
13.9620904422408785
 20
201.6911672110844052
 30
0.0
 40
0.8403439097751133
100
AcDbArc
 50
254.3151147683591375
 51
345.6750444659203367
  0
ARC
  5
5B6
100
AcDbEntity
  8
layer 1
 62
256
370
9
 48
1.0
  6
BYLAYER
100
AcDbCircle
 10
77.9620904422408785
 20
7.6911672110844194
 30
0.0
 40
0.8403439097751133
100
AcDbArc
 50
254.3151147683591375
 51
345.6750444659203367
  0
ARC
  5
5B7
100
AcDbEntity
  8
layer 1
 62
256
370
9
 48
1.0
  6
BYLAYER
100
AcDbCircle
 10
77.9620904422408785
 20
72.6911672110844194
 30
0.0
 40
0.8403439097751133
100
AcDbArc
 50
254.3151147683591375
 51
345.6750444659203367
  0
ARC
  5
5B8
100
AcDbEntity
  8
layer 1
 62
256
370
9
 48
1.0
  6
BYLAYER
100
AcDbCircle
 10
77.9620904422408785
 20
136.6911672110844052
 30
0.0
 40
0.8403439097751133
100
AcDbArc
 50
254.3151147683591375
 51
345.6750444659203367
  0
ARC
  5
5B9
100
AcDbEntity
  8
layer 1
 62
256
370
9
 48
1.0
  6
BYLAYER
100
AcDbCircle
 10
77.9620904422408785
 20
201.6911672110844052
 30
0.0
 40
0.8403439097751133
100
AcDbArc
 50
254.3151147683591375
 51
345.6750444659203367
  0
ARC
  5
5BA
100
AcDbEntity
  8
layer 1
 62
256
370
9
 48
1.0
  6
BYLAYER
100
AcDbCircle
 10
13.9685007372546579
 20
7.7111519289034405
 30
0.0
 40
0.8613178023905799
100
AcDbArc
 50
165.726185699521892
 51
254.2639735347579801
  0
ARC
  5
5BB
100
AcDbEntity
  8
layer 1
 62
256
370
9
 48
1.0
  6
BYLAYER
100
AcDbCircle
 10
13.9685007372546579
 20
72.7111519289034334
 30
0.0
 40
0.8613178023905799
100
AcDbArc
 50
165.726185699521892
 51
254.2639735347579801
  0
ARC
  5
5BC
100
AcDbEntity
  8
layer 1
 62
256
370
9
 48
1.0
  6
BYLAYER
100
AcDbCircle
 10
13.9685007372546579
 20
136.7111519289034334
 30
0.0
 40
0.8613178023905799
100
AcDbArc
 50
165.726185699521892
 51
254.2639735347579801
  0
ARC
  5
5BD
100
AcDbEntity
  8
layer 1
 62
256
370
9
 48
1.0
  6
BYLAYER
100
AcDbCircle
 10
13.9685007372546579
 20
201.7111519289034334
 30
0.0
 40
0.8613178023905799
100
AcDbArc
 50
165.726185699521892
 51
254.2639735347579801
  0
ARC
  5
5BE
100
AcDbEntity
  8
layer 1
 62
256
370
9
 48
1.0
  6
BYLAYER
100
AcDbCircle
 10
77.9685007372546579
 20
7.7111519289034405
 30
0.0
 40
0.8613178023905799
100
AcDbArc
 50
165.726185699521892
 51
254.2639735347579801
  0
ARC
  5
5BF
100
AcDbEntity
  8
layer 1
 62
256
370
9
 48
1.0
  6
BYLAYER
100
AcDbCircle
 10
77.9685007372546579
 20
72.7111519289034334
 30
0.0
 40
0.8613178023905799
100
AcDbArc
 50
165.726185699521892
 51
254.2639735347579801
  0
ARC
  5
5C0
100
AcDbEntity
  8
layer 1
 62
256
370
9
 48
1.0
  6
BYLAYER
100
AcDbCircle
 10
77.9685007372546579
 20
136.7111519289034334
 30
0.0
 40
0.8613178023905799
100
AcDbArc
 50
165.726185699521892
 51
254.2639735347579801
  0
ARC
  5
5C1
100
AcDbEntity
  8
layer 1
 62
256
370
9
 48
1.0
  6
BYLAYER
100
AcDbCircle
 10
77.9685007372546579
 20
201.7111519289034334
 30
0.0
 40
0.8613178023905799
100
AcDbArc
 50
165.726185699521892
 51
254.2639735347579801
  0
LINE
  5
5C2
100
AcDbEntity
  8
layer 1
 62
256
370
9
 48
1.0
  6
BYLAYER
100
AcDbLine
 10
13.1337730941885411
 20
7.9235151051281534
 30
0.0
 11
14.8948397608552341
 21
14.4597817717948161
 31
0.0
  0
LINE
  5
5C3
100
AcDbEntity
  8
layer 1
 62
256
370
9
 48
1.0
  6
BYLAYER
100
AcDbLine
 10
13.1337730941885411
 20
72.9235151051281605
 30
0.0
 11
14.8948397608552341
 21
79.4597817717948089
 31
0.0
  0
LINE
  5
5C4
100
AcDbEntity
  8
layer 1
 62
256
370
9
 48
1.0
  6
BYLAYER
100
AcDbLine
 10
13.1337730941885411
 20
136.9235151051281605
 30
0.0
 11
14.8948397608552341
 21
143.4597817717948089
 31
0.0
  0
LINE
  5
5C5
100
AcDbEntity
  8
layer 1
 62
256
370
9
 48
1.0
  6
BYLAYER
100
AcDbLine
 10
13.1337730941885411
 20
201.9235151051281605
 30
0.0
 11
14.8948397608552341
 21
208.4597817717948089
 31
0.0
  0
LINE
  5
5C6
100
AcDbEntity
  8
layer 1
 62
256
370
9
 48
1.0
  6
BYLAYER
100
AcDbLine
 10
77.1337730941885411
 20
7.9235151051281534
 30
0.0
 11
78.8948397608552341
 21
14.4597817717948161
 31
0.0
  0
LINE
  5
5C7
100
AcDbEntity
  8
layer 1
 62
256
370
9
 48
1.0
  6
BYLAYER
100
AcDbLine
 10
77.1337730941885411
 20
72.9235151051281605
 30
0.0
 11
78.8948397608552341
 21
79.4597817717948089
 31
0.0
  0
LINE
  5
5C8
100
AcDbEntity
  8
layer 1
 62
256
370
9
 48
1.0
  6
BYLAYER
100
AcDbLine
 10
77.1337730941885411
 20
136.9235151051281605
 30
0.0
 11
78.8948397608552341
 21
143.4597817717948089
 31
0.0
  0
LINE
  5
5C9
100
AcDbEntity
  8
layer 1
 62
256
370
9
 48
1.0
  6
BYLAYER
100
AcDbLine
 10
77.1337730941885411
 20
201.9235151051281605
 30
0.0
 11
78.8948397608552341
 21
208.4597817717948089
 31
0.0
  0
ARC
  5
5CA
100
AcDbEntity
  8
layer 1
 62
256
370
9
 48
1.0
  6
BYLAYER
100
AcDbCircle
 10
15.7095358816314388
 20
14.247897827174647
 30
0.0
 40
0.8417984171971549
100
AcDbArc
 50
74.9743669752870545
 51
165.4216368578453284
  0
ARC
  5
5CB
100
AcDbEntity
  8
layer 1
 62
256
370
9
 48
1.0
  6
BYLAYER
100
AcDbCircle
 10
15.7095358816314388
 20
79.2478978271746541
 30
0.0
 40
0.8417984171971549
100
AcDbArc
 50
74.9743669752870545
 51
165.4216368578453284
  0
ARC
  5
5CC
100
AcDbEntity
  8
layer 1
 62
256
370
9
 48
1.0
  6
BYLAYER
100
AcDbCircle
 10
15.7095358816314388
 20
143.2478978271746541
 30
0.0
 40
0.8417984171971549
100
AcDbArc
 50
74.9743669752870545
 51
165.4216368578453284
  0
ARC
  5
5CD
100
AcDbEntity
  8
layer 1
 62
256
370
9
 48
1.0
  6
BYLAYER
100
AcDbCircle
 10
15.7095358816314388
 20
208.2478978271746541
 30
0.0
 40
0.8417984171971549
100
AcDbArc
 50
74.9743669752870545
 51
165.4216368578453284
  0
ARC
  5
5CE
100
AcDbEntity
  8
layer 1
 62
256
370
9
 48
1.0
  6
BYLAYER
100
AcDbCircle
 10
79.7095358816314388
 20
14.247897827174647
 30
0.0
 40
0.8417984171971549
100
AcDbArc
 50
74.9743669752870545
 51
165.4216368578453284
  0
ARC
  5
5CF
100
AcDbEntity
  8
layer 1
 62
256
370
9
 48
1.0
  6
BYLAYER
100
AcDbCircle
 10
79.7095358816314388
 20
79.2478978271746541
 30
0.0
 40
0.8417984171971549
100
AcDbArc
 50
74.9743669752870545
 51
165.4216368578453284
  0
ARC
  5
5D0
100
AcDbEntity
  8
layer 1
 62
256
370
9
 48
1.0
  6
BYLAYER
100
AcDbCircle
 10
79.7095358816314388
 20
143.2478978271746541
 30
0.0
 40
0.8417984171971549
100
AcDbArc
 50
74.9743669752870545
 51
165.4216368578453284
  0
ARC
  5
5D1
100
AcDbEntity
  8
layer 1
 62
256
370
9
 48
1.0
  6
BYLAYER
100
AcDbCircle
 10
79.7095358816314388
 20
208.2478978271746541
 30
0.0
 40
0.8417984171971549
100
AcDbArc
 50
74.9743669752870545
 51
165.4216368578453284
  0
ARC
  5
5D2
100
AcDbEntity
  8
layer 1
 62
256
370
9
 48
1.0
  6
BYLAYER
100
AcDbCircle
 10
19.0944533672195291
 20
14.2415036246789484
 30
0.0
 40
0.8484274793267756
100
AcDbArc
 50
345.42377572860687
 51
74.9722281045256835
  0
ARC
  5
5D3
100
AcDbEntity
  8
layer 1
 62
256
370
9
 48
1.0
  6
BYLAYER
100
AcDbCircle
 10
19.0944533672195291
 20
79.2415036246789555
 30
0.0
 40
0.8484274793267756
100
AcDbArc
 50
345.42377572860687
 51
74.9722281045256835
  0
ARC
  5
5D4
100
AcDbEntity
  8
layer 1
 62
256
370
9
 48
1.0
  6
BYLAYER
100
AcDbCircle
 10
19.0944533672195291
 20
143.2415036246789555
 30
0.0
 40
0.8484274793267756
100
AcDbArc
 50
345.42377572860687
 51
74.9722281045256835
  0
ARC
  5
5D5
100
AcDbEntity
  8
layer 1
 62
256
370
9
 48
1.0
  6
BYLAYER
100
AcDbCircle
 10
19.0944533672195291
 20
208.2415036246789555
 30
0.0
 40
0.8484274793267756
100
AcDbArc
 50
345.42377572860687
 51
74.9722281045256835
  0
ARC
  5
5D6
100
AcDbEntity
  8
layer 1
 62
256
370
9
 48
1.0
  6
BYLAYER
100
AcDbCircle
 10
83.0944533672195291
 20
14.2415036246789484
 30
0.0
 40
0.8484274793267756
100
AcDbArc
 50
345.42377572860687
 51
74.9722281045256835
  0
ARC
  5
5D7
100
AcDbEntity
  8
layer 1
 62
256
370
9
 48
1.0
  6
BYLAYER
100
AcDbCircle
 10
83.0944533672195291
 20
79.2415036246789555
 30
0.0
 40
0.8484274793267756
100
AcDbArc
 50
345.42377572860687
 51
74.9722281045256835
  0
ARC
  5
5D8
100
AcDbEntity
  8
layer 1
 62
256
370
9
 48
1.0
  6
BYLAYER
100
AcDbCircle
 10
83.0944533672195291
 20
143.2415036246789555
 30
0.0
 40
0.8484274793267756
100
AcDbArc
 50
345.42377572860687
 51
74.9722281045256835
  0
ARC
  5
5D9
100
AcDbEntity
  8
layer 1
 62
256
370
9
 48
1.0
  6
BYLAYER
100
AcDbCircle
 10
83.0944533672195291
 20
208.2415036246789555
 30
0.0
 40
0.8484274793267756
100
AcDbArc
 50
345.42377572860687
 51
74.9722281045256835
  0
LINE
  5
5DA
100
AcDbEntity
  8
layer 1
 62
256
370
9
 48
1.0
  6
BYLAYER
100
AcDbLine
 10
19.9155730941884883
 20
14.0279817717948063
 30
0.0
 11
18.8149064275218905
 21
9.9385817717948157
 31
0.0
  0
LINE
  5
5DB
100
AcDbEntity
  8
layer 1
 62
256
370
9
 48
1.0
  6
BYLAYER
100
AcDbLine
 10
19.9155730941884883
 20
79.0279817717947992
 30
0.0
 11
18.8149064275218905
 21
74.9385817717948157
 31
0.0
  0
LINE
  5
5DC
100
AcDbEntity
  8
layer 1
 62
256
370
9
 48
1.0
  6
BYLAYER
100
AcDbLine
 10
19.9155730941884883
 20
143.0279817717947992
 30
0.0
 11
18.8149064275218905
 21
138.9385817717948157
 31
0.0
  0
LINE
  5
5DD
100
AcDbEntity
  8
layer 1
 62
256
370
9
 48
1.0
  6
BYLAYER
100
AcDbLine
 10
19.9155730941884883
 20
208.0279817717947992
 30
0.0
 11
18.8149064275218905
 21
203.9385817717948157
 31
0.0
  0
LINE
  5
5DE
100
AcDbEntity
  8
layer 1
 62
256
370
9
 48
1.0
  6
BYLAYER
100
AcDbLine
 10
83.9155730941884883
 20
14.0279817717948063
 30
0.0
 11
82.8149064275218905
 21
9.9385817717948157
 31
0.0
  0
LINE
  5
5DF
100
AcDbEntity
  8
layer 1
 62
256
370
9
 48
1.0
  6
BYLAYER
100
AcDbLine
 10
83.9155730941884883
 20
79.0279817717947992
 30
0.0
 11
82.8149064275218905
 21
74.9385817717948157
 31
0.0
  0
LINE
  5
5E0
100
AcDbEntity
  8
layer 1
 62
256
370
9
 48
1.0
  6
BYLAYER
100
AcDbLine
 10
83.9155730941884883
 20
143.0279817717947992
 30
0.0
 11
82.8149064275218905
 21
138.9385817717948157
 31
0.0
  0
LINE
  5
5E1
100
AcDbEntity
  8
layer 1
 62
256
370
9
 48
1.0
  6
BYLAYER
100
AcDbLine
 10
83.9155730941884883
 20
208.0279817717947992
 30
0.0
 11
82.8149064275218905
 21
203.9385817717948157
 31
0.0
  0
ARC
  5
5E2
100
AcDbEntity
  8
layer 1
 62
256
370
9
 48
1.0
  6
BYLAYER
100
AcDbCircle
 10
18.0002103067456005
 20
10.1504657164150061
 30
0.0
 40
0.8417984171971624
100
AcDbArc
 50
254.9743669752875235
 51
345.4216368578448737
  0
ARC
  5
5E3
100
AcDbEntity
  8
layer 1
 62
256
370
9
 48
1.0
  6
BYLAYER
100
AcDbCircle
 10
18.0002103067456005
 20
75.150465716414999
 30
0.0
 40
0.8417984171971624
100
AcDbArc
 50
254.9743669752875235
 51
345.4216368578448737
  0
ARC
  5
5E4
100
AcDbEntity
  8
layer 1
 62
256
370
9
 48
1.0
  6
BYLAYER
100
AcDbCircle
 10
18.0002103067456005
 20
139.150465716414999
 30
0.0
 40
0.8417984171971624
100
AcDbArc
 50
254.9743669752875235
 51
345.4216368578448737
  0
ARC
  5
5E5
100
AcDbEntity
  8
layer 1
 62
256
370
9
 48
1.0
  6
BYLAYER
100
AcDbCircle
 10
18.0002103067456005
 20
204.150465716414999
 30
0.0
 40
0.8417984171971624
100
AcDbArc
 50
254.9743669752875235
 51
345.4216368578448737
  0
ARC
  5
5E6
100
AcDbEntity
  8
layer 1
 62
256
370
9
 48
1.0
  6
BYLAYER
100
AcDbCircle
 10
82.0002103067456005
 20
10.1504657164150061
 30
0.0
 40
0.8417984171971624
100
AcDbArc
 50
254.9743669752875235
 51
345.4216368578448737
  0
ARC
  5
5E7
100
AcDbEntity
  8
layer 1
 62
256
370
9
 48
1.0
  6
BYLAYER
100
AcDbCircle
 10
82.0002103067456005
 20
75.150465716414999
 30
0.0
 40
0.8417984171971624
100
AcDbArc
 50
254.9743669752875235
 51
345.4216368578448737
  0
ARC
  5
5E8
100
AcDbEntity
  8
layer 1
 62
256
370
9
 48
1.0
  6
BYLAYER
100
AcDbCircle
 10
82.0002103067456005
 20
139.150465716414999
 30
0.0
 40
0.8417984171971624
100
AcDbArc
 50
254.9743669752875235
 51
345.4216368578448737
  0
ARC
  5
5E9
100
AcDbEntity
  8
layer 1
 62
256
370
9
 48
1.0
  6
BYLAYER
100
AcDbCircle
 10
82.0002103067456005
 20
204.150465716414999
 30
0.0
 40
0.8417984171971624
100
AcDbArc
 50
254.9743669752875235
 51
345.4216368578448737
  0
ARC
  5
5EA
100
AcDbEntity
  8
layer 1
 62
256
370
9
 48
1.0
  6
BYLAYER
100
AcDbCircle
 10
17.9814058697897678
 20
10.1319131503452624
 30
0.0
 40
0.819113917848186
100
AcDbArc
 50
163.0743813984180974
 51
255.9083422079218906
  0
ARC
  5
5EB
100
AcDbEntity
  8
layer 1
 62
256
370
9
 48
1.0
  6
BYLAYER
100
AcDbCircle
 10
17.9814058697897678
 20
75.1319131503452695
 30
0.0
 40
0.819113917848186
100
AcDbArc
 50
163.0743813984180974
 51
255.9083422079218906
  0
ARC
  5
5EC
100
AcDbEntity
  8
layer 1
 62
256
370
9
 48
1.0
  6
BYLAYER
100
AcDbCircle
 10
17.9814058697897678
 20
139.1319131503452695
 30
0.0
 40
0.819113917848186
100
AcDbArc
 50
163.0743813984180974
 51
255.9083422079218906
  0
ARC
  5
5ED
100
AcDbEntity
  8
layer 1
 62
256
370
9
 48
1.0
  6
BYLAYER
100
AcDbCircle
 10
17.9814058697897678
 20
204.1319131503452695
 30
0.0
 40
0.819113917848186
100
AcDbArc
 50
163.0743813984180974
 51
255.9083422079218906
  0
ARC
  5
5EE
100
AcDbEntity
  8
layer 1
 62
256
370
9
 48
1.0
  6
BYLAYER
100
AcDbCircle
 10
81.9814058697897678
 20
10.1319131503452624
 30
0.0
 40
0.819113917848186
100
AcDbArc
 50
163.0743813984180974
 51
255.9083422079218906
  0
ARC
  5
5EF
100
AcDbEntity
  8
layer 1
 62
256
370
9
 48
1.0
  6
BYLAYER
100
AcDbCircle
 10
81.9814058697897678
 20
75.1319131503452695
 30
0.0
 40
0.819113917848186
100
AcDbArc
 50
163.0743813984180974
 51
255.9083422079218906
  0
ARC
  5
5F0
100
AcDbEntity
  8
layer 1
 62
256
370
9
 48
1.0
  6
BYLAYER
100
AcDbCircle
 10
81.9814058697897678
 20
139.1319131503452695
 30
0.0
 40
0.819113917848186
100
AcDbArc
 50
163.0743813984180974
 51
255.9083422079218906
  0
ARC
  5
5F1
100
AcDbEntity
  8
layer 1
 62
256
370
9
 48
1.0
  6
BYLAYER
100
AcDbCircle
 10
81.9814058697897678
 20
204.1319131503452695
 30
0.0
 40
0.819113917848186
100
AcDbArc
 50
163.0743813984180974
 51
255.9083422079218906
  0
LINE
  5
5F2
100
AcDbEntity
  8
layer 1
 62
256
370
9
 48
1.0
  6
BYLAYER
100
AcDbLine
 10
17.1977730941885625
 20
10.3703817717948255
 30
0.0
 11
18.2815064275218333
 21
14.4597817717948161
 31
0.0
  0
LINE
  5
5F3
100
AcDbEntity
  8
layer 1
 62
256
370
9
 48
1.0
  6
BYLAYER
100
AcDbLine
 10
17.1977730941885625
 20
75.3703817717948255
 30
0.0
 11
18.2815064275218333
 21
79.4597817717948089
 31
0.0
  0
LINE
  5
5F4
100
AcDbEntity
  8
layer 1
 62
256
370
9
 48
1.0
  6
BYLAYER
100
AcDbLine
 10
17.1977730941885625
 20
139.3703817717948255
 30
0.0
 11
18.2815064275218333
 21
143.4597817717948089
 31
0.0
  0
LINE
  5
5F5
100
AcDbEntity
  8
layer 1
 62
256
370
9
 48
1.0
  6
BYLAYER
100
AcDbLine
 10
17.1977730941885625
 20
204.3703817717948255
 30
0.0
 11
18.2815064275218333
 21
208.4597817717948089
 31
0.0
  0
LINE
  5
5F6
100
AcDbEntity
  8
layer 1
 62
256
370
9
 48
1.0
  6
BYLAYER
100
AcDbLine
 10
81.1977730941885625
 20
10.3703817717948255
 30
0.0
 11
82.2815064275218333
 21
14.4597817717948161
 31
0.0
  0
LINE
  5
5F7
100
AcDbEntity
  8
layer 1
 62
256
370
9
 48
1.0
  6
BYLAYER
100
AcDbLine
 10
81.1977730941885625
 20
75.3703817717948255
 30
0.0
 11
82.2815064275218333
 21
79.4597817717948089
 31
0.0
  0
LINE
  5
5F8
100
AcDbEntity
  8
layer 1
 62
256
370
9
 48
1.0
  6
BYLAYER
100
AcDbLine
 10
81.1977730941885625
 20
139.3703817717948255
 30
0.0
 11
82.2815064275218333
 21
143.4597817717948089
 31
0.0
  0
LINE
  5
5F9
100
AcDbEntity
  8
layer 1
 62
256
370
9
 48
1.0
  6
BYLAYER
100
AcDbLine
 10
81.1977730941885625
 20
204.3703817717948255
 30
0.0
 11
82.2815064275218333
 21
208.4597817717948089
 31
0.0
  0
ARC
  5
5FA
100
AcDbEntity
  8
layer 1
 62
256
370
9
 48
1.0
  6
BYLAYER
100
AcDbCircle
 10
19.0962025482981232
 20
14.247897827174647
 30
0.0
 40
0.8417984171971507
100
AcDbArc
 50
74.9743669752866566
 51
165.4216368578457264
  0
ARC
  5
5FB
100
AcDbEntity
  8
layer 1
 62
256
370
9
 48
1.0
  6
BYLAYER
100
AcDbCircle
 10
19.0962025482981232
 20
79.2478978271746541
 30
0.0
 40
0.8417984171971507
100
AcDbArc
 50
74.9743669752866566
 51
165.4216368578457264
  0
ARC
  5
5FC
100
AcDbEntity
  8
layer 1
 62
256
370
9
 48
1.0
  6
BYLAYER
100
AcDbCircle
 10
19.0962025482981232
 20
143.2478978271746541
 30
0.0
 40
0.8417984171971507
100
AcDbArc
 50
74.9743669752866566
 51
165.4216368578457264
  0
ARC
  5
5FD
100
AcDbEntity
  8
layer 1
 62
256
370
9
 48
1.0
  6
BYLAYER
100
AcDbCircle
 10
19.0962025482981232
 20
208.2478978271746541
 30
0.0
 40
0.8417984171971507
100
AcDbArc
 50
74.9743669752866566
 51
165.4216368578457264
  0
ARC
  5
5FE
100
AcDbEntity
  8
layer 1
 62
256
370
9
 48
1.0
  6
BYLAYER
100
AcDbCircle
 10
83.0962025482981232
 20
14.247897827174647
 30
0.0
 40
0.8417984171971507
100
AcDbArc
 50
74.9743669752866566
 51
165.4216368578457264
  0
ARC
  5
5FF
100
AcDbEntity
  8
layer 1
 62
256
370
9
 48
1.0
  6
BYLAYER
100
AcDbCircle
 10
83.0962025482981232
 20
79.2478978271746541
 30
0.0
 40
0.8417984171971507
100
AcDbArc
 50
74.9743669752866566
 51
165.4216368578457264
  0
ARC
  5
600
100
AcDbEntity
  8
layer 1
 62
256
370
9
 48
1.0
  6
BYLAYER
100
AcDbCircle
 10
83.0962025482981232
 20
143.2478978271746541
 30
0.0
 40
0.8417984171971507
100
AcDbArc
 50
74.9743669752866566
 51
165.4216368578457264
  0
ARC
  5
601
100
AcDbEntity
  8
layer 1
 62
256
370
9
 48
1.0
  6
BYLAYER
100
AcDbCircle
 10
83.0962025482981232
 20
208.2478978271746541
 30
0.0
 40
0.8417984171971507
100
AcDbArc
 50
74.9743669752866566
 51
165.4216368578457264
  0
LINE
  5
602
100
AcDbEntity
  8
layer 1
 62
256
370
9
 48
1.0
  6
BYLAYER
100
AcDbLine
 10
19.3144397608552083
 20
16.7542484384614809
 30
0.0
 11
19.3144397608552083
 21
17.600915105128152
 31
0.0
  0
LINE
  5
603
100
AcDbEntity
  8
layer 1
 62
256
370
9
 48
1.0
  6
BYLAYER
100
AcDbLine
 10
19.3144397608552083
 20
81.7542484384614738
 30
0.0
 11
19.3144397608552083
 21
82.600915105128152
 31
0.0
  0
LINE
  5
604
100
AcDbEntity
  8
layer 1
 62
256
370
9
 48
1.0
  6
BYLAYER
100
AcDbLine
 10
19.3144397608552083
 20
145.7542484384614738
 30
0.0
 11
19.3144397608552083
 21
146.6009151051281378
 31
0.0
  0
LINE
  5
605
100
AcDbEntity
  8
layer 1
 62
256
370
9
 48
1.0
  6
BYLAYER
100
AcDbLine
 10
19.3144397608552083
 20
210.7542484384614738
 30
0.0
 11
19.3144397608552083
 21
211.6009151051281378
 31
0.0
  0
LINE
  5
606
100
AcDbEntity
  8
layer 1
 62
256
370
9
 48
1.0
  6
BYLAYER
100
AcDbLine
 10
83.3144397608552083
 20
16.7542484384614809
 30
0.0
 11
83.3144397608552083
 21
17.600915105128152
 31
0.0
  0
LINE
  5
607
100
AcDbEntity
  8
layer 1
 62
256
370
9
 48
1.0
  6
BYLAYER
100
AcDbLine
 10
83.3144397608552083
 20
81.7542484384614738
 30
0.0
 11
83.3144397608552083
 21
82.600915105128152
 31
0.0
  0
LINE
  5
608
100
AcDbEntity
  8
layer 1
 62
256
370
9
 48
1.0
  6
BYLAYER
100
AcDbLine
 10
83.3144397608552083
 20
145.7542484384614738
 30
0.0
 11
83.3144397608552083
 21
146.6009151051281378
 31
0.0
  0
LINE
  5
609
100
AcDbEntity
  8
layer 1
 62
256
370
9
 48
1.0
  6
BYLAYER
100
AcDbLine
 10
83.3144397608552083
 20
210.7542484384614738
 30
0.0
 11
83.3144397608552083
 21
211.6009151051281378
 31
0.0
  0
ARC
  5
60A
100
AcDbEntity
  8
layer 1
 62
256
370
9
 48
1.0
  6
BYLAYER
100
AcDbCircle
 10
15.0811064275218314
 20
17.600915105128152
 30
0.0
 40
4.2333333333333325
100
AcDbArc
 50
0.0
 51
90.0000000000000142
  0
ARC
  5
60B
100
AcDbEntity
  8
layer 1
 62
256
370
9
 48
1.0
  6
BYLAYER
100
AcDbCircle
 10
15.0811064275218314
 20
82.600915105128152
 30
0.0
 40
4.2333333333333325
100
AcDbArc
 50
0.0
 51
90.0000000000000142
  0
ARC
  5
60C
100
AcDbEntity
  8
layer 1
 62
256
370
9
 48
1.0
  6
BYLAYER
100
AcDbCircle
 10
15.0811064275218314
 20
146.6009151051281378
 30
0.0
 40
4.2333333333333325
100
AcDbArc
 50
0.0
 51
90.0000000000000142
  0
ARC
  5
60D
100
AcDbEntity
  8
layer 1
 62
256
370
9
 48
1.0
  6
BYLAYER
100
AcDbCircle
 10
15.0811064275218314
 20
211.6009151051281378
 30
0.0
 40
4.2333333333333325
100
AcDbArc
 50
0.0
 51
90.0000000000000142
  0
ARC
  5
60E
100
AcDbEntity
  8
layer 1
 62
256
370
9
 48
1.0
  6
BYLAYER
100
AcDbCircle
 10
79.0811064275218314
 20
17.600915105128152
 30
0.0
 40
4.2333333333333325
100
AcDbArc
 50
0.0
 51
90.0000000000000142
  0
ARC
  5
60F
100
AcDbEntity
  8
layer 1
 62
256
370
9
 48
1.0
  6
BYLAYER
100
AcDbCircle
 10
79.0811064275218314
 20
82.600915105128152
 30
0.0
 40
4.2333333333333325
100
AcDbArc
 50
0.0
 51
90.0000000000000142
  0
ARC
  5
610
100
AcDbEntity
  8
layer 1
 62
256
370
9
 48
1.0
  6
BYLAYER
100
AcDbCircle
 10
79.0811064275218314
 20
146.6009151051281378
 30
0.0
 40
4.2333333333333325
100
AcDbArc
 50
0.0
 51
90.0000000000000142
  0
ARC
  5
611
100
AcDbEntity
  8
layer 1
 62
256
370
9
 48
1.0
  6
BYLAYER
100
AcDbCircle
 10
79.0811064275218314
 20
211.6009151051281378
 30
0.0
 40
4.2333333333333325
100
AcDbArc
 50
0.0
 51
90.0000000000000142
  0
ARC
  5
612
100
AcDbEntity
  8
layer 1
 62
256
370
9
 48
1.0
  6
BYLAYER
100
AcDbCircle
 10
15.0785504946917968
 20
17.5978968015912329
 30
0.0
 40
4.2363524079101076
100
AcDbArc
 50
89.9654315414149721
 51
170.6423308189228862
  0
ARC
  5
613
100
AcDbEntity
  8
layer 1
 62
256
370
9
 48
1.0
  6
BYLAYER
100
AcDbCircle
 10
15.0785504946917968
 20
82.5978968015912329
 30
0.0
 40
4.2363524079101076
100
AcDbArc
 50
89.9654315414149721
 51
170.6423308189228862
  0
ARC
  5
614
100
AcDbEntity
  8
layer 1
 62
256
370
9
 48
1.0
  6
BYLAYER
100
AcDbCircle
 10
15.0785504946917968
 20
146.5978968015912187
 30
0.0
 40
4.2363524079101076
100
AcDbArc
 50
89.9654315414149721
 51
170.6423308189228862
  0
ARC
  5
615
100
AcDbEntity
  8
layer 1
 62
256
370
9
 48
1.0
  6
BYLAYER
100
AcDbCircle
 10
15.0785504946917968
 20
211.5978968015912187
 30
0.0
 40
4.2363524079101076
100
AcDbArc
 50
89.9654315414149721
 51
170.6423308189228862
  0
ARC
  5
616
100
AcDbEntity
  8
layer 1
 62
256
370
9
 48
1.0
  6
BYLAYER
100
AcDbCircle
 10
79.0785504946917968
 20
17.5978968015912329
 30
0.0
 40
4.2363524079101076
100
AcDbArc
 50
89.9654315414149721
 51
170.6423308189228862
  0
ARC
  5
617
100
AcDbEntity
  8
layer 1
 62
256
370
9
 48
1.0
  6
BYLAYER
100
AcDbCircle
 10
79.0785504946917968
 20
82.5978968015912329
 30
0.0
 40
4.2363524079101076
100
AcDbArc
 50
89.9654315414149721
 51
170.6423308189228862
  0
ARC
  5
618
100
AcDbEntity
  8
layer 1
 62
256
370
9
 48
1.0
  6
BYLAYER
100
AcDbCircle
 10
79.0785504946917968
 20
146.5978968015912187
 30
0.0
 40
4.2363524079101076
100
AcDbArc
 50
89.9654315414149721
 51
170.6423308189228862
  0
ARC
  5
619
100
AcDbEntity
  8
layer 1
 62
256
370
9
 48
1.0
  6
BYLAYER
100
AcDbCircle
 10
79.0785504946917968
 20
211.5978968015912187
 30
0.0
 40
4.2363524079101076
100
AcDbArc
 50
89.9654315414149721
 51
170.6423308189228862
  0
ARC
  5
61A
100
AcDbEntity
  8
layer 1
 62
256
370
9
 48
1.0
  6
BYLAYER
100
AcDbCircle
 10
9.9921016962327371
 20
15.8134518674096753
 30
0.0
 40
2.6341452956056979
100
AcDbArc
 50
69.871697562343698
 51
89.8041360496549714
  0
ARC
  5
61B
100
AcDbEntity
  8
layer 1
 62
256
370
9
 48
1.0
  6
BYLAYER
100
AcDbCircle
 10
9.9921016962327371
 20
80.8134518674096682
 30
0.0
 40
2.6341452956056979
100
AcDbArc
 50
69.871697562343698
 51
89.8041360496549714
  0
ARC
  5
61C
100
AcDbEntity
  8
layer 1
 62
256
370
9
 48
1.0
  6
BYLAYER
100
AcDbCircle
 10
9.9921016962327371
 20
144.8134518674096682
 30
0.0
 40
2.6341452956056979
100
AcDbArc
 50
69.871697562343698
 51
89.8041360496549714
  0
ARC
  5
61D
100
AcDbEntity
  8
layer 1
 62
256
370
9
 48
1.0
  6
BYLAYER
100
AcDbCircle
 10
9.9921016962327371
 20
209.8134518674096682
 30
0.0
 40
2.6341452956056979
100
AcDbArc
 50
69.871697562343698
 51
89.8041360496549714
  0
ARC
  5
61E
100
AcDbEntity
  8
layer 1
 62
256
370
9
 48
1.0
  6
BYLAYER
100
AcDbCircle
 10
73.9921016962327371
 20
15.8134518674096753
 30
0.0
 40
2.6341452956056979
100
AcDbArc
 50
69.871697562343698
 51
89.8041360496549714
  0
ARC
  5
61F
100
AcDbEntity
  8
layer 1
 62
256
370
9
 48
1.0
  6
BYLAYER
100
AcDbCircle
 10
73.9921016962327371
 20
80.8134518674096682
 30
0.0
 40
2.6341452956056979
100
AcDbArc
 50
69.871697562343698
 51
89.8041360496549714
  0
ARC
  5
620
100
AcDbEntity
  8
layer 1
 62
256
370
9
 48
1.0
  6
BYLAYER
100
AcDbCircle
 10
73.9921016962327371
 20
144.8134518674096682
 30
0.0
 40
2.6341452956056979
100
AcDbArc
 50
69.871697562343698
 51
89.8041360496549714
  0
ARC
  5
621
100
AcDbEntity
  8
layer 1
 62
256
370
9
 48
1.0
  6
BYLAYER
100
AcDbCircle
 10
73.9921016962327371
 20
209.8134518674096682
 30
0.0
 40
2.6341452956056979
100
AcDbArc
 50
69.871697562343698
 51
89.8041360496549714
  0
ARC
  5
622
100
AcDbEntity
  8
layer 1
 62
256
370
9
 48
1.0
  6
BYLAYER
100
AcDbCircle
 10
10.0011064275218473
 20
15.9075817717948098
 30
0.0
 40
2.54
100
AcDbArc
 50
90.0000000000000142
 51
180.0
  0
ARC
  5
623
100
AcDbEntity
  8
layer 1
 62
256
370
9
 48
1.0
  6
BYLAYER
100
AcDbCircle
 10
10.0011064275218473
 20
80.9075817717948098
 30
0.0
 40
2.54
100
AcDbArc
 50
90.0000000000000142
 51
180.0
  0
ARC
  5
624
100
AcDbEntity
  8
layer 1
 62
256
370
9
 48
1.0
  6
BYLAYER
100
AcDbCircle
 10
10.0011064275218473
 20
144.9075817717948098
 30
0.0
 40
2.54
100
AcDbArc
 50
90.0000000000000142
 51
180.0
  0
ARC
  5
625
100
AcDbEntity
  8
layer 1
 62
256
370
9
 48
1.0
  6
BYLAYER
100
AcDbCircle
 10
10.0011064275218473
 20
209.9075817717948098
 30
0.0
 40
2.54
100
AcDbArc
 50
90.0000000000000142
 51
180.0
  0
ARC
  5
626
100
AcDbEntity
  8
layer 1
 62
256
370
9
 48
1.0
  6
BYLAYER
100
AcDbCircle
 10
74.0011064275218473
 20
15.9075817717948098
 30
0.0
 40
2.54
100
AcDbArc
 50
90.0000000000000142
 51
180.0
  0
ARC
  5
627
100
AcDbEntity
  8
layer 1
 62
256
370
9
 48
1.0
  6
BYLAYER
100
AcDbCircle
 10
74.0011064275218473
 20
80.9075817717948098
 30
0.0
 40
2.54
100
AcDbArc
 50
90.0000000000000142
 51
180.0
  0
ARC
  5
628
100
AcDbEntity
  8
layer 1
 62
256
370
9
 48
1.0
  6
BYLAYER
100
AcDbCircle
 10
74.0011064275218473
 20
144.9075817717948098
 30
0.0
 40
2.54
100
AcDbArc
 50
90.0000000000000142
 51
180.0
  0
ARC
  5
629
100
AcDbEntity
  8
layer 1
 62
256
370
9
 48
1.0
  6
BYLAYER
100
AcDbCircle
 10
74.0011064275218473
 20
209.9075817717948098
 30
0.0
 40
2.54
100
AcDbArc
 50
90.0000000000000142
 51
180.0
  0
ARC
  5
62A
100
AcDbEntity
  8
layer 1
 62
256
370
9
 48
1.0
  6
BYLAYER
100
AcDbCircle
 10
9.9979148004761669
 20
15.9041122433710385
 30
0.0
 40
2.5368107455462168
100
AcDbArc
 50
179.9216380654634122
 51
240.0416406722282829
  0
ARC
  5
62B
100
AcDbEntity
  8
layer 1
 62
256
370
9
 48
1.0
  6
BYLAYER
100
AcDbCircle
 10
9.9979148004761669
 20
80.9041122433710314
 30
0.0
 40
2.5368107455462168
100
AcDbArc
 50
179.9216380654634122
 51
240.0416406722282829
  0
ARC
  5
62C
100
AcDbEntity
  8
layer 1
 62
256
370
9
 48
1.0
  6
BYLAYER
100
AcDbCircle
 10
9.9979148004761669
 20
144.9041122433710314
 30
0.0
 40
2.5368107455462168
100
AcDbArc
 50
179.9216380654634122
 51
240.0416406722282829
  0
ARC
  5
62D
100
AcDbEntity
  8
layer 1
 62
256
370
9
 48
1.0
  6
BYLAYER
100
AcDbCircle
 10
9.9979148004761669
 20
209.9041122433710314
 30
0.0
 40
2.5368107455462168
100
AcDbArc
 50
179.9216380654634122
 51
240.0416406722282829
  0
ARC
  5
62E
100
AcDbEntity
  8
layer 1
 62
256
370
9
 48
1.0
  6
BYLAYER
100
AcDbCircle
 10
73.9979148004761669
 20
15.9041122433710385
 30
0.0
 40
2.5368107455462168
100
AcDbArc
 50
179.9216380654634122
 51
240.0416406722282829
  0
ARC
  5
62F
100
AcDbEntity
  8
layer 1
 62
256
370
9
 48
1.0
  6
BYLAYER
100
AcDbCircle
 10
73.9979148004761669
 20
80.9041122433710314
 30
0.0
 40
2.5368107455462168
100
AcDbArc
 50
179.9216380654634122
 51
240.0416406722282829
  0
ARC
  5
630
100
AcDbEntity
  8
layer 1
 62
256
370
9
 48
1.0
  6
BYLAYER
100
AcDbCircle
 10
73.9979148004761669
 20
144.9041122433710314
 30
0.0
 40
2.5368107455462168
100
AcDbArc
 50
179.9216380654634122
 51
240.0416406722282829
  0
ARC
  5
631
100
AcDbEntity
  8
layer 1
 62
256
370
9
 48
1.0
  6
BYLAYER
100
AcDbCircle
 10
73.9979148004761669
 20
209.9041122433710314
 30
0.0
 40
2.5368107455462168
100
AcDbArc
 50
179.9216380654634122
 51
240.0416406722282829
  0
LINE
  5
632
100
AcDbEntity
  8
layer 1
 62
256
370
9
 48
1.0
  6
BYLAYER
100
AcDbLine
 10
8.7311064275218939
 20
13.7062484384614862
 30
0.0
 11
8.7311064275218939
 21
13.7147151051281497
 31
0.0
  0
LINE
  5
633
100
AcDbEntity
  8
layer 1
 62
256
370
9
 48
1.0
  6
BYLAYER
100
AcDbLine
 10
8.7311064275218939
 20
78.7062484384614862
 30
0.0
 11
8.7311064275218939
 21
78.7147151051281497
 31
0.0
  0
LINE
  5
634
100
AcDbEntity
  8
layer 1
 62
256
370
9
 48
1.0
  6
BYLAYER
100
AcDbLine
 10
8.7311064275218939
 20
142.7062484384615004
 30
0.0
 11
8.7311064275218939
 21
142.7147151051281639
 31
0.0
  0
LINE
  5
635
100
AcDbEntity
  8
layer 1
 62
256
370
9
 48
1.0
  6
BYLAYER
100
AcDbLine
 10
8.7311064275218939
 20
207.7062484384615004
 30
0.0
 11
8.7311064275218939
 21
207.7147151051281639
 31
0.0
  0
LINE
  5
636
100
AcDbEntity
  8
layer 1
 62
256
370
9
 48
1.0
  6
BYLAYER
100
AcDbLine
 10
72.7311064275218939
 20
13.7062484384614862
 30
0.0
 11
72.7311064275218939
 21
13.7147151051281497
 31
0.0
  0
LINE
  5
637
100
AcDbEntity
  8
layer 1
 62
256
370
9
 48
1.0
  6
BYLAYER
100
AcDbLine
 10
72.7311064275218939
 20
78.7062484384614862
 30
0.0
 11
72.7311064275218939
 21
78.7147151051281497
 31
0.0
  0
LINE
  5
638
100
AcDbEntity
  8
layer 1
 62
256
370
9
 48
1.0
  6
BYLAYER
100
AcDbLine
 10
72.7311064275218939
 20
142.7062484384615004
 30
0.0
 11
72.7311064275218939
 21
142.7147151051281639
 31
0.0
  0
LINE
  5
639
100
AcDbEntity
  8
layer 1
 62
256
370
9
 48
1.0
  6
BYLAYER
100
AcDbLine
 10
72.7311064275218939
 20
207.7062484384615004
 30
0.0
 11
72.7311064275218939
 21
207.7147151051281639
 31
0.0
  0
ARC
  5
63A
100
AcDbEntity
  8
layer 1
 62
256
370
9
 48
1.0
  6
BYLAYER
100
AcDbCircle
 10
8.3147307118384788
 20
12.9799941697489345
 30
0.0
 40
0.8445019772003637
100
AcDbArc
 50
329.7677265857898306
 51
60.4592195333620879
  0
ARC
  5
63B
100
AcDbEntity
  8
layer 1
 62
256
370
9
 48
1.0
  6
BYLAYER
100
AcDbCircle
 10
8.3147307118384788
 20
77.9799941697489345
 30
0.0
 40
0.8445019772003637
100
AcDbArc
 50
329.7677265857898306
 51
60.4592195333620879
  0
ARC
  5
63C
100
AcDbEntity
  8
layer 1
 62
256
370
9
 48
1.0
  6
BYLAYER
100
AcDbCircle
 10
8.3147307118384788
 20
141.9799941697489203
 30
0.0
 40
0.8445019772003637
100
AcDbArc
 50
329.7677265857898306
 51
60.4592195333620879
  0
ARC
  5
63D
100
AcDbEntity
  8
layer 1
 62
256
370
9
 48
1.0
  6
BYLAYER
100
AcDbCircle
 10
8.3147307118384788
 20
206.9799941697489203
 30
0.0
 40
0.8445019772003637
100
AcDbArc
 50
329.7677265857898306
 51
60.4592195333620879
  0
ARC
  5
63E
100
AcDbEntity
  8
layer 1
 62
256
370
9
 48
1.0
  6
BYLAYER
100
AcDbCircle
 10
72.3147307118384788
 20
12.9799941697489345
 30
0.0
 40
0.8445019772003637
100
AcDbArc
 50
329.7677265857898306
 51
60.4592195333620879
  0
ARC
  5
63F
100
AcDbEntity
  8
layer 1
 62
256
370
9
 48
1.0
  6
BYLAYER
100
AcDbCircle
 10
72.3147307118384788
 20
77.9799941697489345
 30
0.0
 40
0.8445019772003637
100
AcDbArc
 50
329.7677265857898306
 51
60.4592195333620879
  0
ARC
  5
640
100
AcDbEntity
  8
layer 1
 62
256
370
9
 48
1.0
  6
BYLAYER
100
AcDbCircle
 10
72.3147307118384788
 20
141.9799941697489203
 30
0.0
 40
0.8445019772003637
100
AcDbArc
 50
329.7677265857898306
 51
60.4592195333620879
  0
ARC
  5
641
100
AcDbEntity
  8
layer 1
 62
256
370
9
 48
1.0
  6
BYLAYER
100
AcDbCircle
 10
72.3147307118384788
 20
206.9799941697489203
 30
0.0
 40
0.8445019772003637
100
AcDbArc
 50
329.7677265857898306
 51
60.4592195333620879
  0
ARC
  5
642
100
AcDbEntity
  8
layer 1
 62
256
370
9
 48
1.0
  6
BYLAYER
100
AcDbCircle
 10
8.3117476536897357
 20
12.9833332166559146
 30
0.0
 40
0.848761672649377
100
AcDbArc
 50
239.7715776463800523
 51
329.6743724771202437
  0
ARC
  5
643
100
AcDbEntity
  8
layer 1
 62
256
370
9
 48
1.0
  6
BYLAYER
100
AcDbCircle
 10
8.3117476536897357
 20
77.9833332166559217
 30
0.0
 40
0.848761672649377
100
AcDbArc
 50
239.7715776463800523
 51
329.6743724771202437
  0
ARC
  5
644
100
AcDbEntity
  8
layer 1
 62
256
370
9
 48
1.0
  6
BYLAYER
100
AcDbCircle
 10
8.3117476536897357
 20
141.9833332166559217
 30
0.0
 40
0.848761672649377
100
AcDbArc
 50
239.7715776463800523
 51
329.6743724771202437
  0
ARC
  5
645
100
AcDbEntity
  8
layer 1
 62
256
370
9
 48
1.0
  6
BYLAYER
100
AcDbCircle
 10
8.3117476536897357
 20
206.9833332166559217
 30
0.0
 40
0.848761672649377
100
AcDbArc
 50
239.7715776463800523
 51
329.6743724771202437
  0
ARC
  5
646
100
AcDbEntity
  8
layer 1
 62
256
370
9
 48
1.0
  6
BYLAYER
100
AcDbCircle
 10
72.3117476536897357
 20
12.9833332166559146
 30
0.0
 40
0.848761672649377
100
AcDbArc
 50
239.7715776463800523
 51
329.6743724771202437
  0
ARC
  5
647
100
AcDbEntity
  8
layer 1
 62
256
370
9
 48
1.0
  6
BYLAYER
100
AcDbCircle
 10
72.3117476536897357
 20
77.9833332166559217
 30
0.0
 40
0.848761672649377
100
AcDbArc
 50
239.7715776463800523
 51
329.6743724771202437
  0
ARC
  5
648
100
AcDbEntity
  8
layer 1
 62
256
370
9
 48
1.0
  6
BYLAYER
100
AcDbCircle
 10
72.3117476536897357
 20
141.9833332166559217
 30
0.0
 40
0.848761672649377
100
AcDbArc
 50
239.7715776463800523
 51
329.6743724771202437
  0
ARC
  5
649
100
AcDbEntity
  8
layer 1
 62
256
370
9
 48
1.0
  6
BYLAYER
100
AcDbCircle
 10
72.3117476536897357
 20
206.9833332166559217
 30
0.0
 40
0.848761672649377
100
AcDbArc
 50
239.7715776463800523
 51
329.6743724771202437
  0
LINE
  5
64A
100
AcDbEntity
  8
layer 1
 62
256
370
9
 48
1.0
  6
BYLAYER
100
AcDbLine
 10
7.8844397608552015
 20
12.2499817717948076
 30
0.0
 11
7.8844397608552015
 21
12.2415151051281441
 31
0.0
  0
LINE
  5
64B
100
AcDbEntity
  8
layer 1
 62
256
370
9
 48
1.0
  6
BYLAYER
100
AcDbLine
 10
7.8844397608552015
 20
77.2499817717948076
 30
0.0
 11
7.8844397608552015
 21
77.2415151051281441
 31
0.0
  0
LINE
  5
64C
100
AcDbEntity
  8
layer 1
 62
256
370
9
 48
1.0
  6
BYLAYER
100
AcDbLine
 10
7.8844397608552015
 20
141.2499817717948076
 30
0.0
 11
7.8844397608552015
 21
141.2415151051281441
 31
0.0
  0
LINE
  5
64D
100
AcDbEntity
  8
layer 1
 62
256
370
9
 48
1.0
  6
BYLAYER
100
AcDbLine
 10
7.8844397608552015
 20
206.2499817717948076
 30
0.0
 11
7.8844397608552015
 21
206.2415151051281441
 31
0.0
  0
LINE
  5
64E
100
AcDbEntity
  8
layer 1
 62
256
370
9
 48
1.0
  6
BYLAYER
100
AcDbLine
 10
71.8844397608552015
 20
12.2499817717948076
 30
0.0
 11
71.8844397608552015
 21
12.2415151051281441
 31
0.0
  0
LINE
  5
64F
100
AcDbEntity
  8
layer 1
 62
256
370
9
 48
1.0
  6
BYLAYER
100
AcDbLine
 10
71.8844397608552015
 20
77.2499817717948076
 30
0.0
 11
71.8844397608552015
 21
77.2415151051281441
 31
0.0
  0
LINE
  5
650
100
AcDbEntity
  8
layer 1
 62
256
370
9
 48
1.0
  6
BYLAYER
100
AcDbLine
 10
71.8844397608552015
 20
141.2499817717948076
 30
0.0
 11
71.8844397608552015
 21
141.2415151051281441
 31
0.0
  0
LINE
  5
651
100
AcDbEntity
  8
layer 1
 62
256
370
9
 48
1.0
  6
BYLAYER
100
AcDbLine
 10
71.8844397608552015
 20
206.2499817717948076
 30
0.0
 11
71.8844397608552015
 21
206.2415151051281441
 31
0.0
  0
ARC
  5
652
100
AcDbEntity
  8
layer 1
 62
256
370
9
 48
1.0
  6
BYLAYER
100
AcDbCircle
 10
9.9842871373726325
 20
15.8979784095069334
 30
0.0
 40
4.2165249792851496
100
AcDbArc
 50
179.8695056695669336
 51
240.1319498920888407
  0
ARC
  5
653
100
AcDbEntity
  8
layer 1
 62
256
370
9
 48
1.0
  6
BYLAYER
100
AcDbCircle
 10
9.9842871373726325
 20
80.8979784095069334
 30
0.0
 40
4.2165249792851496
100
AcDbArc
 50
179.8695056695669336
 51
240.1319498920888407
  0
ARC
  5
654
100
AcDbEntity
  8
layer 1
 62
256
370
9
 48
1.0
  6
BYLAYER
100
AcDbCircle
 10
9.9842871373726325
 20
144.8979784095069476
 30
0.0
 40
4.2165249792851496
100
AcDbArc
 50
179.8695056695669336
 51
240.1319498920888407
  0
ARC
  5
655
100
AcDbEntity
  8
layer 1
 62
256
370
9
 48
1.0
  6
BYLAYER
100
AcDbCircle
 10
9.9842871373726325
 20
209.8979784095069476
 30
0.0
 40
4.2165249792851496
100
AcDbArc
 50
179.8695056695669336
 51
240.1319498920888407
  0
ARC
  5
656
100
AcDbEntity
  8
layer 1
 62
256
370
9
 48
1.0
  6
BYLAYER
100
AcDbCircle
 10
73.9842871373726325
 20
15.8979784095069334
 30
0.0
 40
4.2165249792851496
100
AcDbArc
 50
179.8695056695669336
 51
240.1319498920888407
  0
ARC
  5
657
100
AcDbEntity
  8
layer 1
 62
256
370
9
 48
1.0
  6
BYLAYER
100
AcDbCircle
 10
73.9842871373726325
 20
80.8979784095069334
 30
0.0
 40
4.2165249792851496
100
AcDbArc
 50
179.8695056695669336
 51
240.1319498920888407
  0
ARC
  5
658
100
AcDbEntity
  8
layer 1
 62
256
370
9
 48
1.0
  6
BYLAYER
100
AcDbCircle
 10
73.9842871373726325
 20
144.8979784095069476
 30
0.0
 40
4.2165249792851496
100
AcDbArc
 50
179.8695056695669336
 51
240.1319498920888407
  0
ARC
  5
659
100
AcDbEntity
  8
layer 1
 62
256
370
9
 48
1.0
  6
BYLAYER
100
AcDbCircle
 10
73.9842871373726325
 20
209.8979784095069476
 30
0.0
 40
4.2165249792851496
100
AcDbArc
 50
179.8695056695669336
 51
240.1319498920888407
  0
ARC
  5
65A
100
AcDbEntity
  8
layer 1
 62
256
370
9
 48
1.0
  6
BYLAYER
100
AcDbCircle
 10
10.0011064275218473
 20
15.9075817717948098
 30
0.0
 40
4.2333333333333325
100
AcDbArc
 50
90.0000000000000142
 51
180.0
  0
ARC
  5
65B
100
AcDbEntity
  8
layer 1
 62
256
370
9
 48
1.0
  6
BYLAYER
100
AcDbCircle
 10
10.0011064275218473
 20
80.9075817717948098
 30
0.0
 40
4.2333333333333325
100
AcDbArc
 50
90.0000000000000142
 51
180.0
  0
ARC
  5
65C
100
AcDbEntity
  8
layer 1
 62
256
370
9
 48
1.0
  6
BYLAYER
100
AcDbCircle
 10
10.0011064275218473
 20
144.9075817717948098
 30
0.0
 40
4.2333333333333325
100
AcDbArc
 50
90.0000000000000142
 51
180.0
  0
ARC
  5
65D
100
AcDbEntity
  8
layer 1
 62
256
370
9
 48
1.0
  6
BYLAYER
100
AcDbCircle
 10
10.0011064275218473
 20
209.9075817717948098
 30
0.0
 40
4.2333333333333325
100
AcDbArc
 50
90.0000000000000142
 51
180.0
  0
ARC
  5
65E
100
AcDbEntity
  8
layer 1
 62
256
370
9
 48
1.0
  6
BYLAYER
100
AcDbCircle
 10
74.0011064275218473
 20
15.9075817717948098
 30
0.0
 40
4.2333333333333325
100
AcDbArc
 50
90.0000000000000142
 51
180.0
  0
ARC
  5
65F
100
AcDbEntity
  8
layer 1
 62
256
370
9
 48
1.0
  6
BYLAYER
100
AcDbCircle
 10
74.0011064275218473
 20
80.9075817717948098
 30
0.0
 40
4.2333333333333325
100
AcDbArc
 50
90.0000000000000142
 51
180.0
  0
ARC
  5
660
100
AcDbEntity
  8
layer 1
 62
256
370
9
 48
1.0
  6
BYLAYER
100
AcDbCircle
 10
74.0011064275218473
 20
144.9075817717948098
 30
0.0
 40
4.2333333333333325
100
AcDbArc
 50
90.0000000000000142
 51
180.0
  0
ARC
  5
661
100
AcDbEntity
  8
layer 1
 62
256
370
9
 48
1.0
  6
BYLAYER
100
AcDbCircle
 10
74.0011064275218473
 20
209.9075817717948098
 30
0.0
 40
4.2333333333333325
100
AcDbArc
 50
90.0000000000000142
 51
180.0
  0
ARC
  5
662
100
AcDbEntity
  8
layer 1
 62
256
370
9
 48
1.0
  6
BYLAYER
100
AcDbCircle
 10
15.0942300984416136
 20
18.004562932081889
 30
0.0
 40
5.5230344317741
100
AcDbArc
 50
90.1361446632824084
 51
157.2439903886773038
  0
ARC
  5
663
100
AcDbEntity
  8
layer 1
 62
256
370
9
 48
1.0
  6
BYLAYER
100
AcDbCircle
 10
15.0942300984416136
 20
83.0045629320818819
 30
0.0
 40
5.5230344317741
100
AcDbArc
 50
90.1361446632824084
 51
157.2439903886773038
  0
ARC
  5
664
100
AcDbEntity
  8
layer 1
 62
256
370
9
 48
1.0
  6
BYLAYER
100
AcDbCircle
 10
15.0942300984416136
 20
147.0045629320818819
 30
0.0
 40
5.5230344317741
100
AcDbArc
 50
90.1361446632824084
 51
157.2439903886773038
  0
ARC
  5
665
100
AcDbEntity
  8
layer 1
 62
256
370
9
 48
1.0
  6
BYLAYER
100
AcDbCircle
 10
15.0942300984416136
 20
212.0045629320818819
 30
0.0
 40
5.5230344317741
100
AcDbArc
 50
90.1361446632824084
 51
157.2439903886773038
  0
ARC
  5
666
100
AcDbEntity
  8
layer 1
 62
256
370
9
 48
1.0
  6
BYLAYER
100
AcDbCircle
 10
79.0942300984416136
 20
18.004562932081889
 30
0.0
 40
5.5230344317741
100
AcDbArc
 50
90.1361446632824084
 51
157.2439903886773038
  0
ARC
  5
667
100
AcDbEntity
  8
layer 1
 62
256
370
9
 48
1.0
  6
BYLAYER
100
AcDbCircle
 10
79.0942300984416136
 20
83.0045629320818819
 30
0.0
 40
5.5230344317741
100
AcDbArc
 50
90.1361446632824084
 51
157.2439903886773038
  0
ARC
  5
668
100
AcDbEntity
  8
layer 1
 62
256
370
9
 48
1.0
  6
BYLAYER
100
AcDbCircle
 10
79.0942300984416136
 20
147.0045629320818819
 30
0.0
 40
5.5230344317741
100
AcDbArc
 50
90.1361446632824084
 51
157.2439903886773038
  0
ARC
  5
669
100
AcDbEntity
  8
layer 1
 62
256
370
9
 48
1.0
  6
BYLAYER
100
AcDbCircle
 10
79.0942300984416136
 20
212.0045629320818819
 30
0.0
 40
5.5230344317741
100
AcDbArc
 50
90.1361446632824084
 51
157.2439903886773038
  0
ARC
  5
66A
100
AcDbEntity
  8
layer 1
 62
256
370
9
 48
1.0
  6
BYLAYER
100
AcDbCircle
 10
15.0709792419673363
 20
17.997823722136765
 30
0.0
 40
5.5297673231018667
100
AcDbArc
 50
4.4012436579112002
 51
89.8950687649087001
  0
ARC
  5
66B
100
AcDbEntity
  8
layer 1
 62
256
370
9
 48
1.0
  6
BYLAYER
100
AcDbCircle
 10
15.0709792419673363
 20
82.9978237221367579
 30
0.0
 40
5.5297673231018667
100
AcDbArc
 50
4.4012436579112002
 51
89.8950687649087001
  0
ARC
  5
66C
100
AcDbEntity
  8
layer 1
 62
256
370
9
 48
1.0
  6
BYLAYER
100
AcDbCircle
 10
15.0709792419673363
 20
146.9978237221367579
 30
0.0
 40
5.5297673231018667
100
AcDbArc
 50
4.4012436579112002
 51
89.8950687649087001
  0
ARC
  5
66D
100
AcDbEntity
  8
layer 1
 62
256
370
9
 48
1.0
  6
BYLAYER
100
AcDbCircle
 10
15.0709792419673363
 20
211.9978237221367579
 30
0.0
 40
5.5297673231018667
100
AcDbArc
 50
4.4012436579112002
 51
89.8950687649087001
  0
ARC
  5
66E
100
AcDbEntity
  8
layer 1
 62
256
370
9
 48
1.0
  6
BYLAYER
100
AcDbCircle
 10
79.0709792419673363
 20
17.997823722136765
 30
0.0
 40
5.5297673231018667
100
AcDbArc
 50
4.4012436579112002
 51
89.8950687649087001
  0
ARC
  5
66F
100
AcDbEntity
  8
layer 1
 62
256
370
9
 48
1.0
  6
BYLAYER
100
AcDbCircle
 10
79.0709792419673363
 20
82.9978237221367579
 30
0.0
 40
5.5297673231018667
100
AcDbArc
 50
4.4012436579112002
 51
89.8950687649087001
  0
ARC
  5
670
100
AcDbEntity
  8
layer 1
 62
256
370
9
 48
1.0
  6
BYLAYER
100
AcDbCircle
 10
79.0709792419673363
 20
146.9978237221367579
 30
0.0
 40
5.5297673231018667
100
AcDbArc
 50
4.4012436579112002
 51
89.8950687649087001
  0
ARC
  5
671
100
AcDbEntity
  8
layer 1
 62
256
370
9
 48
1.0
  6
BYLAYER
100
AcDbCircle
 10
79.0709792419673363
 20
211.9978237221367579
 30
0.0
 40
5.5297673231018667
100
AcDbArc
 50
4.4012436579112002
 51
89.8950687649087001
  0
LINE
  5
672
100
AcDbEntity
  8
layer 1
 62
256
370
9
 48
1.0
  6
BYLAYER
100
AcDbLine
 10
20.5844397608551617
 20
18.4221817717948113
 30
0.0
 11
21.0077730941885079
 21
18.4475817717948232
 31
0.0
  0
LINE
  5
673
100
AcDbEntity
  8
layer 1
 62
256
370
9
 48
1.0
  6
BYLAYER
100
AcDbLine
 10
20.5844397608551617
 20
83.4221817717948113
 30
0.0
 11
21.0077730941885079
 21
83.4475817717948303
 31
0.0
  0
LINE
  5
674
100
AcDbEntity
  8
layer 1
 62
256
370
9
 48
1.0
  6
BYLAYER
100
AcDbLine
 10
20.5844397608551617
 20
147.4221817717948113
 30
0.0
 11
21.0077730941885079
 21
147.4475817717948303
 31
0.0
  0
LINE
  5
675
100
AcDbEntity
  8
layer 1
 62
256
370
9
 48
1.0
  6
BYLAYER
100
AcDbLine
 10
20.5844397608551617
 20
212.4221817717948113
 30
0.0
 11
21.0077730941885079
 21
212.4475817717948303
 31
0.0
  0
LINE
  5
676
100
AcDbEntity
  8
layer 1
 62
256
370
9
 48
1.0
  6
BYLAYER
100
AcDbLine
 10
84.5844397608551617
 20
18.4221817717948113
 30
0.0
 11
85.0077730941885079
 21
18.4475817717948232
 31
0.0
  0
LINE
  5
677
100
AcDbEntity
  8
layer 1
 62
256
370
9
 48
1.0
  6
BYLAYER
100
AcDbLine
 10
84.5844397608551617
 20
83.4221817717948113
 30
0.0
 11
85.0077730941885079
 21
83.4475817717948303
 31
0.0
  0
LINE
  5
678
100
AcDbEntity
  8
layer 1
 62
256
370
9
 48
1.0
  6
BYLAYER
100
AcDbLine
 10
84.5844397608551617
 20
147.4221817717948113
 30
0.0
 11
85.0077730941885079
 21
147.4475817717948303
 31
0.0
  0
LINE
  5
679
100
AcDbEntity
  8
layer 1
 62
256
370
9
 48
1.0
  6
BYLAYER
100
AcDbLine
 10
84.5844397608551617
 20
212.4221817717948113
 30
0.0
 11
85.0077730941885079
 21
212.4475817717948303
 31
0.0
  0
ARC
  5
67A
100
AcDbEntity
  8
layer 1
 62
256
370
9
 48
1.0
  6
BYLAYER
100
AcDbCircle
 10
21.0077730941885079
 20
15.06091510512816
 30
0.0
 40
3.3866666666666667
100
AcDbArc
 50
0.0
 51
90.0000000000000142
  0
ARC
  5
67B
100
AcDbEntity
  8
layer 1
 62
256
370
9
 48
1.0
  6
BYLAYER
100
AcDbCircle
 10
21.0077730941885079
 20
80.06091510512816
 30
0.0
 40
3.3866666666666667
100
AcDbArc
 50
0.0
 51
90.0000000000000142
  0
ARC
  5
67C
100
AcDbEntity
  8
layer 1
 62
256
370
9
 48
1.0
  6
BYLAYER
100
AcDbCircle
 10
21.0077730941885079
 20
144.0609151051281742
 30
0.0
 40
3.3866666666666667
100
AcDbArc
 50
0.0
 51
90.0000000000000142
  0
ARC
  5
67D
100
AcDbEntity
  8
layer 1
 62
256
370
9
 48
1.0
  6
BYLAYER
100
AcDbCircle
 10
21.0077730941885079
 20
209.0609151051281742
 30
0.0
 40
3.3866666666666667
100
AcDbArc
 50
0.0
 51
90.0000000000000142
  0
ARC
  5
67E
100
AcDbEntity
  8
layer 1
 62
256
370
9
 48
1.0
  6
BYLAYER
100
AcDbCircle
 10
85.0077730941885079
 20
15.06091510512816
 30
0.0
 40
3.3866666666666667
100
AcDbArc
 50
0.0
 51
90.0000000000000142
  0
ARC
  5
67F
100
AcDbEntity
  8
layer 1
 62
256
370
9
 48
1.0
  6
BYLAYER
100
AcDbCircle
 10
85.0077730941885079
 20
80.06091510512816
 30
0.0
 40
3.3866666666666667
100
AcDbArc
 50
0.0
 51
90.0000000000000142
  0
ARC
  5
680
100
AcDbEntity
  8
layer 1
 62
256
370
9
 48
1.0
  6
BYLAYER
100
AcDbCircle
 10
85.0077730941885079
 20
144.0609151051281742
 30
0.0
 40
3.3866666666666667
100
AcDbArc
 50
0.0
 51
90.0000000000000142
  0
ARC
  5
681
100
AcDbEntity
  8
layer 1
 62
256
370
9
 48
1.0
  6
BYLAYER
100
AcDbCircle
 10
85.0077730941885079
 20
209.0609151051281742
 30
0.0
 40
3.3866666666666667
100
AcDbArc
 50
0.0
 51
90.0000000000000142
  0
ARC
  5
682
100
AcDbEntity
  8
layer 1
 62
256
370
9
 48
1.0
  6
BYLAYER
100
AcDbCircle
 10
21.0452168554016623
 20
15.0427460716716155
 30
0.0
 40
3.3492721872357967
100
AcDbArc
 50
299.6303784894830073
 51
0.310817987487996
  0
ARC
  5
683
100
AcDbEntity
  8
layer 1
 62
256
370
9
 48
1.0
  6
BYLAYER
100
AcDbCircle
 10
21.0452168554016623
 20
80.0427460716716155
 30
0.0
 40
3.3492721872357967
100
AcDbArc
 50
299.6303784894830073
 51
0.310817987487996
  0
ARC
  5
684
100
AcDbEntity
  8
layer 1
 62
256
370
9
 48
1.0
  6
BYLAYER
100
AcDbCircle
 10
21.0452168554016623
 20
144.0427460716716155
 30
0.0
 40
3.3492721872357967
100
AcDbArc
 50
299.6303784894830073
 51
0.310817987487996
  0
ARC
  5
685
100
AcDbEntity
  8
layer 1
 62
256
370
9
 48
1.0
  6
BYLAYER
100
AcDbCircle
 10
21.0452168554016623
 20
209.0427460716716155
 30
0.0
 40
3.3492721872357967
100
AcDbArc
 50
299.6303784894830073
 51
0.310817987487996
  0
ARC
  5
686
100
AcDbEntity
  8
layer 1
 62
256
370
9
 48
1.0
  6
BYLAYER
100
AcDbCircle
 10
85.0452168554016623
 20
15.0427460716716155
 30
0.0
 40
3.3492721872357967
100
AcDbArc
 50
299.6303784894830073
 51
0.310817987487996
  0
ARC
  5
687
100
AcDbEntity
  8
layer 1
 62
256
370
9
 48
1.0
  6
BYLAYER
100
AcDbCircle
 10
85.0452168554016623
 20
80.0427460716716155
 30
0.0
 40
3.3492721872357967
100
AcDbArc
 50
299.6303784894830073
 51
0.310817987487996
  0
ARC
  5
688
100
AcDbEntity
  8
layer 1
 62
256
370
9
 48
1.0
  6
BYLAYER
100
AcDbCircle
 10
85.0452168554016623
 20
144.0427460716716155
 30
0.0
 40
3.3492721872357967
100
AcDbArc
 50
299.6303784894830073
 51
0.310817987487996
  0
ARC
  5
689
100
AcDbEntity
  8
layer 1
 62
256
370
9
 48
1.0
  6
BYLAYER
100
AcDbCircle
 10
85.0452168554016623
 20
209.0427460716716155
 30
0.0
 40
3.3492721872357967
100
AcDbArc
 50
299.6303784894830073
 51
0.310817987487996
  0
LINE
  5
68A
100
AcDbEntity
  8
layer 1
 62
256
370
9
 48
1.0
  6
BYLAYER
100
AcDbLine
 10
22.7011064275218928
 20
12.1314484384614758
 30
0.0
 11
22.7011064275218928
 21
12.1314484384614758
 31
0.0
  0
LINE
  5
68B
100
AcDbEntity
  8
layer 1
 62
256
370
9
 48
1.0
  6
BYLAYER
100
AcDbLine
 10
22.7011064275218928
 20
77.1314484384614758
 30
0.0
 11
22.7011064275218928
 21
77.1314484384614758
 31
0.0
  0
LINE
  5
68C
100
AcDbEntity
  8
layer 1
 62
256
370
9
 48
1.0
  6
BYLAYER
100
AcDbLine
 10
22.7011064275218928
 20
141.1314484384614616
 30
0.0
 11
22.7011064275218928
 21
141.1314484384614616
 31
0.0
  0
LINE
  5
68D
100
AcDbEntity
  8
layer 1
 62
256
370
9
 48
1.0
  6
BYLAYER
100
AcDbLine
 10
22.7011064275218928
 20
206.1314484384614616
 30
0.0
 11
22.7011064275218928
 21
206.1314484384614616
 31
0.0
  0
LINE
  5
68E
100
AcDbEntity
  8
layer 1
 62
256
370
9
 48
1.0
  6
BYLAYER
100
AcDbLine
 10
86.7011064275218928
 20
12.1314484384614758
 30
0.0
 11
86.7011064275218928
 21
12.1314484384614758
 31
0.0
  0
LINE
  5
68F
100
AcDbEntity
  8
layer 1
 62
256
370
9
 48
1.0
  6
BYLAYER
100
AcDbLine
 10
86.7011064275218928
 20
77.1314484384614758
 30
0.0
 11
86.7011064275218928
 21
77.1314484384614758
 31
0.0
  0
LINE
  5
690
100
AcDbEntity
  8
layer 1
 62
256
370
9
 48
1.0
  6
BYLAYER
100
AcDbLine
 10
86.7011064275218928
 20
141.1314484384614616
 30
0.0
 11
86.7011064275218928
 21
141.1314484384614616
 31
0.0
  0
LINE
  5
691
100
AcDbEntity
  8
layer 1
 62
256
370
9
 48
1.0
  6
BYLAYER
100
AcDbLine
 10
86.7011064275218928
 20
206.1314484384614616
 30
0.0
 11
86.7011064275218928
 21
206.1314484384614616
 31
0.0
  0
ARC
  5
692
100
AcDbEntity
  8
layer 1
 62
256
370
9
 48
1.0
  6
BYLAYER
100
AcDbCircle
 10
22.2784151981003049
 20
12.8704259583510705
 30
0.0
 40
0.8513258191386316
100
AcDbArc
 50
210.003725936729353
 51
299.7693279441185155
  0
ARC
  5
693
100
AcDbEntity
  8
layer 1
 62
256
370
9
 48
1.0
  6
BYLAYER
100
AcDbCircle
 10
22.2784151981003049
 20
77.8704259583510634
 30
0.0
 40
0.8513258191386316
100
AcDbArc
 50
210.003725936729353
 51
299.7693279441185155
  0
ARC
  5
694
100
AcDbEntity
  8
layer 1
 62
256
370
9
 48
1.0
  6
BYLAYER
100
AcDbCircle
 10
22.2784151981003049
 20
141.8704259583510634
 30
0.0
 40
0.8513258191386316
100
AcDbArc
 50
210.003725936729353
 51
299.7693279441185155
  0
ARC
  5
695
100
AcDbEntity
  8
layer 1
 62
256
370
9
 48
1.0
  6
BYLAYER
100
AcDbCircle
 10
22.2784151981003049
 20
206.8704259583510634
 30
0.0
 40
0.8513258191386316
100
AcDbArc
 50
210.003725936729353
 51
299.7693279441185155
  0
ARC
  5
696
100
AcDbEntity
  8
layer 1
 62
256
370
9
 48
1.0
  6
BYLAYER
100
AcDbCircle
 10
86.2784151981003049
 20
12.8704259583510705
 30
0.0
 40
0.8513258191386316
100
AcDbArc
 50
210.003725936729353
 51
299.7693279441185155
  0
ARC
  5
697
100
AcDbEntity
  8
layer 1
 62
256
370
9
 48
1.0
  6
BYLAYER
100
AcDbCircle
 10
86.2784151981003049
 20
77.8704259583510634
 30
0.0
 40
0.8513258191386316
100
AcDbArc
 50
210.003725936729353
 51
299.7693279441185155
  0
ARC
  5
698
100
AcDbEntity
  8
layer 1
 62
256
370
9
 48
1.0
  6
BYLAYER
100
AcDbCircle
 10
86.2784151981003049
 20
141.8704259583510634
 30
0.0
 40
0.8513258191386316
100
AcDbArc
 50
210.003725936729353
 51
299.7693279441185155
  0
ARC
  5
699
100
AcDbEntity
  8
layer 1
 62
256
370
9
 48
1.0
  6
BYLAYER
100
AcDbCircle
 10
86.2784151981003049
 20
206.8704259583510634
 30
0.0
 40
0.8513258191386316
100
AcDbArc
 50
210.003725936729353
 51
299.7693279441185155
  0
ARC
  5
69A
100
AcDbEntity
  8
layer 1
 62
256
370
9
 48
1.0
  6
BYLAYER
100
AcDbCircle
 10
22.2655951984247054
 20
12.8713373592152251
 30
0.0
 40
0.8407103739031052
100
AcDbArc
 50
119.2786310189176788
 51
210.494422861930218
  0
ARC
  5
69B
100
AcDbEntity
  8
layer 1
 62
256
370
9
 48
1.0
  6
BYLAYER
100
AcDbCircle
 10
22.2655951984247054
 20
77.8713373592152323
 30
0.0
 40
0.8407103739031052
100
AcDbArc
 50
119.2786310189176788
 51
210.494422861930218
  0
ARC
  5
69C
100
AcDbEntity
  8
layer 1
 62
256
370
9
 48
1.0
  6
BYLAYER
100
AcDbCircle
 10
22.2655951984247054
 20
141.8713373592152323
 30
0.0
 40
0.8407103739031052
100
AcDbArc
 50
119.2786310189176788
 51
210.494422861930218
  0
ARC
  5
69D
100
AcDbEntity
  8
layer 1
 62
256
370
9
 48
1.0
  6
BYLAYER
100
AcDbCircle
 10
22.2655951984247054
 20
206.8713373592152323
 30
0.0
 40
0.8407103739031052
100
AcDbArc
 50
119.2786310189176788
 51
210.494422861930218
  0
ARC
  5
69E
100
AcDbEntity
  8
layer 1
 62
256
370
9
 48
1.0
  6
BYLAYER
100
AcDbCircle
 10
86.2655951984247054
 20
12.8713373592152251
 30
0.0
 40
0.8407103739031052
100
AcDbArc
 50
119.2786310189176788
 51
210.494422861930218
  0
ARC
  5
69F
100
AcDbEntity
  8
layer 1
 62
256
370
9
 48
1.0
  6
BYLAYER
100
AcDbCircle
 10
86.2655951984247054
 20
77.8713373592152323
 30
0.0
 40
0.8407103739031052
100
AcDbArc
 50
119.2786310189176788
 51
210.494422861930218
  0
ARC
  5
6A0
100
AcDbEntity
  8
layer 1
 62
256
370
9
 48
1.0
  6
BYLAYER
100
AcDbCircle
 10
86.2655951984247054
 20
141.8713373592152323
 30
0.0
 40
0.8407103739031052
100
AcDbArc
 50
119.2786310189176788
 51
210.494422861930218
  0
ARC
  5
6A1
100
AcDbEntity
  8
layer 1
 62
256
370
9
 48
1.0
  6
BYLAYER
100
AcDbCircle
 10
86.2655951984247054
 20
206.8713373592152323
 30
0.0
 40
0.8407103739031052
100
AcDbArc
 50
119.2786310189176788
 51
210.494422861930218
  0
LINE
  5
6A2
100
AcDbEntity
  8
layer 1
 62
256
370
9
 48
1.0
  6
BYLAYER
100
AcDbLine
 10
21.8544397608552003
 20
13.6046484384614814
 30
0.0
 11
21.8544397608552003
 21
13.5961817717948179
 31
0.0
  0
LINE
  5
6A3
100
AcDbEntity
  8
layer 1
 62
256
370
9
 48
1.0
  6
BYLAYER
100
AcDbLine
 10
21.8544397608552003
 20
78.6046484384614814
 30
0.0
 11
21.8544397608552003
 21
78.5961817717948179
 31
0.0
  0
LINE
  5
6A4
100
AcDbEntity
  8
layer 1
 62
256
370
9
 48
1.0
  6
BYLAYER
100
AcDbLine
 10
21.8544397608552003
 20
142.6046484384614814
 30
0.0
 11
21.8544397608552003
 21
142.5961817717948179
 31
0.0
  0
LINE
  5
6A5
100
AcDbEntity
  8
layer 1
 62
256
370
9
 48
1.0
  6
BYLAYER
100
AcDbLine
 10
21.8544397608552003
 20
207.6046484384614814
 30
0.0
 11
21.8544397608552003
 21
207.5961817717948179
 31
0.0
  0
LINE
  5
6A6
100
AcDbEntity
  8
layer 1
 62
256
370
9
 48
1.0
  6
BYLAYER
100
AcDbLine
 10
85.8544397608552003
 20
13.6046484384614814
 30
0.0
 11
85.8544397608552003
 21
13.5961817717948179
 31
0.0
  0
LINE
  5
6A7
100
AcDbEntity
  8
layer 1
 62
256
370
9
 48
1.0
  6
BYLAYER
100
AcDbLine
 10
85.8544397608552003
 20
78.6046484384614814
 30
0.0
 11
85.8544397608552003
 21
78.5961817717948179
 31
0.0
  0
LINE
  5
6A8
100
AcDbEntity
  8
layer 1
 62
256
370
9
 48
1.0
  6
BYLAYER
100
AcDbLine
 10
85.8544397608552003
 20
142.6046484384614814
 30
0.0
 11
85.8544397608552003
 21
142.5961817717948179
 31
0.0
  0
LINE
  5
6A9
100
AcDbEntity
  8
layer 1
 62
256
370
9
 48
1.0
  6
BYLAYER
100
AcDbLine
 10
85.8544397608552003
 20
207.6046484384614814
 30
0.0
 11
85.8544397608552003
 21
207.5961817717948179
 31
0.0
  0
ARC
  5
6AA
100
AcDbEntity
  8
layer 1
 62
256
370
9
 48
1.0
  6
BYLAYER
100
AcDbCircle
 10
21.0213754987627794
 20
15.0547898231006485
 30
0.0
 40
1.6797420969034926
100
AcDbArc
 50
299.7322634586525965
 51
0.208933018317057
  0
ARC
  5
6AB
100
AcDbEntity
  8
layer 1
 62
256
370
9
 48
1.0
  6
BYLAYER
100
AcDbCircle
 10
21.0213754987627794
 20
80.0547898231006485
 30
0.0
 40
1.6797420969034926
100
AcDbArc
 50
299.7322634586525965
 51
0.208933018317057
  0
ARC
  5
6AC
100
AcDbEntity
  8
layer 1
 62
256
370
9
 48
1.0
  6
BYLAYER
100
AcDbCircle
 10
21.0213754987627794
 20
144.0547898231006343
 30
0.0
 40
1.6797420969034926
100
AcDbArc
 50
299.7322634586525965
 51
0.208933018317057
  0
ARC
  5
6AD
100
AcDbEntity
  8
layer 1
 62
256
370
9
 48
1.0
  6
BYLAYER
100
AcDbCircle
 10
21.0213754987627794
 20
209.0547898231006343
 30
0.0
 40
1.6797420969034926
100
AcDbArc
 50
299.7322634586525965
 51
0.208933018317057
  0
ARC
  5
6AE
100
AcDbEntity
  8
layer 1
 62
256
370
9
 48
1.0
  6
BYLAYER
100
AcDbCircle
 10
85.0213754987627794
 20
15.0547898231006485
 30
0.0
 40
1.6797420969034926
100
AcDbArc
 50
299.7322634586525965
 51
0.208933018317057
  0
ARC
  5
6AF
100
AcDbEntity
  8
layer 1
 62
256
370
9
 48
1.0
  6
BYLAYER
100
AcDbCircle
 10
85.0213754987627794
 20
80.0547898231006485
 30
0.0
 40
1.6797420969034926
100
AcDbArc
 50
299.7322634586525965
 51
0.208933018317057
  0
ARC
  5
6B0
100
AcDbEntity
  8
layer 1
 62
256
370
9
 48
1.0
  6
BYLAYER
100
AcDbCircle
 10
85.0213754987627794
 20
144.0547898231006343
 30
0.0
 40
1.6797420969034926
100
AcDbArc
 50
299.7322634586525965
 51
0.208933018317057
  0
ARC
  5
6B1
100
AcDbEntity
  8
layer 1
 62
256
370
9
 48
1.0
  6
BYLAYER
100
AcDbCircle
 10
85.0213754987627794
 20
209.0547898231006343
 30
0.0
 40
1.6797420969034926
100
AcDbArc
 50
299.7322634586525965
 51
0.208933018317057
  0
ARC
  5
6B2
100
AcDbEntity
  8
layer 1
 62
256
370
9
 48
1.0
  6
BYLAYER
100
AcDbCircle
 10
21.0077730941885079
 20
15.06091510512816
 30
0.0
 40
1.6933333333333334
100
AcDbArc
 50
0.0
 51
90.0000000000000142
  0
ARC
  5
6B3
100
AcDbEntity
  8
layer 1
 62
256
370
9
 48
1.0
  6
BYLAYER
100
AcDbCircle
 10
21.0077730941885079
 20
80.06091510512816
 30
0.0
 40
1.6933333333333334
100
AcDbArc
 50
0.0
 51
90.0000000000000142
  0
ARC
  5
6B4
100
AcDbEntity
  8
layer 1
 62
256
370
9
 48
1.0
  6
BYLAYER
100
AcDbCircle
 10
21.0077730941885079
 20
144.0609151051281742
 30
0.0
 40
1.6933333333333334
100
AcDbArc
 50
0.0
 51
90.0000000000000142
  0
ARC
  5
6B5
100
AcDbEntity
  8
layer 1
 62
256
370
9
 48
1.0
  6
BYLAYER
100
AcDbCircle
 10
21.0077730941885079
 20
209.0609151051281742
 30
0.0
 40
1.6933333333333334
100
AcDbArc
 50
0.0
 51
90.0000000000000142
  0
ARC
  5
6B6
100
AcDbEntity
  8
layer 1
 62
256
370
9
 48
1.0
  6
BYLAYER
100
AcDbCircle
 10
85.0077730941885079
 20
15.06091510512816
 30
0.0
 40
1.6933333333333334
100
AcDbArc
 50
0.0
 51
90.0000000000000142
  0
ARC
  5
6B7
100
AcDbEntity
  8
layer 1
 62
256
370
9
 48
1.0
  6
BYLAYER
100
AcDbCircle
 10
85.0077730941885079
 20
80.06091510512816
 30
0.0
 40
1.6933333333333334
100
AcDbArc
 50
0.0
 51
90.0000000000000142
  0
ARC
  5
6B8
100
AcDbEntity
  8
layer 1
 62
256
370
9
 48
1.0
  6
BYLAYER
100
AcDbCircle
 10
85.0077730941885079
 20
144.0609151051281742
 30
0.0
 40
1.6933333333333334
100
AcDbArc
 50
0.0
 51
90.0000000000000142
  0
ARC
  5
6B9
100
AcDbEntity
  8
layer 1
 62
256
370
9
 48
1.0
  6
BYLAYER
100
AcDbCircle
 10
85.0077730941885079
 20
209.0609151051281742
 30
0.0
 40
1.6933333333333334
100
AcDbArc
 50
0.0
 51
90.0000000000000142
  0
LINE
  5
6BA
100
AcDbEntity
  8
layer 1
 62
256
370
9
 48
1.0
  6
BYLAYER
100
AcDbLine
 10
21.0077730941885079
 20
16.7542484384614809
 30
0.0
 11
19.3144397608552083
 21
16.7542484384614809
 31
0.0
  0
LINE
  5
6BB
100
AcDbEntity
  8
layer 1
 62
256
370
9
 48
1.0
  6
BYLAYER
100
AcDbLine
 10
21.0077730941885079
 20
81.7542484384614738
 30
0.0
 11
19.3144397608552083
 21
81.7542484384614738
 31
0.0
  0
LINE
  5
6BC
100
AcDbEntity
  8
layer 1
 62
256
370
9
 48
1.0
  6
BYLAYER
100
AcDbLine
 10
21.0077730941885079
 20
145.7542484384614738
 30
0.0
 11
19.3144397608552083
 21
145.7542484384614738
 31
0.0
  0
LINE
  5
6BD
100
AcDbEntity
  8
layer 1
 62
256
370
9
 48
1.0
  6
BYLAYER
100
AcDbLine
 10
21.0077730941885079
 20
210.7542484384614738
 30
0.0
 11
19.3144397608552083
 21
210.7542484384614738
 31
0.0
  0
LINE
  5
6BE
100
AcDbEntity
  8
layer 1
 62
256
370
9
 48
1.0
  6
BYLAYER
100
AcDbLine
 10
85.0077730941885079
 20
16.7542484384614809
 30
0.0
 11
83.3144397608552083
 21
16.7542484384614809
 31
0.0
  0
LINE
  5
6BF
100
AcDbEntity
  8
layer 1
 62
256
370
9
 48
1.0
  6
BYLAYER
100
AcDbLine
 10
85.0077730941885079
 20
81.7542484384614738
 30
0.0
 11
83.3144397608552083
 21
81.7542484384614738
 31
0.0
  0
LINE
  5
6C0
100
AcDbEntity
  8
layer 1
 62
256
370
9
 48
1.0
  6
BYLAYER
100
AcDbLine
 10
85.0077730941885079
 20
145.7542484384614738
 30
0.0
 11
83.3144397608552083
 21
145.7542484384614738
 31
0.0
  0
LINE
  5
6C1
100
AcDbEntity
  8
layer 1
 62
256
370
9
 48
1.0
  6
BYLAYER
100
AcDbLine
 10
85.0077730941885079
 20
210.7542484384614738
 30
0.0
 11
83.3144397608552083
 21
210.7542484384614738
 31
0.0
  0
LINE
  5
6C2
100
AcDbEntity
  8
layer 1
 62
256
370
9
 48
1.0
  6
BYLAYER
100
AcDbLine
 10
38.5333333333333314
 20
22.5033333333333303
 30
0.0
 11
45.3066666666667004
 21
22.5033333333333303
 31
0.0
  0
LINE
  5
6C3
100
AcDbEntity
  8
layer 1
 62
256
370
9
 48
1.0
  6
BYLAYER
100
AcDbLine
 10
38.5333333333333314
 20
87.5033333333333303
 30
0.0
 11
45.3066666666667004
 21
87.5033333333333303
 31
0.0
  0
LINE
  5
6C4
100
AcDbEntity
  8
layer 1
 62
256
370
9
 48
1.0
  6
BYLAYER
100
AcDbLine
 10
38.5333333333333314
 20
151.5033333333333303
 30
0.0
 11
45.3066666666667004
 21
151.5033333333333303
 31
0.0
  0
LINE
  5
6C5
100
AcDbEntity
  8
layer 1
 62
256
370
9
 48
1.0
  6
BYLAYER
100
AcDbLine
 10
38.5333333333333314
 20
216.5033333333333303
 30
0.0
 11
45.3066666666667004
 21
216.5033333333333303
 31
0.0
  0
LINE
  5
6C6
100
AcDbEntity
  8
layer 1
 62
256
370
9
 48
1.0
  6
BYLAYER
100
AcDbLine
 10
102.5333333333333314
 20
22.5033333333333303
 30
0.0
 11
109.3066666666667004
 21
22.5033333333333303
 31
0.0
  0
LINE
  5
6C7
100
AcDbEntity
  8
layer 1
 62
256
370
9
 48
1.0
  6
BYLAYER
100
AcDbLine
 10
102.5333333333333314
 20
87.5033333333333303
 30
0.0
 11
109.3066666666667004
 21
87.5033333333333303
 31
0.0
  0
LINE
  5
6C8
100
AcDbEntity
  8
layer 1
 62
256
370
9
 48
1.0
  6
BYLAYER
100
AcDbLine
 10
102.5333333333333314
 20
151.5033333333333303
 30
0.0
 11
109.3066666666667004
 21
151.5033333333333303
 31
0.0
  0
LINE
  5
6C9
100
AcDbEntity
  8
layer 1
 62
256
370
9
 48
1.0
  6
BYLAYER
100
AcDbLine
 10
102.5333333333333314
 20
216.5033333333333303
 30
0.0
 11
109.3066666666667004
 21
216.5033333333333303
 31
0.0
  0
ARC
  5
6CA
100
AcDbEntity
  8
layer 1
 62
256
370
9
 48
1.0
  6
BYLAYER
100
AcDbCircle
 10
47.0
 20
22.5033333333333303
 30
0.0
 40
1.6933333333333334
100
AcDbArc
 50
90.0000000000000142
 51
180.0
  0
ARC
  5
6CB
100
AcDbEntity
  8
layer 1
 62
256
370
9
 48
1.0
  6
BYLAYER
100
AcDbCircle
 10
47.0
 20
87.5033333333333303
 30
0.0
 40
1.6933333333333334
100
AcDbArc
 50
90.0000000000000142
 51
180.0
  0
ARC
  5
6CC
100
AcDbEntity
  8
layer 1
 62
256
370
9
 48
1.0
  6
BYLAYER
100
AcDbCircle
 10
47.0
 20
151.5033333333333303
 30
0.0
 40
1.6933333333333334
100
AcDbArc
 50
90.0000000000000142
 51
180.0
  0
ARC
  5
6CD
100
AcDbEntity
  8
layer 1
 62
256
370
9
 48
1.0
  6
BYLAYER
100
AcDbCircle
 10
47.0
 20
216.5033333333333303
 30
0.0
 40
1.6933333333333334
100
AcDbArc
 50
90.0000000000000142
 51
180.0
  0
ARC
  5
6CE
100
AcDbEntity
  8
layer 1
 62
256
370
9
 48
1.0
  6
BYLAYER
100
AcDbCircle
 10
111.0
 20
22.5033333333333303
 30
0.0
 40
1.6933333333333334
100
AcDbArc
 50
90.0000000000000142
 51
180.0
  0
ARC
  5
6CF
100
AcDbEntity
  8
layer 1
 62
256
370
9
 48
1.0
  6
BYLAYER
100
AcDbCircle
 10
111.0
 20
87.5033333333333303
 30
0.0
 40
1.6933333333333334
100
AcDbArc
 50
90.0000000000000142
 51
180.0
  0
ARC
  5
6D0
100
AcDbEntity
  8
layer 1
 62
256
370
9
 48
1.0
  6
BYLAYER
100
AcDbCircle
 10
111.0
 20
151.5033333333333303
 30
0.0
 40
1.6933333333333334
100
AcDbArc
 50
90.0000000000000142
 51
180.0
  0
ARC
  5
6D1
100
AcDbEntity
  8
layer 1
 62
256
370
9
 48
1.0
  6
BYLAYER
100
AcDbCircle
 10
111.0
 20
216.5033333333333303
 30
0.0
 40
1.6933333333333334
100
AcDbArc
 50
90.0000000000000142
 51
180.0
  0
ARC
  5
6D2
100
AcDbEntity
  8
layer 1
 62
256
370
9
 48
1.0
  6
BYLAYER
100
AcDbCircle
 10
47.0
 20
22.5033333333333303
 30
0.0
 40
1.6933333333333334
100
AcDbArc
 50
0.0
 51
90.0000000000000142
  0
ARC
  5
6D3
100
AcDbEntity
  8
layer 1
 62
256
370
9
 48
1.0
  6
BYLAYER
100
AcDbCircle
 10
47.0
 20
87.5033333333333303
 30
0.0
 40
1.6933333333333334
100
AcDbArc
 50
0.0
 51
90.0000000000000142
  0
ARC
  5
6D4
100
AcDbEntity
  8
layer 1
 62
256
370
9
 48
1.0
  6
BYLAYER
100
AcDbCircle
 10
47.0
 20
151.5033333333333303
 30
0.0
 40
1.6933333333333334
100
AcDbArc
 50
0.0
 51
90.0000000000000142
  0
ARC
  5
6D5
100
AcDbEntity
  8
layer 1
 62
256
370
9
 48
1.0
  6
BYLAYER
100
AcDbCircle
 10
47.0
 20
216.5033333333333303
 30
0.0
 40
1.6933333333333334
100
AcDbArc
 50
0.0
 51
90.0000000000000142
  0
ARC
  5
6D6
100
AcDbEntity
  8
layer 1
 62
256
370
9
 48
1.0
  6
BYLAYER
100
AcDbCircle
 10
111.0
 20
22.5033333333333303
 30
0.0
 40
1.6933333333333334
100
AcDbArc
 50
0.0
 51
90.0000000000000142
  0
ARC
  5
6D7
100
AcDbEntity
  8
layer 1
 62
256
370
9
 48
1.0
  6
BYLAYER
100
AcDbCircle
 10
111.0
 20
87.5033333333333303
 30
0.0
 40
1.6933333333333334
100
AcDbArc
 50
0.0
 51
90.0000000000000142
  0
ARC
  5
6D8
100
AcDbEntity
  8
layer 1
 62
256
370
9
 48
1.0
  6
BYLAYER
100
AcDbCircle
 10
111.0
 20
151.5033333333333303
 30
0.0
 40
1.6933333333333334
100
AcDbArc
 50
0.0
 51
90.0000000000000142
  0
ARC
  5
6D9
100
AcDbEntity
  8
layer 1
 62
256
370
9
 48
1.0
  6
BYLAYER
100
AcDbCircle
 10
111.0
 20
216.5033333333333303
 30
0.0
 40
1.6933333333333334
100
AcDbArc
 50
0.0
 51
90.0000000000000142
  0
LINE
  5
6DA
100
AcDbEntity
  8
layer 1
 62
256
370
9
 48
1.0
  6
BYLAYER
100
AcDbLine
 10
48.6933333333333849
 20
22.5033333333333303
 30
0.0
 11
55.4666666666666686
 21
22.5033333333333303
 31
0.0
  0
LINE
  5
6DB
100
AcDbEntity
  8
layer 1
 62
256
370
9
 48
1.0
  6
BYLAYER
100
AcDbLine
 10
48.6933333333333849
 20
87.5033333333333303
 30
0.0
 11
55.4666666666666686
 21
87.5033333333333303
 31
0.0
  0
LINE
  5
6DC
100
AcDbEntity
  8
layer 1
 62
256
370
9
 48
1.0
  6
BYLAYER
100
AcDbLine
 10
48.6933333333333849
 20
151.5033333333333303
 30
0.0
 11
55.4666666666666686
 21
151.5033333333333303
 31
0.0
  0
LINE
  5
6DD
100
AcDbEntity
  8
layer 1
 62
256
370
9
 48
1.0
  6
BYLAYER
100
AcDbLine
 10
48.6933333333333849
 20
216.5033333333333303
 30
0.0
 11
55.4666666666666686
 21
216.5033333333333303
 31
0.0
  0
LINE
  5
6DE
100
AcDbEntity
  8
layer 1
 62
256
370
9
 48
1.0
  6
BYLAYER
100
AcDbLine
 10
112.6933333333333849
 20
22.5033333333333303
 30
0.0
 11
119.4666666666666686
 21
22.5033333333333303
 31
0.0
  0
LINE
  5
6DF
100
AcDbEntity
  8
layer 1
 62
256
370
9
 48
1.0
  6
BYLAYER
100
AcDbLine
 10
112.6933333333333849
 20
87.5033333333333303
 30
0.0
 11
119.4666666666666686
 21
87.5033333333333303
 31
0.0
  0
LINE
  5
6E0
100
AcDbEntity
  8
layer 1
 62
256
370
9
 48
1.0
  6
BYLAYER
100
AcDbLine
 10
112.6933333333333849
 20
151.5033333333333303
 30
0.0
 11
119.4666666666666686
 21
151.5033333333333303
 31
0.0
  0
LINE
  5
6E1
100
AcDbEntity
  8
layer 1
 62
256
370
9
 48
1.0
  6
BYLAYER
100
AcDbLine
 10
112.6933333333333849
 20
216.5033333333333303
 30
0.0
 11
119.4666666666666686
 21
216.5033333333333303
 31
0.0
  0
LINE
  5
6E2
100
AcDbEntity
  8
layer 1
 62
256
370
9
 48
1.0
  6
BYLAYER
100
AcDbLine
 10
55.4666666666666686
 20
22.5033333333333303
 30
0.0
 11
55.4666666666666686
 21
20.8099999999999952
 31
0.0
  0
LINE
  5
6E3
100
AcDbEntity
  8
layer 1
 62
256
370
9
 48
1.0
  6
BYLAYER
100
AcDbLine
 10
55.4666666666666686
 20
87.5033333333333303
 30
0.0
 11
55.4666666666666686
 21
85.8100000000000023
 31
0.0
  0
LINE
  5
6E4
100
AcDbEntity
  8
layer 1
 62
256
370
9
 48
1.0
  6
BYLAYER
100
AcDbLine
 10
55.4666666666666686
 20
151.5033333333333303
 30
0.0
 11
55.4666666666666686
 21
149.8100000000000023
 31
0.0
  0
LINE
  5
6E5
100
AcDbEntity
  8
layer 1
 62
256
370
9
 48
1.0
  6
BYLAYER
100
AcDbLine
 10
55.4666666666666686
 20
216.5033333333333303
 30
0.0
 11
55.4666666666666686
 21
214.8100000000000023
 31
0.0
  0
LINE
  5
6E6
100
AcDbEntity
  8
layer 1
 62
256
370
9
 48
1.0
  6
BYLAYER
100
AcDbLine
 10
119.4666666666666686
 20
22.5033333333333303
 30
0.0
 11
119.4666666666666686
 21
20.8099999999999952
 31
0.0
  0
LINE
  5
6E7
100
AcDbEntity
  8
layer 1
 62
256
370
9
 48
1.0
  6
BYLAYER
100
AcDbLine
 10
119.4666666666666686
 20
87.5033333333333303
 30
0.0
 11
119.4666666666666686
 21
85.8100000000000023
 31
0.0
  0
LINE
  5
6E8
100
AcDbEntity
  8
layer 1
 62
256
370
9
 48
1.0
  6
BYLAYER
100
AcDbLine
 10
119.4666666666666686
 20
151.5033333333333303
 30
0.0
 11
119.4666666666666686
 21
149.8100000000000023
 31
0.0
  0
LINE
  5
6E9
100
AcDbEntity
  8
layer 1
 62
256
370
9
 48
1.0
  6
BYLAYER
100
AcDbLine
 10
119.4666666666666686
 20
216.5033333333333303
 30
0.0
 11
119.4666666666666686
 21
214.8100000000000023
 31
0.0
  0
LINE
  5
6EA
100
AcDbEntity
  8
layer 1
 62
256
370
9
 48
1.0
  6
BYLAYER
100
AcDbLine
 10
55.4666666666666686
 20
20.8099999999999952
 30
0.0
 11
54.620000000000033
 21
20.8099999999999952
 31
0.0
  0
LINE
  5
6EB
100
AcDbEntity
  8
layer 1
 62
256
370
9
 48
1.0
  6
BYLAYER
100
AcDbLine
 10
55.4666666666666686
 20
85.8100000000000023
 30
0.0
 11
54.620000000000033
 21
85.8100000000000023
 31
0.0
  0
LINE
  5
6EC
100
AcDbEntity
  8
layer 1
 62
256
370
9
 48
1.0
  6
BYLAYER
100
AcDbLine
 10
55.4666666666666686
 20
149.8100000000000023
 30
0.0
 11
54.620000000000033
 21
149.8100000000000023
 31
0.0
  0
LINE
  5
6ED
100
AcDbEntity
  8
layer 1
 62
256
370
9
 48
1.0
  6
BYLAYER
100
AcDbLine
 10
55.4666666666666686
 20
214.8100000000000023
 30
0.0
 11
54.620000000000033
 21
214.8100000000000023
 31
0.0
  0
LINE
  5
6EE
100
AcDbEntity
  8
layer 1
 62
256
370
9
 48
1.0
  6
BYLAYER
100
AcDbLine
 10
119.4666666666666686
 20
20.8099999999999952
 30
0.0
 11
118.620000000000033
 21
20.8099999999999952
 31
0.0
  0
LINE
  5
6EF
100
AcDbEntity
  8
layer 1
 62
256
370
9
 48
1.0
  6
BYLAYER
100
AcDbLine
 10
119.4666666666666686
 20
85.8100000000000023
 30
0.0
 11
118.620000000000033
 21
85.8100000000000023
 31
0.0
  0
LINE
  5
6F0
100
AcDbEntity
  8
layer 1
 62
256
370
9
 48
1.0
  6
BYLAYER
100
AcDbLine
 10
119.4666666666666686
 20
149.8100000000000023
 30
0.0
 11
118.620000000000033
 21
149.8100000000000023
 31
0.0
  0
LINE
  5
6F1
100
AcDbEntity
  8
layer 1
 62
256
370
9
 48
1.0
  6
BYLAYER
100
AcDbLine
 10
119.4666666666666686
 20
214.8100000000000023
 30
0.0
 11
118.620000000000033
 21
214.8100000000000023
 31
0.0
  0
LINE
  5
6F2
100
AcDbEntity
  8
layer 1
 62
256
370
9
 48
1.0
  6
BYLAYER
100
AcDbLine
 10
54.620000000000033
 20
20.8099999999999952
 30
0.0
 11
54.620000000000033
 21
11.4966666666666555
 31
0.0
  0
LINE
  5
6F3
100
AcDbEntity
  8
layer 1
 62
256
370
9
 48
1.0
  6
BYLAYER
100
AcDbLine
 10
54.620000000000033
 20
85.8100000000000023
 30
0.0
 11
54.620000000000033
 21
76.4966666666666555
 31
0.0
  0
LINE
  5
6F4
100
AcDbEntity
  8
layer 1
 62
256
370
9
 48
1.0
  6
BYLAYER
100
AcDbLine
 10
54.620000000000033
 20
149.8100000000000023
 30
0.0
 11
54.620000000000033
 21
140.4966666666666697
 31
0.0
  0
LINE
  5
6F5
100
AcDbEntity
  8
layer 1
 62
256
370
9
 48
1.0
  6
BYLAYER
100
AcDbLine
 10
54.620000000000033
 20
214.8100000000000023
 30
0.0
 11
54.620000000000033
 21
205.4966666666666697
 31
0.0
  0
LINE
  5
6F6
100
AcDbEntity
  8
layer 1
 62
256
370
9
 48
1.0
  6
BYLAYER
100
AcDbLine
 10
118.620000000000033
 20
20.8099999999999952
 30
0.0
 11
118.620000000000033
 21
11.4966666666666555
 31
0.0
  0
LINE
  5
6F7
100
AcDbEntity
  8
layer 1
 62
256
370
9
 48
1.0
  6
BYLAYER
100
AcDbLine
 10
118.620000000000033
 20
85.8100000000000023
 30
0.0
 11
118.620000000000033
 21
76.4966666666666555
 31
0.0
  0
LINE
  5
6F8
100
AcDbEntity
  8
layer 1
 62
256
370
9
 48
1.0
  6
BYLAYER
100
AcDbLine
 10
118.620000000000033
 20
149.8100000000000023
 30
0.0
 11
118.620000000000033
 21
140.4966666666666697
 31
0.0
  0
LINE
  5
6F9
100
AcDbEntity
  8
layer 1
 62
256
370
9
 48
1.0
  6
BYLAYER
100
AcDbLine
 10
118.620000000000033
 20
214.8100000000000023
 30
0.0
 11
118.620000000000033
 21
205.4966666666666697
 31
0.0
  0
LINE
  5
6FA
100
AcDbEntity
  8
layer 1
 62
256
370
9
 48
1.0
  6
BYLAYER
100
AcDbLine
 10
54.620000000000033
 20
11.4966666666666555
 30
0.0
 11
49.7516666666666652
 21
11.4966666666666555
 31
0.0
  0
LINE
  5
6FB
100
AcDbEntity
  8
layer 1
 62
256
370
9
 48
1.0
  6
BYLAYER
100
AcDbLine
 10
54.620000000000033
 20
76.4966666666666555
 30
0.0
 11
49.7516666666666652
 21
76.4966666666666555
 31
0.0
  0
LINE
  5
6FC
100
AcDbEntity
  8
layer 1
 62
256
370
9
 48
1.0
  6
BYLAYER
100
AcDbLine
 10
54.620000000000033
 20
140.4966666666666697
 30
0.0
 11
49.7516666666666652
 21
140.4966666666666697
 31
0.0
  0
LINE
  5
6FD
100
AcDbEntity
  8
layer 1
 62
256
370
9
 48
1.0
  6
BYLAYER
100
AcDbLine
 10
54.620000000000033
 20
205.4966666666666697
 30
0.0
 11
49.7516666666666652
 21
205.4966666666666697
 31
0.0
  0
LINE
  5
6FE
100
AcDbEntity
  8
layer 1
 62
256
370
9
 48
1.0
  6
BYLAYER
100
AcDbLine
 10
118.620000000000033
 20
11.4966666666666555
 30
0.0
 11
113.7516666666666652
 21
11.4966666666666555
 31
0.0
  0
LINE
  5
6FF
100
AcDbEntity
  8
layer 1
 62
256
370
9
 48
1.0
  6
BYLAYER
100
AcDbLine
 10
118.620000000000033
 20
76.4966666666666555
 30
0.0
 11
113.7516666666666652
 21
76.4966666666666555
 31
0.0
  0
LINE
  5
700
100
AcDbEntity
  8
layer 1
 62
256
370
9
 48
1.0
  6
BYLAYER
100
AcDbLine
 10
118.620000000000033
 20
140.4966666666666697
 30
0.0
 11
113.7516666666666652
 21
140.4966666666666697
 31
0.0
  0
LINE
  5
701
100
AcDbEntity
  8
layer 1
 62
256
370
9
 48
1.0
  6
BYLAYER
100
AcDbLine
 10
118.620000000000033
 20
205.4966666666666697
 30
0.0
 11
113.7516666666666652
 21
205.4966666666666697
 31
0.0
  0
LINE
  5
702
100
AcDbEntity
  8
layer 1
 62
256
370
9
 48
1.0
  6
BYLAYER
100
AcDbLine
 10
49.7516666666666652
 20
11.4966666666666555
 30
0.0
 11
51.2333333333333769
 21
6.4166666666666714
 31
0.0
  0
LINE
  5
703
100
AcDbEntity
  8
layer 1
 62
256
370
9
 48
1.0
  6
BYLAYER
100
AcDbLine
 10
49.7516666666666652
 20
76.4966666666666555
 30
0.0
 11
51.2333333333333769
 21
71.4166666666666714
 31
0.0
  0
LINE
  5
704
100
AcDbEntity
  8
layer 1
 62
256
370
9
 48
1.0
  6
BYLAYER
100
AcDbLine
 10
49.7516666666666652
 20
140.4966666666666697
 30
0.0
 11
51.2333333333333769
 21
135.4166666666666856
 31
0.0
  0
LINE
  5
705
100
AcDbEntity
  8
layer 1
 62
256
370
9
 48
1.0
  6
BYLAYER
100
AcDbLine
 10
49.7516666666666652
 20
205.4966666666666697
 30
0.0
 11
51.2333333333333769
 21
200.4166666666666856
 31
0.0
  0
LINE
  5
706
100
AcDbEntity
  8
layer 1
 62
256
370
9
 48
1.0
  6
BYLAYER
100
AcDbLine
 10
113.7516666666666652
 20
11.4966666666666555
 30
0.0
 11
115.2333333333333769
 21
6.4166666666666714
 31
0.0
  0
LINE
  5
707
100
AcDbEntity
  8
layer 1
 62
256
370
9
 48
1.0
  6
BYLAYER
100
AcDbLine
 10
113.7516666666666652
 20
76.4966666666666555
 30
0.0
 11
115.2333333333333769
 21
71.4166666666666714
 31
0.0
  0
LINE
  5
708
100
AcDbEntity
  8
layer 1
 62
256
370
9
 48
1.0
  6
BYLAYER
100
AcDbLine
 10
113.7516666666666652
 20
140.4966666666666697
 30
0.0
 11
115.2333333333333769
 21
135.4166666666666856
 31
0.0
  0
LINE
  5
709
100
AcDbEntity
  8
layer 1
 62
256
370
9
 48
1.0
  6
BYLAYER
100
AcDbLine
 10
113.7516666666666652
 20
205.4966666666666697
 30
0.0
 11
115.2333333333333769
 21
200.4166666666666856
 31
0.0
  0
LINE
  5
70A
100
AcDbEntity
  8
layer 1
 62
256
370
9
 48
1.0
  6
BYLAYER
100
AcDbLine
 10
51.2333333333333769
 20
6.4166666666666714
 30
0.0
 11
49.539999999999992
 21
6.4166666666666714
 31
0.0
  0
LINE
  5
70B
100
AcDbEntity
  8
layer 1
 62
256
370
9
 48
1.0
  6
BYLAYER
100
AcDbLine
 10
51.2333333333333769
 20
71.4166666666666714
 30
0.0
 11
49.539999999999992
 21
71.4166666666666714
 31
0.0
  0
LINE
  5
70C
100
AcDbEntity
  8
layer 1
 62
256
370
9
 48
1.0
  6
BYLAYER
100
AcDbLine
 10
51.2333333333333769
 20
135.4166666666666856
 30
0.0
 11
49.539999999999992
 21
135.4166666666666856
 31
0.0
  0
LINE
  5
70D
100
AcDbEntity
  8
layer 1
 62
256
370
9
 48
1.0
  6
BYLAYER
100
AcDbLine
 10
51.2333333333333769
 20
200.4166666666666856
 30
0.0
 11
49.539999999999992
 21
200.4166666666666856
 31
0.0
  0
LINE
  5
70E
100
AcDbEntity
  8
layer 1
 62
256
370
9
 48
1.0
  6
BYLAYER
100
AcDbLine
 10
115.2333333333333769
 20
6.4166666666666714
 30
0.0
 11
113.539999999999992
 21
6.4166666666666714
 31
0.0
  0
LINE
  5
70F
100
AcDbEntity
  8
layer 1
 62
256
370
9
 48
1.0
  6
BYLAYER
100
AcDbLine
 10
115.2333333333333769
 20
71.4166666666666714
 30
0.0
 11
113.539999999999992
 21
71.4166666666666714
 31
0.0
  0
LINE
  5
710
100
AcDbEntity
  8
layer 1
 62
256
370
9
 48
1.0
  6
BYLAYER
100
AcDbLine
 10
115.2333333333333769
 20
135.4166666666666856
 30
0.0
 11
113.539999999999992
 21
135.4166666666666856
 31
0.0
  0
LINE
  5
711
100
AcDbEntity
  8
layer 1
 62
256
370
9
 48
1.0
  6
BYLAYER
100
AcDbLine
 10
115.2333333333333769
 20
200.4166666666666856
 30
0.0
 11
113.539999999999992
 21
200.4166666666666856
 31
0.0
  0
LINE
  5
712
100
AcDbEntity
  8
layer 1
 62
256
370
9
 48
1.0
  6
BYLAYER
100
AcDbLine
 10
49.539999999999992
 20
6.4166666666666714
 30
0.0
 11
48.0583333333333655
 21
11.4966666666666555
 31
0.0
  0
LINE
  5
713
100
AcDbEntity
  8
layer 1
 62
256
370
9
 48
1.0
  6
BYLAYER
100
AcDbLine
 10
49.539999999999992
 20
71.4166666666666714
 30
0.0
 11
48.0583333333333655
 21
76.4966666666666555
 31
0.0
  0
LINE
  5
714
100
AcDbEntity
  8
layer 1
 62
256
370
9
 48
1.0
  6
BYLAYER
100
AcDbLine
 10
49.539999999999992
 20
135.4166666666666856
 30
0.0
 11
48.0583333333333655
 21
140.4966666666666697
 31
0.0
  0
LINE
  5
715
100
AcDbEntity
  8
layer 1
 62
256
370
9
 48
1.0
  6
BYLAYER
100
AcDbLine
 10
49.539999999999992
 20
200.4166666666666856
 30
0.0
 11
48.0583333333333655
 21
205.4966666666666697
 31
0.0
  0
LINE
  5
716
100
AcDbEntity
  8
layer 1
 62
256
370
9
 48
1.0
  6
BYLAYER
100
AcDbLine
 10
113.539999999999992
 20
6.4166666666666714
 30
0.0
 11
112.0583333333333655
 21
11.4966666666666555
 31
0.0
  0
LINE
  5
717
100
AcDbEntity
  8
layer 1
 62
256
370
9
 48
1.0
  6
BYLAYER
100
AcDbLine
 10
113.539999999999992
 20
71.4166666666666714
 30
0.0
 11
112.0583333333333655
 21
76.4966666666666555
 31
0.0
  0
LINE
  5
718
100
AcDbEntity
  8
layer 1
 62
256
370
9
 48
1.0
  6
BYLAYER
100
AcDbLine
 10
113.539999999999992
 20
135.4166666666666856
 30
0.0
 11
112.0583333333333655
 21
140.4966666666666697
 31
0.0
  0
LINE
  5
719
100
AcDbEntity
  8
layer 1
 62
256
370
9
 48
1.0
  6
BYLAYER
100
AcDbLine
 10
113.539999999999992
 20
200.4166666666666856
 30
0.0
 11
112.0583333333333655
 21
205.4966666666666697
 31
0.0
  0
LINE
  5
71A
100
AcDbEntity
  8
layer 1
 62
256
370
9
 48
1.0
  6
BYLAYER
100
AcDbLine
 10
48.0583333333333655
 20
11.4966666666666555
 30
0.0
 11
45.9416666666667197
 21
11.4966666666666555
 31
0.0
  0
LINE
  5
71B
100
AcDbEntity
  8
layer 1
 62
256
370
9
 48
1.0
  6
BYLAYER
100
AcDbLine
 10
48.0583333333333655
 20
76.4966666666666555
 30
0.0
 11
45.9416666666667197
 21
76.4966666666666555
 31
0.0
  0
LINE
  5
71C
100
AcDbEntity
  8
layer 1
 62
256
370
9
 48
1.0
  6
BYLAYER
100
AcDbLine
 10
48.0583333333333655
 20
140.4966666666666697
 30
0.0
 11
45.9416666666667197
 21
140.4966666666666697
 31
0.0
  0
LINE
  5
71D
100
AcDbEntity
  8
layer 1
 62
256
370
9
 48
1.0
  6
BYLAYER
100
AcDbLine
 10
48.0583333333333655
 20
205.4966666666666697
 30
0.0
 11
45.9416666666667197
 21
205.4966666666666697
 31
0.0
  0
LINE
  5
71E
100
AcDbEntity
  8
layer 1
 62
256
370
9
 48
1.0
  6
BYLAYER
100
AcDbLine
 10
112.0583333333333655
 20
11.4966666666666555
 30
0.0
 11
109.9416666666667197
 21
11.4966666666666555
 31
0.0
  0
LINE
  5
71F
100
AcDbEntity
  8
layer 1
 62
256
370
9
 48
1.0
  6
BYLAYER
100
AcDbLine
 10
112.0583333333333655
 20
76.4966666666666555
 30
0.0
 11
109.9416666666667197
 21
76.4966666666666555
 31
0.0
  0
LINE
  5
720
100
AcDbEntity
  8
layer 1
 62
256
370
9
 48
1.0
  6
BYLAYER
100
AcDbLine
 10
112.0583333333333655
 20
140.4966666666666697
 30
0.0
 11
109.9416666666667197
 21
140.4966666666666697
 31
0.0
  0
LINE
  5
721
100
AcDbEntity
  8
layer 1
 62
256
370
9
 48
1.0
  6
BYLAYER
100
AcDbLine
 10
112.0583333333333655
 20
205.4966666666666697
 30
0.0
 11
109.9416666666667197
 21
205.4966666666666697
 31
0.0
  0
LINE
  5
722
100
AcDbEntity
  8
layer 1
 62
256
370
9
 48
1.0
  6
BYLAYER
100
AcDbLine
 10
45.9416666666667197
 20
11.4966666666666555
 30
0.0
 11
44.460000000000008
 21
6.4166666666666714
 31
0.0
  0
LINE
  5
723
100
AcDbEntity
  8
layer 1
 62
256
370
9
 48
1.0
  6
BYLAYER
100
AcDbLine
 10
45.9416666666667197
 20
76.4966666666666555
 30
0.0
 11
44.460000000000008
 21
71.4166666666666714
 31
0.0
  0
LINE
  5
724
100
AcDbEntity
  8
layer 1
 62
256
370
9
 48
1.0
  6
BYLAYER
100
AcDbLine
 10
45.9416666666667197
 20
140.4966666666666697
 30
0.0
 11
44.460000000000008
 21
135.4166666666666856
 31
0.0
  0
LINE
  5
725
100
AcDbEntity
  8
layer 1
 62
256
370
9
 48
1.0
  6
BYLAYER
100
AcDbLine
 10
45.9416666666667197
 20
205.4966666666666697
 30
0.0
 11
44.460000000000008
 21
200.4166666666666856
 31
0.0
  0
LINE
  5
726
100
AcDbEntity
  8
layer 1
 62
256
370
9
 48
1.0
  6
BYLAYER
100
AcDbLine
 10
109.9416666666667197
 20
11.4966666666666555
 30
0.0
 11
108.460000000000008
 21
6.4166666666666714
 31
0.0
  0
LINE
  5
727
100
AcDbEntity
  8
layer 1
 62
256
370
9
 48
1.0
  6
BYLAYER
100
AcDbLine
 10
109.9416666666667197
 20
76.4966666666666555
 30
0.0
 11
108.460000000000008
 21
71.4166666666666714
 31
0.0
  0
LINE
  5
728
100
AcDbEntity
  8
layer 1
 62
256
370
9
 48
1.0
  6
BYLAYER
100
AcDbLine
 10
109.9416666666667197
 20
140.4966666666666697
 30
0.0
 11
108.460000000000008
 21
135.4166666666666856
 31
0.0
  0
LINE
  5
729
100
AcDbEntity
  8
layer 1
 62
256
370
9
 48
1.0
  6
BYLAYER
100
AcDbLine
 10
109.9416666666667197
 20
205.4966666666666697
 30
0.0
 11
108.460000000000008
 21
200.4166666666666856
 31
0.0
  0
LINE
  5
72A
100
AcDbEntity
  8
layer 1
 62
256
370
9
 48
1.0
  6
BYLAYER
100
AcDbLine
 10
44.460000000000008
 20
6.4166666666666714
 30
0.0
 11
42.7666666666667084
 21
6.4166666666666714
 31
0.0
  0
LINE
  5
72B
100
AcDbEntity
  8
layer 1
 62
256
370
9
 48
1.0
  6
BYLAYER
100
AcDbLine
 10
44.460000000000008
 20
71.4166666666666714
 30
0.0
 11
42.7666666666667084
 21
71.4166666666666714
 31
0.0
  0
LINE
  5
72C
100
AcDbEntity
  8
layer 1
 62
256
370
9
 48
1.0
  6
BYLAYER
100
AcDbLine
 10
44.460000000000008
 20
135.4166666666666856
 30
0.0
 11
42.7666666666667084
 21
135.4166666666666856
 31
0.0
  0
LINE
  5
72D
100
AcDbEntity
  8
layer 1
 62
256
370
9
 48
1.0
  6
BYLAYER
100
AcDbLine
 10
44.460000000000008
 20
200.4166666666666856
 30
0.0
 11
42.7666666666667084
 21
200.4166666666666856
 31
0.0
  0
LINE
  5
72E
100
AcDbEntity
  8
layer 1
 62
256
370
9
 48
1.0
  6
BYLAYER
100
AcDbLine
 10
108.460000000000008
 20
6.4166666666666714
 30
0.0
 11
106.7666666666667084
 21
6.4166666666666714
 31
0.0
  0
LINE
  5
72F
100
AcDbEntity
  8
layer 1
 62
256
370
9
 48
1.0
  6
BYLAYER
100
AcDbLine
 10
108.460000000000008
 20
71.4166666666666714
 30
0.0
 11
106.7666666666667084
 21
71.4166666666666714
 31
0.0
  0
LINE
  5
730
100
AcDbEntity
  8
layer 1
 62
256
370
9
 48
1.0
  6
BYLAYER
100
AcDbLine
 10
108.460000000000008
 20
135.4166666666666856
 30
0.0
 11
106.7666666666667084
 21
135.4166666666666856
 31
0.0
  0
LINE
  5
731
100
AcDbEntity
  8
layer 1
 62
256
370
9
 48
1.0
  6
BYLAYER
100
AcDbLine
 10
108.460000000000008
 20
200.4166666666666856
 30
0.0
 11
106.7666666666667084
 21
200.4166666666666856
 31
0.0
  0
LINE
  5
732
100
AcDbEntity
  8
layer 1
 62
256
370
9
 48
1.0
  6
BYLAYER
100
AcDbLine
 10
42.7666666666667084
 20
6.4166666666666714
 30
0.0
 11
44.2483333333333348
 21
11.4966666666666555
 31
0.0
  0
LINE
  5
733
100
AcDbEntity
  8
layer 1
 62
256
370
9
 48
1.0
  6
BYLAYER
100
AcDbLine
 10
42.7666666666667084
 20
71.4166666666666714
 30
0.0
 11
44.2483333333333348
 21
76.4966666666666555
 31
0.0
  0
LINE
  5
734
100
AcDbEntity
  8
layer 1
 62
256
370
9
 48
1.0
  6
BYLAYER
100
AcDbLine
 10
42.7666666666667084
 20
135.4166666666666856
 30
0.0
 11
44.2483333333333348
 21
140.4966666666666697
 31
0.0
  0
LINE
  5
735
100
AcDbEntity
  8
layer 1
 62
256
370
9
 48
1.0
  6
BYLAYER
100
AcDbLine
 10
42.7666666666667084
 20
200.4166666666666856
 30
0.0
 11
44.2483333333333348
 21
205.4966666666666697
 31
0.0
  0
LINE
  5
736
100
AcDbEntity
  8
layer 1
 62
256
370
9
 48
1.0
  6
BYLAYER
100
AcDbLine
 10
106.7666666666667084
 20
6.4166666666666714
 30
0.0
 11
108.2483333333333348
 21
11.4966666666666555
 31
0.0
  0
LINE
  5
737
100
AcDbEntity
  8
layer 1
 62
256
370
9
 48
1.0
  6
BYLAYER
100
AcDbLine
 10
106.7666666666667084
 20
71.4166666666666714
 30
0.0
 11
108.2483333333333348
 21
76.4966666666666555
 31
0.0
  0
LINE
  5
738
100
AcDbEntity
  8
layer 1
 62
256
370
9
 48
1.0
  6
BYLAYER
100
AcDbLine
 10
106.7666666666667084
 20
135.4166666666666856
 30
0.0
 11
108.2483333333333348
 21
140.4966666666666697
 31
0.0
  0
LINE
  5
739
100
AcDbEntity
  8
layer 1
 62
256
370
9
 48
1.0
  6
BYLAYER
100
AcDbLine
 10
106.7666666666667084
 20
200.4166666666666856
 30
0.0
 11
108.2483333333333348
 21
205.4966666666666697
 31
0.0
  0
LINE
  5
73A
100
AcDbEntity
  8
layer 1
 62
256
370
9
 48
1.0
  6
BYLAYER
100
AcDbLine
 10
44.2483333333333348
 20
11.4966666666666555
 30
0.0
 11
39.3800000000000239
 21
11.4966666666666555
 31
0.0
  0
LINE
  5
73B
100
AcDbEntity
  8
layer 1
 62
256
370
9
 48
1.0
  6
BYLAYER
100
AcDbLine
 10
44.2483333333333348
 20
76.4966666666666555
 30
0.0
 11
39.3800000000000239
 21
76.4966666666666555
 31
0.0
  0
LINE
  5
73C
100
AcDbEntity
  8
layer 1
 62
256
370
9
 48
1.0
  6
BYLAYER
100
AcDbLine
 10
44.2483333333333348
 20
140.4966666666666697
 30
0.0
 11
39.3800000000000239
 21
140.4966666666666697
 31
0.0
  0
LINE
  5
73D
100
AcDbEntity
  8
layer 1
 62
256
370
9
 48
1.0
  6
BYLAYER
100
AcDbLine
 10
44.2483333333333348
 20
205.4966666666666697
 30
0.0
 11
39.3800000000000239
 21
205.4966666666666697
 31
0.0
  0
LINE
  5
73E
100
AcDbEntity
  8
layer 1
 62
256
370
9
 48
1.0
  6
BYLAYER
100
AcDbLine
 10
108.2483333333333348
 20
11.4966666666666555
 30
0.0
 11
103.3800000000000239
 21
11.4966666666666555
 31
0.0
  0
LINE
  5
73F
100
AcDbEntity
  8
layer 1
 62
256
370
9
 48
1.0
  6
BYLAYER
100
AcDbLine
 10
108.2483333333333348
 20
76.4966666666666555
 30
0.0
 11
103.3800000000000239
 21
76.4966666666666555
 31
0.0
  0
LINE
  5
740
100
AcDbEntity
  8
layer 1
 62
256
370
9
 48
1.0
  6
BYLAYER
100
AcDbLine
 10
108.2483333333333348
 20
140.4966666666666697
 30
0.0
 11
103.3800000000000239
 21
140.4966666666666697
 31
0.0
  0
LINE
  5
741
100
AcDbEntity
  8
layer 1
 62
256
370
9
 48
1.0
  6
BYLAYER
100
AcDbLine
 10
108.2483333333333348
 20
205.4966666666666697
 30
0.0
 11
103.3800000000000239
 21
205.4966666666666697
 31
0.0
  0
LINE
  5
742
100
AcDbEntity
  8
layer 1
 62
256
370
9
 48
1.0
  6
BYLAYER
100
AcDbLine
 10
39.3800000000000239
 20
11.4966666666666555
 30
0.0
 11
39.3800000000000239
 21
20.8099999999999952
 31
0.0
  0
LINE
  5
743
100
AcDbEntity
  8
layer 1
 62
256
370
9
 48
1.0
  6
BYLAYER
100
AcDbLine
 10
39.3800000000000239
 20
76.4966666666666555
 30
0.0
 11
39.3800000000000239
 21
85.8100000000000023
 31
0.0
  0
LINE
  5
744
100
AcDbEntity
  8
layer 1
 62
256
370
9
 48
1.0
  6
BYLAYER
100
AcDbLine
 10
39.3800000000000239
 20
140.4966666666666697
 30
0.0
 11
39.3800000000000239
 21
149.8100000000000023
 31
0.0
  0
LINE
  5
745
100
AcDbEntity
  8
layer 1
 62
256
370
9
 48
1.0
  6
BYLAYER
100
AcDbLine
 10
39.3800000000000239
 20
205.4966666666666697
 30
0.0
 11
39.3800000000000239
 21
214.8100000000000023
 31
0.0
  0
LINE
  5
746
100
AcDbEntity
  8
layer 1
 62
256
370
9
 48
1.0
  6
BYLAYER
100
AcDbLine
 10
103.3800000000000239
 20
11.4966666666666555
 30
0.0
 11
103.3800000000000239
 21
20.8099999999999952
 31
0.0
  0
LINE
  5
747
100
AcDbEntity
  8
layer 1
 62
256
370
9
 48
1.0
  6
BYLAYER
100
AcDbLine
 10
103.3800000000000239
 20
76.4966666666666555
 30
0.0
 11
103.3800000000000239
 21
85.8100000000000023
 31
0.0
  0
LINE
  5
748
100
AcDbEntity
  8
layer 1
 62
256
370
9
 48
1.0
  6
BYLAYER
100
AcDbLine
 10
103.3800000000000239
 20
140.4966666666666697
 30
0.0
 11
103.3800000000000239
 21
149.8100000000000023
 31
0.0
  0
LINE
  5
749
100
AcDbEntity
  8
layer 1
 62
256
370
9
 48
1.0
  6
BYLAYER
100
AcDbLine
 10
103.3800000000000239
 20
205.4966666666666697
 30
0.0
 11
103.3800000000000239
 21
214.8100000000000023
 31
0.0
  0
LINE
  5
74A
100
AcDbEntity
  8
layer 1
 62
256
370
9
 48
1.0
  6
BYLAYER
100
AcDbLine
 10
39.3800000000000239
 20
20.8099999999999952
 30
0.0
 11
38.5333333333333314
 21
20.8099999999999952
 31
0.0
  0
LINE
  5
74B
100
AcDbEntity
  8
layer 1
 62
256
370
9
 48
1.0
  6
BYLAYER
100
AcDbLine
 10
39.3800000000000239
 20
85.8100000000000023
 30
0.0
 11
38.5333333333333314
 21
85.8100000000000023
 31
0.0
  0
LINE
  5
74C
100
AcDbEntity
  8
layer 1
 62
256
370
9
 48
1.0
  6
BYLAYER
100
AcDbLine
 10
39.3800000000000239
 20
149.8100000000000023
 30
0.0
 11
38.5333333333333314
 21
149.8100000000000023
 31
0.0
  0
LINE
  5
74D
100
AcDbEntity
  8
layer 1
 62
256
370
9
 48
1.0
  6
BYLAYER
100
AcDbLine
 10
39.3800000000000239
 20
214.8100000000000023
 30
0.0
 11
38.5333333333333314
 21
214.8100000000000023
 31
0.0
  0
LINE
  5
74E
100
AcDbEntity
  8
layer 1
 62
256
370
9
 48
1.0
  6
BYLAYER
100
AcDbLine
 10
103.3800000000000239
 20
20.8099999999999952
 30
0.0
 11
102.5333333333333314
 21
20.8099999999999952
 31
0.0
  0
LINE
  5
74F
100
AcDbEntity
  8
layer 1
 62
256
370
9
 48
1.0
  6
BYLAYER
100
AcDbLine
 10
103.3800000000000239
 20
85.8100000000000023
 30
0.0
 11
102.5333333333333314
 21
85.8100000000000023
 31
0.0
  0
LINE
  5
750
100
AcDbEntity
  8
layer 1
 62
256
370
9
 48
1.0
  6
BYLAYER
100
AcDbLine
 10
103.3800000000000239
 20
149.8100000000000023
 30
0.0
 11
102.5333333333333314
 21
149.8100000000000023
 31
0.0
  0
LINE
  5
751
100
AcDbEntity
  8
layer 1
 62
256
370
9
 48
1.0
  6
BYLAYER
100
AcDbLine
 10
103.3800000000000239
 20
214.8100000000000023
 30
0.0
 11
102.5333333333333314
 21
214.8100000000000023
 31
0.0
  0
LINE
  5
752
100
AcDbEntity
  8
layer 1
 62
256
370
9
 48
1.0
  6
BYLAYER
100
AcDbLine
 10
38.5333333333333314
 20
20.8099999999999952
 30
0.0
 11
38.5333333333333314
 21
22.5033333333333303
 31
0.0
  0
LINE
  5
753
100
AcDbEntity
  8
layer 1
 62
256
370
9
 48
1.0
  6
BYLAYER
100
AcDbLine
 10
38.5333333333333314
 20
85.8100000000000023
 30
0.0
 11
38.5333333333333314
 21
87.5033333333333303
 31
0.0
  0
LINE
  5
754
100
AcDbEntity
  8
layer 1
 62
256
370
9
 48
1.0
  6
BYLAYER
100
AcDbLine
 10
38.5333333333333314
 20
149.8100000000000023
 30
0.0
 11
38.5333333333333314
 21
151.5033333333333303
 31
0.0
  0
LINE
  5
755
100
AcDbEntity
  8
layer 1
 62
256
370
9
 48
1.0
  6
BYLAYER
100
AcDbLine
 10
38.5333333333333314
 20
214.8100000000000023
 30
0.0
 11
38.5333333333333314
 21
216.5033333333333303
 31
0.0
  0
LINE
  5
756
100
AcDbEntity
  8
layer 1
 62
256
370
9
 48
1.0
  6
BYLAYER
100
AcDbLine
 10
102.5333333333333314
 20
20.8099999999999952
 30
0.0
 11
102.5333333333333314
 21
22.5033333333333303
 31
0.0
  0
LINE
  5
757
100
AcDbEntity
  8
layer 1
 62
256
370
9
 48
1.0
  6
BYLAYER
100
AcDbLine
 10
102.5333333333333314
 20
85.8100000000000023
 30
0.0
 11
102.5333333333333314
 21
87.5033333333333303
 31
0.0
  0
LINE
  5
758
100
AcDbEntity
  8
layer 1
 62
256
370
9
 48
1.0
  6
BYLAYER
100
AcDbLine
 10
102.5333333333333314
 20
149.8100000000000023
 30
0.0
 11
102.5333333333333314
 21
151.5033333333333303
 31
0.0
  0
LINE
  5
759
100
AcDbEntity
  8
layer 1
 62
256
370
9
 48
1.0
  6
BYLAYER
100
AcDbLine
 10
102.5333333333333314
 20
214.8100000000000023
 30
0.0
 11
102.5333333333333314
 21
216.5033333333333303
 31
0.0
  0
LINE
  5
75A
100
AcDbEntity
  8
layer 1
 62
256
370
9
 48
1.0
  6
BYLAYER
100
AcDbLine
 10
41.0733333333333235
 20
20.8099999999999952
 30
0.0
 11
41.0733333333333235
 21
13.1899999999999977
 31
0.0
  0
LINE
  5
75B
100
AcDbEntity
  8
layer 1
 62
256
370
9
 48
1.0
  6
BYLAYER
100
AcDbLine
 10
41.0733333333333235
 20
85.8100000000000023
 30
0.0
 11
41.0733333333333235
 21
78.1899999999999977
 31
0.0
  0
LINE
  5
75C
100
AcDbEntity
  8
layer 1
 62
256
370
9
 48
1.0
  6
BYLAYER
100
AcDbLine
 10
41.0733333333333235
 20
149.8100000000000023
 30
0.0
 11
41.0733333333333235
 21
142.1899999999999977
 31
0.0
  0
LINE
  5
75D
100
AcDbEntity
  8
layer 1
 62
256
370
9
 48
1.0
  6
BYLAYER
100
AcDbLine
 10
41.0733333333333235
 20
214.8100000000000023
 30
0.0
 11
41.0733333333333235
 21
207.1899999999999977
 31
0.0
  0
LINE
  5
75E
100
AcDbEntity
  8
layer 1
 62
256
370
9
 48
1.0
  6
BYLAYER
100
AcDbLine
 10
105.0733333333333235
 20
20.8099999999999952
 30
0.0
 11
105.0733333333333235
 21
13.1899999999999977
 31
0.0
  0
LINE
  5
75F
100
AcDbEntity
  8
layer 1
 62
256
370
9
 48
1.0
  6
BYLAYER
100
AcDbLine
 10
105.0733333333333235
 20
85.8100000000000023
 30
0.0
 11
105.0733333333333235
 21
78.1899999999999977
 31
0.0
  0
LINE
  5
760
100
AcDbEntity
  8
layer 1
 62
256
370
9
 48
1.0
  6
BYLAYER
100
AcDbLine
 10
105.0733333333333235
 20
149.8100000000000023
 30
0.0
 11
105.0733333333333235
 21
142.1899999999999977
 31
0.0
  0
LINE
  5
761
100
AcDbEntity
  8
layer 1
 62
256
370
9
 48
1.0
  6
BYLAYER
100
AcDbLine
 10
105.0733333333333235
 20
214.8100000000000023
 30
0.0
 11
105.0733333333333235
 21
207.1899999999999977
 31
0.0
  0
LINE
  5
762
100
AcDbEntity
  8
layer 1
 62
256
370
9
 48
1.0
  6
BYLAYER
100
AcDbLine
 10
41.0733333333333235
 20
13.1899999999999977
 30
0.0
 11
52.9266666666666765
 21
13.1899999999999977
 31
0.0
  0
LINE
  5
763
100
AcDbEntity
  8
layer 1
 62
256
370
9
 48
1.0
  6
BYLAYER
100
AcDbLine
 10
41.0733333333333235
 20
78.1899999999999977
 30
0.0
 11
52.9266666666666765
 21
78.1899999999999977
 31
0.0
  0
LINE
  5
764
100
AcDbEntity
  8
layer 1
 62
256
370
9
 48
1.0
  6
BYLAYER
100
AcDbLine
 10
41.0733333333333235
 20
142.1899999999999977
 30
0.0
 11
52.9266666666666765
 21
142.1899999999999977
 31
0.0
  0
LINE
  5
765
100
AcDbEntity
  8
layer 1
 62
256
370
9
 48
1.0
  6
BYLAYER
100
AcDbLine
 10
41.0733333333333235
 20
207.1899999999999977
 30
0.0
 11
52.9266666666666765
 21
207.1899999999999977
 31
0.0
  0
LINE
  5
766
100
AcDbEntity
  8
layer 1
 62
256
370
9
 48
1.0
  6
BYLAYER
100
AcDbLine
 10
105.0733333333333235
 20
13.1899999999999977
 30
0.0
 11
116.9266666666666765
 21
13.1899999999999977
 31
0.0
  0
LINE
  5
767
100
AcDbEntity
  8
layer 1
 62
256
370
9
 48
1.0
  6
BYLAYER
100
AcDbLine
 10
105.0733333333333235
 20
78.1899999999999977
 30
0.0
 11
116.9266666666666765
 21
78.1899999999999977
 31
0.0
  0
LINE
  5
768
100
AcDbEntity
  8
layer 1
 62
256
370
9
 48
1.0
  6
BYLAYER
100
AcDbLine
 10
105.0733333333333235
 20
142.1899999999999977
 30
0.0
 11
116.9266666666666765
 21
142.1899999999999977
 31
0.0
  0
LINE
  5
769
100
AcDbEntity
  8
layer 1
 62
256
370
9
 48
1.0
  6
BYLAYER
100
AcDbLine
 10
105.0733333333333235
 20
207.1899999999999977
 30
0.0
 11
116.9266666666666765
 21
207.1899999999999977
 31
0.0
  0
LINE
  5
76A
100
AcDbEntity
  8
layer 1
 62
256
370
9
 48
1.0
  6
BYLAYER
100
AcDbLine
 10
52.9266666666666765
 20
13.1899999999999977
 30
0.0
 11
52.9266666666666765
 21
20.8099999999999952
 31
0.0
  0
LINE
  5
76B
100
AcDbEntity
  8
layer 1
 62
256
370
9
 48
1.0
  6
BYLAYER
100
AcDbLine
 10
52.9266666666666765
 20
78.1899999999999977
 30
0.0
 11
52.9266666666666765
 21
85.8100000000000023
 31
0.0
  0
LINE
  5
76C
100
AcDbEntity
  8
layer 1
 62
256
370
9
 48
1.0
  6
BYLAYER
100
AcDbLine
 10
52.9266666666666765
 20
142.1899999999999977
 30
0.0
 11
52.9266666666666765
 21
149.8100000000000023
 31
0.0
  0
LINE
  5
76D
100
AcDbEntity
  8
layer 1
 62
256
370
9
 48
1.0
  6
BYLAYER
100
AcDbLine
 10
52.9266666666666765
 20
207.1899999999999977
 30
0.0
 11
52.9266666666666765
 21
214.8100000000000023
 31
0.0
  0
LINE
  5
76E
100
AcDbEntity
  8
layer 1
 62
256
370
9
 48
1.0
  6
BYLAYER
100
AcDbLine
 10
116.9266666666666765
 20
13.1899999999999977
 30
0.0
 11
116.9266666666666765
 21
20.8099999999999952
 31
0.0
  0
LINE
  5
76F
100
AcDbEntity
  8
layer 1
 62
256
370
9
 48
1.0
  6
BYLAYER
100
AcDbLine
 10
116.9266666666666765
 20
78.1899999999999977
 30
0.0
 11
116.9266666666666765
 21
85.8100000000000023
 31
0.0
  0
LINE
  5
770
100
AcDbEntity
  8
layer 1
 62
256
370
9
 48
1.0
  6
BYLAYER
100
AcDbLine
 10
116.9266666666666765
 20
142.1899999999999977
 30
0.0
 11
116.9266666666666765
 21
149.8100000000000023
 31
0.0
  0
LINE
  5
771
100
AcDbEntity
  8
layer 1
 62
256
370
9
 48
1.0
  6
BYLAYER
100
AcDbLine
 10
116.9266666666666765
 20
207.1899999999999977
 30
0.0
 11
116.9266666666666765
 21
214.8100000000000023
 31
0.0
  0
LINE
  5
772
100
AcDbEntity
  8
layer 1
 62
256
370
9
 48
1.0
  6
BYLAYER
100
AcDbLine
 10
52.9266666666666765
 20
20.8099999999999952
 30
0.0
 11
41.0733333333333235
 21
20.8099999999999952
 31
0.0
  0
LINE
  5
773
100
AcDbEntity
  8
layer 1
 62
256
370
9
 48
1.0
  6
BYLAYER
100
AcDbLine
 10
52.9266666666666765
 20
85.8100000000000023
 30
0.0
 11
41.0733333333333235
 21
85.8100000000000023
 31
0.0
  0
LINE
  5
774
100
AcDbEntity
  8
layer 1
 62
256
370
9
 48
1.0
  6
BYLAYER
100
AcDbLine
 10
52.9266666666666765
 20
149.8100000000000023
 30
0.0
 11
41.0733333333333235
 21
149.8100000000000023
 31
0.0
  0
LINE
  5
775
100
AcDbEntity
  8
layer 1
 62
256
370
9
 48
1.0
  6
BYLAYER
100
AcDbLine
 10
52.9266666666666765
 20
214.8100000000000023
 30
0.0
 11
41.0733333333333235
 21
214.8100000000000023
 31
0.0
  0
LINE
  5
776
100
AcDbEntity
  8
layer 1
 62
256
370
9
 48
1.0
  6
BYLAYER
100
AcDbLine
 10
116.9266666666666765
 20
20.8099999999999952
 30
0.0
 11
105.0733333333333235
 21
20.8099999999999952
 31
0.0
  0
LINE
  5
777
100
AcDbEntity
  8
layer 1
 62
256
370
9
 48
1.0
  6
BYLAYER
100
AcDbLine
 10
116.9266666666666765
 20
85.8100000000000023
 30
0.0
 11
105.0733333333333235
 21
85.8100000000000023
 31
0.0
  0
LINE
  5
778
100
AcDbEntity
  8
layer 1
 62
256
370
9
 48
1.0
  6
BYLAYER
100
AcDbLine
 10
116.9266666666666765
 20
149.8100000000000023
 30
0.0
 11
105.0733333333333235
 21
149.8100000000000023
 31
0.0
  0
LINE
  5
779
100
AcDbEntity
  8
layer 1
 62
256
370
9
 48
1.0
  6
BYLAYER
100
AcDbLine
 10
116.9266666666666765
 20
214.8100000000000023
 30
0.0
 11
105.0733333333333235
 21
214.8100000000000023
 31
0.0
  0
ENDSEC
  0
SECTION
  2
OBJECTS
  0
DICTIONARY
  5
C
100
AcDbDictionary
280
0
281
1
  3
ACAD_GROUP
350
D
  3
ACAD_LAYOUT
350
1A
  3
ACAD_MLINESTYLE
350
17
  3
ACAD_PLOTSETTINGS
350
19
  3
ACAD_PLOTSTYLENAME
350
E
  3
AcDbVariableDictionary
350
77A
  3
QCAD_OBJECTS
350
77B
  0
DICTIONARY
  5
D
100
AcDbDictionary
280
0
281
1
  0
ACDBDICTIONARYWDFLT
  5
E
100
AcDbDictionary
281
1
  3
Normal
350
F
100
AcDbDictionaryWithDefault
340
F
  0
ACDBPLACEHOLDER
  5
F
  0
DICTIONARY
  5
17
100
AcDbDictionary
280
0
281
1
  3
Standard
350
18
  0
MLINESTYLE
  5
18
100
AcDbMlineStyle
  2
STANDARD
 70
0
  3

 62
256
 51
90.0
 52
90.0
 71
2
 49
0.5
 62
256
  6
BYLAYER
 49
-0.5
 62
256
  6
BYLAYER
  0
DICTIONARY
  5
19
100
AcDbDictionary
280
0
281
1
  0
DICTIONARY
  5
1A
100
AcDbDictionary
281
1
  3
Layout1
350
1E
  3
Layout2
350
26
  3
Model
350
22
  0
LAYOUT
  5
1E
100
AcDbPlotSettings
  1

  2
none_device
  4

  6

 40
0.0
 41
0.0
 42
0.0
 43
0.0
 44
0.0
 45
0.0
 46
0.0
 47
0.0
 48
0.0
 49
0.0
140
0.0
141
0.0
142
1.0
143
1.0
 70
688
 72
0
 73
0
 74
5
  7

 75
16
147
1.0
148
0.0
149
0.0
100
AcDbLayout
  1
Layout1
 70
1
 71
1
 10
0.0
 20
0.0
 11
420.0
 21
297.0
 12
0.0
 22
0.0
 32
0.0
 14
100000000000000000000.0
 24
100000000000000000000.0
 34
100000000000000000000.0
 15
-100000000000000000000.0
 25
-100000000000000000000.0
 35
-100000000000000000000.0
146
0.0
 13
0.0
 23
0.0
 33
0.0
 16
1.0
 26
0.0
 36
0.0
 17
0.0
 27
1.0
 37
0.0
 76
0
330
1B
  0
LAYOUT
  5
22
100
AcDbPlotSettings
  1

  2
none_device
  4

  6

 40
0.0
 41
0.0
 42
0.0
 43
0.0
 44
0.0
 45
0.0
 46
0.0
 47
0.0
 48
0.0
 49
0.0
140
0.0
141
0.0
142
1.0
143
1.0
 70
1712
 72
0
 73
0
 74
0
  7

 75
0
147
1.0
148
0.0
149
0.0
100
AcDbLayout
  1
Model
 70
1
 71
0
 10
0.0
 20
0.0
 11
12.0
 21
9.0
 12
0.0
 22
0.0
 32
0.0
 14
0.0
 24
0.0
 34
0.0
 15
0.0
 25
0.0
 35
0.0
146
0.0
 13
0.0
 23
0.0
 33
0.0
 16
1.0
 26
0.0
 36
0.0
 17
0.0
 27
1.0
 37
0.0
 76
0
330
1F
  0
LAYOUT
  5
26
100
AcDbPlotSettings
  1

  2
none_device
  4

  6

 40
0.0
 41
0.0
 42
0.0
 43
0.0
 44
0.0
 45
0.0
 46
0.0
 47
0.0
 48
0.0
 49
0.0
140
0.0
141
0.0
142
1.0
143
1.0
 70
688
 72
0
 73
0
 74
5
  7

 75
16
147
1.0
148
0.0
149
0.0
100
AcDbLayout
  1
Layout2
 70
1
 71
2
 10
0.0
 20
0.0
 11
12.0
 21
9.0
 12
0.0
 22
0.0
 32
0.0
 14
0.0
 24
0.0
 34
0.0
 15
0.0
 25
0.0
 35
0.0
146
0.0
 13
0.0
 23
0.0
 33
0.0
 16
1.0
 26
0.0
 36
0.0
 17
0.0
 27
1.0
 37
0.0
 76
0
330
23
  0
DICTIONARY
  5
77A
100
AcDbDictionary
281
1
  3
DIMASSOC
350
77D
  3
HIDETEXT
350
77C
  0
DICTIONARYVAR
  5
77C
100
DictionaryVariables
280
0
  1
2
  0
DICTIONARYVAR
  5
77D
100
DictionaryVariables
280
0
  1
1
  0
DICTIONARY
  5
77B
100
AcDbDictionary
281
1
  3
ColorSettings/BackgroundColor
350
77E
  3
ColorSettings/ColorMode
350
77F
  3
Grid/DisplayGrid00
350
780
  3
Grid/DisplayGrid01
350
781
  3
Grid/DisplayGrid02
350
782
  3
Grid/DisplayGrid03
350
783
  3
Grid/GridSpacingX00
350
784
  3
Grid/GridSpacingX01
350
785
  3
Grid/GridSpacingX02
350
786
  3
Grid/GridSpacingX03
350
787
  3
Grid/GridSpacingY00
350
788
  3
Grid/GridSpacingY01
350
789
  3
Grid/GridSpacingY02
350
78A
  3
Grid/GridSpacingY03
350
78B
  3
Grid/IsometricGrid00
350
78C
  3
Grid/IsometricGrid01
350
78D
  3
Grid/IsometricGrid02
350
78E
  3
Grid/IsometricGrid03
350
78F
  3
Grid/IsometricProjection00
350
790
  3
Grid/IsometricProjection01
350
791
  3
Grid/IsometricProjection02
350
792
  3
Grid/IsometricProjection03
350
793
  3
Grid/MetaGridSpacingX00
350
794
  3
Grid/MetaGridSpacingX01
350
795
  3
Grid/MetaGridSpacingX02
350
796
  3
Grid/MetaGridSpacingX03
350
797
  3
Grid/MetaGridSpacingY00
350
798
  3
Grid/MetaGridSpacingY01
350
799
  3
Grid/MetaGridSpacingY02
350
79A
  3
Grid/MetaGridSpacingY03
350
79B
  3
MultiPageSettings/Columns
350
79C
  3
MultiPageSettings/GlueMarginsBottom
350
79D
  3
MultiPageSettings/GlueMarginsLeft
350
79E
  3
MultiPageSettings/GlueMarginsRight
350
79F
  3
MultiPageSettings/GlueMarginsTop
350
7A0
  3
MultiPageSettings/PrintCropMarks
350
7A1
  3
MultiPageSettings/Rows
350
7A2
  3
PageSettings/OffsetX
350
7A3
  3
PageSettings/OffsetY
350
7A4
  3
PageSettings/PageOrientation
350
7A5
  3
PageSettings/PaperHeight
350
7A6
  3
PageSettings/PaperWidth
350
7A7
  3
PageSettings/Scale
350
7A8
  3
PageSettings/ShowPaperBorders
350
7A9
  3
QCADVersion
350
7AA
  3
UnitSettings/PaperUnit
350
7AB
  3
ViewportCenter
350
7AC
  3
ViewportHeight
350
7AD
  3
ViewportWidth
350
7AE
  0
XRECORD
  5
77E
330
77B
100
AcDbXrecord
280
1
1000
Blanc
  0
XRECORD
  5
77F
330
77B
100
AcDbXrecord
280
1
1000
FullColor
  0
XRECORD
  5
780
330
77B
100
AcDbXrecord
280
1
290
1
  0
XRECORD
  5
781
330
77B
100
AcDbXrecord
280
1
290
1
  0
XRECORD
  5
782
330
77B
100
AcDbXrecord
280
1
290
1
  0
XRECORD
  5
783
330
77B
100
AcDbXrecord
280
1
290
1
  0
XRECORD
  5
784
330
77B
100
AcDbXrecord
280
1
1000
auto
  0
XRECORD
  5
785
330
77B
100
AcDbXrecord
280
1
1000
auto
  0
XRECORD
  5
786
330
77B
100
AcDbXrecord
280
1
1000
auto
  0
XRECORD
  5
787
330
77B
100
AcDbXrecord
280
1
1000
auto
  0
XRECORD
  5
788
330
77B
100
AcDbXrecord
280
1
1000
auto
  0
XRECORD
  5
789
330
77B
100
AcDbXrecord
280
1
1000
auto
  0
XRECORD
  5
78A
330
77B
100
AcDbXrecord
280
1
1000
auto
  0
XRECORD
  5
78B
330
77B
100
AcDbXrecord
280
1
1000
auto
  0
XRECORD
  5
78C
330
77B
100
AcDbXrecord
280
1
290
0
  0
XRECORD
  5
78D
330
77B
100
AcDbXrecord
280
1
290
0
  0
XRECORD
  5
78E
330
77B
100
AcDbXrecord
280
1
290
0
  0
XRECORD
  5
78F
330
77B
100
AcDbXrecord
280
1
290
0
  0
XRECORD
  5
790
330
77B
100
AcDbXrecord
280
1
 90
65537
  0
XRECORD
  5
791
330
77B
100
AcDbXrecord
280
1
 90
65537
  0
XRECORD
  5
792
330
77B
100
AcDbXrecord
280
1
 90
65537
  0
XRECORD
  5
793
330
77B
100
AcDbXrecord
280
1
 90
65537
  0
XRECORD
  5
794
330
77B
100
AcDbXrecord
280
1
1000
auto
  0
XRECORD
  5
795
330
77B
100
AcDbXrecord
280
1
1000
auto
  0
XRECORD
  5
796
330
77B
100
AcDbXrecord
280
1
1000
auto
  0
XRECORD
  5
797
330
77B
100
AcDbXrecord
280
1
1000
auto
  0
XRECORD
  5
798
330
77B
100
AcDbXrecord
280
1
1000
auto
  0
XRECORD
  5
799
330
77B
100
AcDbXrecord
280
1
1000
auto
  0
XRECORD
  5
79A
330
77B
100
AcDbXrecord
280
1
1000
auto
  0
XRECORD
  5
79B
330
77B
100
AcDbXrecord
280
1
1000
auto
  0
XRECORD
  5
79C
330
77B
100
AcDbXrecord
280
1
 90
1
  0
XRECORD
  5
79D
330
77B
100
AcDbXrecord
280
1
 40
10.0
  0
XRECORD
  5
79E
330
77B
100
AcDbXrecord
280
1
 40
10.0
  0
XRECORD
  5
79F
330
77B
100
AcDbXrecord
280
1
 40
10.0
  0
XRECORD
  5
7A0
330
77B
100
AcDbXrecord
280
1
 40
10.0
  0
XRECORD
  5
7A1
330
77B
100
AcDbXrecord
280
1
290
0
  0
XRECORD
  5
7A2
330
77B
100
AcDbXrecord
280
1
 90
1
  0
XRECORD
  5
7A3
330
77B
100
AcDbXrecord
280
1
 40
0.0
  0
XRECORD
  5
7A4
330
77B
100
AcDbXrecord
280
1
 40
0.0
  0
XRECORD
  5
7A5
330
77B
100
AcDbXrecord
280
1
1000
Landscape
  0
XRECORD
  5
7A6
330
77B
100
AcDbXrecord
280
1
 40
297.0
  0
XRECORD
  5
7A7
330
77B
100
AcDbXrecord
280
1
 40
210.0
  0
XRECORD
  5
7A8
330
77B
100
AcDbXrecord
280
1
1000
1:1
  0
XRECORD
  5
7A9
330
77B
100
AcDbXrecord
280
1
290
1
  0
XRECORD
  5
7AA
330
77B
100
AcDbXrecord
280
1
1000
3.19.2.2
  0
XRECORD
  5
7AB
330
77B
100
AcDbXrecord
280
1
 90
4
  0
XRECORD
  5
7AD
330
77B
100
AcDbXrecord
280
1
 40
329.1939864575998627
  0
XRECORD
  5
7AE
330
77B
100
AcDbXrecord
280
1
 40
564.4799705087997381
  0
ENDSEC
  0
EOF
