999
dxflib 3.17.0.0
  0
SECTION
  2
HEADER
  9
$ACADVER
  1
AC1015
  9
$HANDSEED
  5
FFFF
  9
$DIMADEC
 70
0
  9
$DIMASZ
 40
2.5
  9
$DIMAUNIT
 70
0
  9
$DIMAZIN
 70
2
  9
$DIMDEC
 70
4
  9
$DIMDSEP
 70
46
  9
$DIMEXE
 40
1.25
  9
$DIMEXO
 40
0.625
  9
$DIMGAP
 40
0.625
  9
$DIMLUNIT
 70
2
  9
$DIMSCALE
 40
1.0
  9
$DIMTSZ
 40
0.0
  9
$DIMTXT
 40
2.5
  9
$DIMZIN
 70
8
  9
$DWGCODEPAGE
  3
ANSI_1252
  9
$INSUNITS
 70
4
  9
$LTSCALE
 40
1.0
  9
$MAXACTVP
 70
64
  9
$MEASUREMENT
 70
1
  9
$PDMODE
 70
0
  9
$PDSIZE
 40
0.0
  0
ENDSEC
  0
SECTION
  2
TABLES
  0
TABLE
  2
VPORT
  5
8
100
AcDbSymbolTable
 70
1
  0
VPORT
  5
30
100
AcDbSymbolTableRecord
100
AcDbViewportTableRecord
  2
*Active
 70
0
 10
0.0
 20
0.0
 11
1.0
 21
1.0
 12
286.3055555555554861
 22
148.5
 13
0.0
 23
0.0
 14
10.0
 24
10.0
 15
10.0
 25
10.0
 16
0.0
 26
0.0
 36
1.0
 17
0.0
 27
0.0
 37
0.0
 40
297.0
 41
1.92798353909465
 42
50.0
 43
0.0
 44
0.0
 50
0.0
 51
0.0
 71
0
 72
100
 73
1
 74
3
 75
1
 76
1
 77
0
 78
0
281
0
 65
1
110
0.0
120
0.0
130
0.0
111
1.0
121
0.0
131
0.0
112
0.0
122
1.0
132
0.0
 79
0
146
0.0
  0
ENDTAB
  0
TABLE
  2
LTYPE
  5
5
100
AcDbSymbolTable
 70
41
  0
LTYPE
  5
16
100
AcDbSymbolTableRecord
100
AcDbLinetypeTableRecord
  2
Continuous
 70
0
  3
Solid line
 72
65
 73
0
 40
0.0
  0
LTYPE
  5
31
100
AcDbSymbolTableRecord
100
AcDbLinetypeTableRecord
  2
ACAD_ISO15W100
 70
0
  3
ISO double-dash triple-dot __ __ . . . __ __ . .
 72
65
 73
10
 40
39.0000000000000071
 49
12.0
 74
0
 49
-3.0
 74
0
 49
12.0
 74
0
 49
-2.9500000000000002
 74
0
 49
0.1
 74
0
 49
-2.9000000000000004
 74
0
 49
0.1
 74
0
 49
-2.9000000000000004
 74
0
 49
0.1
 74
0
 49
-2.9500000000000002
 74
0
  0
LTYPE
  5
32
100
AcDbSymbolTableRecord
100
AcDbLinetypeTableRecord
  2
DIVIDE
 70
0
  3
Divide ____ . . ____ . . ____ . . ____ . . ____
 72
65
 73
6
 40
31.7500000000000036
 49
12.6999999999999993
 74
0
 49
-6.2999999999999998
 74
0
 49
0.1
 74
0
 49
-6.25
 74
0
 49
0.1
 74
0
 49
-6.2999999999999998
 74
0
  0
LTYPE
  5
33
100
AcDbSymbolTableRecord
100
AcDbLinetypeTableRecord
  2
ACAD_ISO10W100
 70
0
  3
ISO dash dot __ . __ . __ . __ . __ . __ . __ . 
 72
65
 73
4
 40
18.0
 49
12.0
 74
0
 49
-2.9500000000000002
 74
0
 49
0.1
 74
0
 49
-2.9500000000000002
 74
0
  0
LTYPE
  5
34
100
AcDbSymbolTableRecord
100
AcDbLinetypeTableRecord
  2
ACAD_ISO04W100
 70
0
  3
ISO long-dash dot ____ . ____ . ____ . ____ . _
 72
65
 73
4
 40
30.0
 49
24.0
 74
0
 49
-2.9500000000000002
 74
0
 49
0.1
 74
0
 49
-2.9500000000000002
 74
0
  0
LTYPE
  5
35
100
AcDbSymbolTableRecord
100
AcDbLinetypeTableRecord
  2
CENTER2
 70
0
  3
Center (.5x) ___ _ ___ _ ___ _ ___ _ ___ _ ___
 72
65
 73
4
 40
28.5750000000000028
 49
19.0500000000000007
 74
0
 49
-3.1749999999999998
 74
0
 49
3.1749999999999998
 74
0
 49
-3.1749999999999998
 74
0
  0
LTYPE
  5
36
100
AcDbSymbolTableRecord
100
AcDbLinetypeTableRecord
  2
ACAD_ISO11W100
 70
0
  3
ISO double-dash dot __ __ . __ __ . __ __ . __ _
 72
65
 73
6
 40
33.0
 49
12.0
 74
0
 49
-3.0
 74
0
 49
12.0
 74
0
 49
-2.9500000000000002
 74
0
 49
0.1
 74
0
 49
-2.9500000000000002
 74
0
  0
LTYPE
  5
37
100
AcDbSymbolTableRecord
100
AcDbLinetypeTableRecord
  2
HIDDEN2
 70
0
  3
Hidden (.5x) _ _ _ _ _ _ _ _ _ _ _ _ _ _ _ _ _ 
 72
65
 73
2
 40
4.7624999999999993
 49
3.1749999999999998
 74
0
 49
-1.5874999999999999
 74
0
  0
LTYPE
  5
38
100
AcDbSymbolTableRecord
100
AcDbLinetypeTableRecord
  2
BORDERX2
 70
0
  3
Border (2x) ____  ____  .  ____  ____  .  ___
 72
65
 73
6
 40
88.8999999999999773
 49
25.3999999999999986
 74
0
 49
-12.6999999999999993
 74
0
 49
25.3999999999999986
 74
0
 49
-12.6499999999999986
 74
0
 49
0.1
 74
0
 49
-12.6499999999999986
 74
0
  0
LTYPE
  5
39
100
AcDbSymbolTableRecord
100
AcDbLinetypeTableRecord
  2
ACAD_ISO05W100
 70
0
  3
ISO long-dash double-dot ____ .. ____ .. ____ . 
 72
65
 73
6
 40
33.0000000000000071
 49
24.0
 74
0
 49
-2.9500000000000002
 74
0
 49
0.1
 74
0
 49
-2.9000000000000004
 74
0
 49
0.1
 74
0
 49
-2.9500000000000002
 74
0
  0
LTYPE
  5
3A
100
AcDbSymbolTableRecord
100
AcDbLinetypeTableRecord
  2
DASHDOTX2
 70
0
  3
Dash dot (2x) ____  .  ____  .  ____  .  ___
 72
65
 73
4
 40
50.7999999999999972
 49
25.3999999999999986
 74
0
 49
-12.6499999999999986
 74
0
 49
0.1
 74
0
 49
-12.6499999999999986
 74
0
  0
LTYPE
  5
3B
100
AcDbSymbolTableRecord
100
AcDbLinetypeTableRecord
  2
HIDDENX2
 70
0
  3
Hidden (2x) ____ ____ ____ ____ ____ ____ ____ 
 72
65
 73
2
 40
19.0499999999999972
 49
12.6999999999999993
 74
0
 49
-6.3499999999999996
 74
0
  0
LTYPE
  5
3C
100
AcDbSymbolTableRecord
100
AcDbLinetypeTableRecord
  2
CENTERX2
 70
0
  3
Center (2x) ________  __  ________  __  _____
 72
65
 73
4
 40
101.6000000000000085
 49
63.5
 74
0
 49
-12.6999999999999993
 74
0
 49
12.6999999999999993
 74
0
 49
-12.6999999999999993
 74
0
  0
LTYPE
  5
3D
100
AcDbSymbolTableRecord
100
AcDbLinetypeTableRecord
  2
BORDER2
 70
0
  3
Border (.5x) __.__.__.__.__.__.__.__.__.__.__.
 72
65
 73
6
 40
22.2250000000000014
 49
6.3499999999999996
 74
0
 49
-3.1749999999999998
 74
0
 49
6.3499999999999996
 74
0
 49
-3.125
 74
0
 49
0.1
 74
0
 49
-3.125
 74
0
  0
LTYPE
  5
3E
100
AcDbSymbolTableRecord
100
AcDbLinetypeTableRecord
  2
DASHDOT2
 70
0
  3
Dash dot (.5x) _._._._._._._._._._._._._._._.
 72
65
 73
4
 40
12.6999999999999993
 49
6.3499999999999996
 74
0
 49
-3.125
 74
0
 49
0.1
 74
0
 49
-3.125
 74
0
  0
LTYPE
  5
3F
100
AcDbSymbolTableRecord
100
AcDbLinetypeTableRecord
  2
ACAD_ISO12W100
 70
0
  3
ISO dash double-dot __ . . __ . . __ . . __ . . 
 72
65
 73
6
 40
21.0
 49
12.0
 74
0
 49
-2.9500000000000002
 74
0
 49
0.1
 74
0
 49
-2.9000000000000004
 74
0
 49
0.1
 74
0
 49
-2.9500000000000002
 74
0
  0
LTYPE
  5
40
100
AcDbSymbolTableRecord
100
AcDbLinetypeTableRecord
  2
ACAD_ISO07W100
 70
0
  3
ISO dot . . . . . . . . . . . . . . . . . . . . 
 72
65
 73
2
 40
3.0
 49
0.1
 74
0
 49
-2.8999999999999999
 74
0
  0
LTYPE
  5
41
100
AcDbSymbolTableRecord
100
AcDbLinetypeTableRecord
  2
HIDDEN
 70
0
  3
Hidden __ __ __ __ __ __ __ __ __ __ __ __ __ __
 72
65
 73
2
 40
9.5249999999999986
 49
6.3499999999999996
 74
0
 49
-3.1749999999999998
 74
0
  0
LTYPE
  5
42
100
AcDbSymbolTableRecord
100
AcDbLinetypeTableRecord
  2
ACAD_ISO06W100
 70
0
  3
ISO long-dash triple-dot ____ ... ____ ... ____
 72
65
 73
8
 40
36.0000000000000071
 49
24.0
 74
0
 49
-2.9500000000000002
 74
0
 49
0.1
 74
0
 49
-2.9000000000000004
 74
0
 49
0.1
 74
0
 49
-2.9000000000000004
 74
0
 49
0.1
 74
0
 49
-2.9500000000000002
 74
0
  0
LTYPE
  5
43
100
AcDbSymbolTableRecord
100
AcDbLinetypeTableRecord
  2
CENTER
 70
0
  3
Center ____ _ ____ _ ____ _ ____ _ ____ _ ____
 72
65
 73
4
 40
50.8000000000000043
 49
31.75
 74
0
 49
-6.3499999999999996
 74
0
 49
6.3499999999999996
 74
0
 49
-6.3499999999999996
 74
0
  0
LTYPE
  5
44
100
AcDbSymbolTableRecord
100
AcDbLinetypeTableRecord
  2
DOTX2
 70
0
  3
Dot (2x) .  .  .  .  .  .  .  .  .  .  .  .  .  .
 72
65
 73
2
 40
12.6999999999999993
 49
0.1
 74
0
 49
-12.5999999999999996
 74
0
  0
LTYPE
  5
45
100
AcDbSymbolTableRecord
100
AcDbLinetypeTableRecord
  2
PHANTOM
 70
0
  3
Phantom ______  __  __  ______  __  __  ______ 
 72
65
 73
6
 40
63.5000000000000071
 49
31.75
 74
0
 49
-6.3499999999999996
 74
0
 49
6.3499999999999996
 74
0
 49
-6.3499999999999996
 74
0
 49
6.3499999999999996
 74
0
 49
-6.3499999999999996
 74
0
  0
LTYPE
  5
46
100
AcDbSymbolTableRecord
100
AcDbLinetypeTableRecord
  2
ACAD_ISO08W100
 70
0
  3
ISO long-dash short-dash ____ __ ____ __ ____ _
 72
65
 73
4
 40
36.0
 49
24.0
 74
0
 49
-3.0
 74
0
 49
6.0
 74
0
 49
-3.0
 74
0
  0
LTYPE
  5
47
100
AcDbSymbolTableRecord
100
AcDbLinetypeTableRecord
  2
DASHEDX2
 70
0
  3
Dashed (2x) ____  ____  ____  ____  ____  ___
 72
65
 73
2
 40
38.0999999999999943
 49
25.3999999999999986
 74
0
 49
-12.6999999999999993
 74
0
  0
LTYPE
  5
48
100
AcDbSymbolTableRecord
100
AcDbLinetypeTableRecord
  2
ACAD_ISO02W100
 70
0
  3
ISO dash __ __ __ __ __ __ __ __ __ __ __ __ __
 72
65
 73
2
 40
15.0
 49
12.0
 74
0
 49
-3.0
 74
0
  0
LTYPE
  5
49
100
AcDbSymbolTableRecord
100
AcDbLinetypeTableRecord
  2
PHANTOM2
 70
0
  3
Phantom (.5x) ___ _ _ ___ _ _ ___ _ _ ___ _ _
 72
65
 73
6
 40
31.7500000000000036
 49
15.875
 74
0
 49
-3.1749999999999998
 74
0
 49
3.1749999999999998
 74
0
 49
-3.1749999999999998
 74
0
 49
3.1749999999999998
 74
0
 49
-3.1749999999999998
 74
0
  0
LTYPE
  5
4A
100
AcDbSymbolTableRecord
100
AcDbLinetypeTableRecord
  2
DASHED2
 70
0
  3
Dashed (.5x) _ _ _ _ _ _ _ _ _ _ _ _ _ _ _ _ _ 
 72
65
 73
2
 40
9.5249999999999986
 49
6.3499999999999996
 74
0
 49
-3.1749999999999998
 74
0
  0
LTYPE
  5
4B
100
AcDbSymbolTableRecord
100
AcDbLinetypeTableRecord
  2
ACAD_ISO09W100
 70
0
  3
ISO long-dash double-short-dash ____ __ __ ____
 72
65
 73
6
 40
45.0
 49
24.0
 74
0
 49
-3.0
 74
0
 49
6.0
 74
0
 49
-3.0
 74
0
 49
6.0
 74
0
 49
-3.0
 74
0
  0
LTYPE
  5
4C
100
AcDbSymbolTableRecord
100
AcDbLinetypeTableRecord
  2
ACAD_ISO13W100
 70
0
  3
ISO double-dash double-dot __ __ . . __ __ . . _
 72
65
 73
8
 40
36.0000000000000071
 49
12.0
 74
0
 49
-3.0
 74
0
 49
12.0
 74
0
 49
-2.9500000000000002
 74
0
 49
0.1
 74
0
 49
-2.9000000000000004
 74
0
 49
0.1
 74
0
 49
-2.9500000000000002
 74
0
  0
LTYPE
  5
4D
100
AcDbSymbolTableRecord
100
AcDbLinetypeTableRecord
  2
DOT2
 70
0
  3
Dot (.5x) ........................................
 72
65
 73
2
 40
3.1749999999999998
 49
0.1
 74
0
 49
-3.0749999999999997
 74
0
  0
LTYPE
  5
4E
100
AcDbSymbolTableRecord
100
AcDbLinetypeTableRecord
  2
DASHED
 70
0
  3
Dashed __ __ __ __ __ __ __ __ __ __ __ __ __ _
 72
65
 73
2
 40
19.0499999999999972
 49
12.6999999999999993
 74
0
 49
-6.3499999999999996
 74
0
  0
LTYPE
  5
4F
100
AcDbSymbolTableRecord
100
AcDbLinetypeTableRecord
  2
ACAD_ISO14W100
 70
0
  3
ISO dash triple-dot __ . . . __ . . . __ . . . _
 72
65
 73
8
 40
24.0000000000000036
 49
12.0
 74
0
 49
-2.9500000000000002
 74
0
 49
0.1
 74
0
 49
-2.9000000000000004
 74
0
 49
0.1
 74
0
 49
-2.9000000000000004
 74
0
 49
0.1
 74
0
 49
-2.9500000000000002
 74
0
  0
LTYPE
  5
15
100
AcDbSymbolTableRecord
100
AcDbLinetypeTableRecord
  2
BYLAYER
 70
0
  3

 72
65
 73
0
 40
0.0
  0
LTYPE
  5
50
100
AcDbSymbolTableRecord
100
AcDbLinetypeTableRecord
  2
PHANTOMX2
 70
0
  3
Phantom (2x) ____________    ____    ____   _
 72
65
 73
6
 40
127.0000000000000142
 49
63.5
 74
0
 49
-12.6999999999999993
 74
0
 49
12.6999999999999993
 74
0
 49
-12.6999999999999993
 74
0
 49
12.6999999999999993
 74
0
 49
-12.6999999999999993
 74
0
  0
LTYPE
  5
14
100
AcDbSymbolTableRecord
100
AcDbLinetypeTableRecord
  2
BYBLOCK
 70
0
  3

 72
65
 73
0
 40
0.0
  0
LTYPE
  5
51
100
AcDbSymbolTableRecord
100
AcDbLinetypeTableRecord
  2
DIVIDEX2
 70
0
  3
Divide (2x) ________  .  .  ________  .  .  _
 72
65
 73
6
 40
63.5
 49
25.3999999999999986
 74
0
 49
-12.6499999999999986
 74
0
 49
0.1
 74
0
 49
-12.5999999999999979
 74
0
 49
0.1
 74
0
 49
-12.6499999999999986
 74
0
  0
LTYPE
  5
52
100
AcDbSymbolTableRecord
100
AcDbLinetypeTableRecord
  2
BORDER
 70
0
  3
Border __ __ . __ __ . __ __ . __ __ . __ __ .
 72
65
 73
6
 40
44.4499999999999957
 49
12.6999999999999993
 74
0
 49
-6.3499999999999996
 74
0
 49
12.6999999999999993
 74
0
 49
-6.2999999999999998
 74
0
 49
0.1
 74
0
 49
-6.2999999999999998
 74
0
  0
LTYPE
  5
53
100
AcDbSymbolTableRecord
100
AcDbLinetypeTableRecord
  2
DIVIDE2
 70
0
  3
Divide (.5x) __..__..__..__..__..__..__..__.._
 72
65
 73
6
 40
15.8749999999999982
 49
6.3499999999999996
 74
0
 49
-3.125
 74
0
 49
0.1
 74
0
 49
-3.0750000000000002
 74
0
 49
0.1
 74
0
 49
-3.125
 74
0
  0
LTYPE
  5
54
100
AcDbSymbolTableRecord
100
AcDbLinetypeTableRecord
  2
DOT
 70
0
  3
Dot . . . . . . . . . . . . . . . . . . . . . . . .
 72
65
 73
2
 40
6.3499999999999996
 49
0.1
 74
0
 49
-6.25
 74
0
  0
LTYPE
  5
55
100
AcDbSymbolTableRecord
100
AcDbLinetypeTableRecord
  2
DASHDOT
 70
0
  3
Dash dot __ . __ . __ . __ . __ . __ . __ . __
 72
65
 73
4
 40
25.4000000000000021
 49
12.6999999999999993
 74
0
 49
-6.2999999999999998
 74
0
 49
0.1
 74
0
 49
-6.2999999999999998
 74
0
  0
LTYPE
  5
56
100
AcDbSymbolTableRecord
100
AcDbLinetypeTableRecord
  2
ACAD_ISO03W100
 70
0
  3
ISO dash space __    __    __    __    __    __
 72
65
 73
2
 40
30.0
 49
12.0
 74
0
 49
-18.0
 74
0
  0
ENDTAB
  0
TABLE
  2
LAYER
  5
2
100
AcDbSymbolTable
 70
2
  0
LAYER
  5
57
100
AcDbSymbolTableRecord
100
AcDbLayerTableRecord
  2
layer 1
 70
0
 62
3
420
65280
  6
Continuous
370
9
390
F
  0
LAYER
  5
10
100
AcDbSymbolTableRecord
100
AcDbLayerTableRecord
  2
0
 70
0
 62
7
420
16777215
  6
Continuous
370
25
390
F
  0
ENDTAB
  0
TABLE
  2
STYLE
  5
3
100
AcDbSymbolTable
 70
1
  0
STYLE
  5
58
100
AcDbSymbolTableRecord
100
AcDbTextStyleTableRecord
  2
Standard
 70
0
 40
0.0
 41
1.0
 50
0.0
 71
0
 42
2.5
  3

  4

1001
ACAD
1000
txt
1071
0
  0
ENDTAB
  0
TABLE
  2
VIEW
  5
6
100
AcDbSymbolTable
 70
0
  0
ENDTAB
  0
TABLE
  2
UCS
  5
7
100
AcDbSymbolTable
 70
0
  0
ENDTAB
  0
TABLE
  2
APPID
  5
9
100
AcDbSymbolTable
 70
1
  0
APPID
  5
12
100
AcDbSymbolTableRecord
100
AcDbRegAppTableRecord
  2
ACAD
 70
0
  0
APPID
  5
59
100
AcDbSymbolTableRecord
100
AcDbRegAppTableRecord
  2
QCAD
 70
0
  0
ENDTAB
  0
TABLE
  2
DIMSTYLE
  5
A
100
AcDbSymbolTable
 70
1
100
AcDbDimStyleTable
 71
0
  0
DIMSTYLE
105
27
100
AcDbSymbolTableRecord
100
AcDbDimStyleTableRecord
  2
Standard
 41
2.5
 42
0.625
 43
3.75
 44
1.25
 70
0
 73
0
 74
0
 77
1
 78
8
140
2.5
141
2.5
143
0.03937007874016
147
0.625
171
3
172
1
271
2
272
2
274
3
278
44
283
0
284
8
340
58
  0
ENDTAB
  0
TABLE
  2
BLOCK_RECORD
  5
1
100
AcDbSymbolTable
 70
1
  0
BLOCK_RECORD
  5
1F
100
AcDbSymbolTableRecord
100
AcDbBlockTableRecord
  2
*Model_Space
340
22
  0
BLOCK_RECORD
  5
1B
100
AcDbSymbolTableRecord
100
AcDbBlockTableRecord
  2
*Paper_Space
340
1E
  0
BLOCK_RECORD
  5
23
100
AcDbSymbolTableRecord
100
AcDbBlockTableRecord
  2
*Paper_Space0
340
26
  0
ENDTAB
  0
ENDSEC
  0
SECTION
  2
BLOCKS
  0
BLOCK
  5
20
100
AcDbEntity
  8
0
100
AcDbBlockBegin
  2
*Model_Space
 70
0
 10
0.0
 20
0.0
 30
0.0
  3
*Model_Space
  1

  0
ENDBLK
  5
21
100
AcDbEntity
  8
0
100
AcDbBlockEnd
  0
BLOCK
  5
1C
100
AcDbEntity
 67
1
  8
0
100
AcDbBlockBegin
  2
*Paper_Space
 70
0
 10
0.0
 20
0.0
 30
0.0
  3
*Paper_Space
  1

  0
ENDBLK
  5
1D
100
AcDbEntity
 67
1
  8
0
100
AcDbBlockEnd
  0
BLOCK
  5
24
100
AcDbEntity
  8
0
100
AcDbBlockBegin
  2
*Paper_Space0
 70
0
 10
0.0
 20
0.0
 30
0.0
  3
*Paper_Space0
  1

  0
ENDBLK
  5
25
100
AcDbEntity
  8
0
100
AcDbBlockEnd
  0
ENDSEC
  0
SECTION
  2
ENTITIES
  0
LINE
  5
5A
100
AcDbEntity
  8
0
 62
256
370
13
 48
1.0
  6
BYLAYER
100
AcDbLine
 10
30.0
 20
22.4000000000000057
 30
0.0
 11
30.0
 21
27.5
 31
0.0
  0
LINE
  5
5B
100
AcDbEntity
  8
0
 62
256
370
13
 48
1.0
  6
BYLAYER
100
AcDbLine
 10
62.0000000000000071
 20
22.4000000000000057
 30
0.0
 11
62.0000000000000071
 21
27.5
 31
0.0
  0
LINE
  5
5C
100
AcDbEntity
  8
0
 62
256
370
13
 48
1.0
  6
BYLAYER
100
AcDbLine
 10
30.0
 20
54.4000000000000057
 30
0.0
 11
30.0
 21
59.5
 31
0.0
  0
LINE
  5
5D
100
AcDbEntity
  8
0
 62
256
370
13
 48
1.0
  6
BYLAYER
100
AcDbLine
 10
62.0000000000000071
 20
54.4000000000000057
 30
0.0
 11
62.0000000000000071
 21
59.5
 31
0.0
  0
LINE
  5
5E
100
AcDbEntity
  8
0
 62
256
370
13
 48
1.0
  6
BYLAYER
100
AcDbLine
 10
94.0
 20
22.4000000000000057
 30
0.0
 11
94.0
 21
27.5
 31
0.0
  0
LINE
  5
5F
100
AcDbEntity
  8
0
 62
256
370
13
 48
1.0
  6
BYLAYER
100
AcDbLine
 10
126.0
 20
22.4000000000000057
 30
0.0
 11
126.0
 21
27.5
 31
0.0
  0
LINE
  5
60
100
AcDbEntity
  8
0
 62
256
370
13
 48
1.0
  6
BYLAYER
100
AcDbLine
 10
94.0
 20
54.4000000000000057
 30
0.0
 11
94.0
 21
59.5
 31
0.0
  0
LINE
  5
61
100
AcDbEntity
  8
0
 62
256
370
13
 48
1.0
  6
BYLAYER
100
AcDbLine
 10
126.0
 20
54.4000000000000057
 30
0.0
 11
126.0
 21
59.5
 31
0.0
  0
LINE
  5
62
100
AcDbEntity
  8
0
 62
256
370
13
 48
1.0
  6
BYLAYER
100
AcDbLine
 10
30.0000000000000071
 20
86.4000000000000057
 30
0.0
 11
30.0000000000000071
 21
91.5
 31
0.0
  0
LINE
  5
63
100
AcDbEntity
  8
0
 62
256
370
13
 48
1.0
  6
BYLAYER
100
AcDbLine
 10
62.0000000000000142
 20
86.4000000000000057
 30
0.0
 11
62.0000000000000142
 21
91.5
 31
0.0
  0
LINE
  5
64
100
AcDbEntity
  8
0
 62
256
370
13
 48
1.0
  6
BYLAYER
100
AcDbLine
 10
30.0000000000000071
 20
118.4000000000000057
 30
0.0
 11
30.0000000000000071
 21
123.5
 31
0.0
  0
LINE
  5
65
100
AcDbEntity
  8
0
 62
256
370
13
 48
1.0
  6
BYLAYER
100
AcDbLine
 10
62.0000000000000142
 20
118.4000000000000057
 30
0.0
 11
62.0000000000000142
 21
123.5
 31
0.0
  0
LINE
  5
66
100
AcDbEntity
  8
0
 62
256
370
13
 48
1.0
  6
BYLAYER
100
AcDbLine
 10
94.0
 20
86.4000000000000057
 30
0.0
 11
94.0
 21
91.5
 31
0.0
  0
LINE
  5
67
100
AcDbEntity
  8
0
 62
256
370
13
 48
1.0
  6
BYLAYER
100
AcDbLine
 10
126.0
 20
86.4000000000000057
 30
0.0
 11
126.0
 21
91.5
 31
0.0
  0
LINE
  5
68
100
AcDbEntity
  8
0
 62
256
370
13
 48
1.0
  6
BYLAYER
100
AcDbLine
 10
94.0
 20
118.4000000000000057
 30
0.0
 11
94.0
 21
123.5
 31
0.0
  0
LINE
  5
69
100
AcDbEntity
  8
0
 62
256
370
13
 48
1.0
  6
BYLAYER
100
AcDbLine
 10
126.0
 20
118.4000000000000057
 30
0.0
 11
126.0
 21
123.5
 31
0.0
  0
LINE
  5
6A
100
AcDbEntity
  8
0
 62
256
370
13
 48
1.0
  6
BYLAYER
100
AcDbLine
 10
30.0000000000000071
 20
150.4000000000000057
 30
0.0
 11
30.0000000000000071
 21
155.5
 31
0.0
  0
LINE
  5
6B
100
AcDbEntity
  8
0
 62
256
370
13
 48
1.0
  6
BYLAYER
100
AcDbLine
 10
62.0000000000000142
 20
150.4000000000000057
 30
0.0
 11
62.0000000000000142
 21
155.5
 31
0.0
  0
LINE
  5
6C
100
AcDbEntity
  8
0
 62
256
370
13
 48
1.0
  6
BYLAYER
100
AcDbLine
 10
30.0000000000000071
 20
182.4000000000000057
 30
0.0
 11
30.0000000000000071
 21
187.5
 31
0.0
  0
LINE
  5
6D
100
AcDbEntity
  8
0
 62
256
370
13
 48
1.0
  6
BYLAYER
100
AcDbLine
 10
62.0000000000000142
 20
182.4000000000000057
 30
0.0
 11
62.0000000000000142
 21
187.5
 31
0.0
  0
LINE
  5
6E
100
AcDbEntity
  8
0
 62
256
370
13
 48
1.0
  6
BYLAYER
100
AcDbLine
 10
94.0
 20
150.4000000000000057
 30
0.0
 11
94.0
 21
155.5
 31
0.0
  0
LINE
  5
6F
100
AcDbEntity
  8
0
 62
256
370
13
 48
1.0
  6
BYLAYER
100
AcDbLine
 10
126.0
 20
150.4000000000000057
 30
0.0
 11
126.0
 21
155.5
 31
0.0
  0
LINE
  5
70
100
AcDbEntity
  8
0
 62
256
370
13
 48
1.0
  6
BYLAYER
100
AcDbLine
 10
94.0
 20
182.4000000000000057
 30
0.0
 11
94.0
 21
187.5
 31
0.0
  0
LINE
  5
71
100
AcDbEntity
  8
0
 62
256
370
13
 48
1.0
  6
BYLAYER
100
AcDbLine
 10
126.0
 20
182.4000000000000057
 30
0.0
 11
126.0
 21
187.5
 31
0.0
  0
LINE
  5
72
100
AcDbEntity
  8
0
 62
256
370
13
 48
1.0
  6
BYLAYER
100
AcDbLine
 10
30.0000000000000142
 20
214.4000000000000057
 30
0.0
 11
30.0000000000000142
 21
219.5
 31
0.0
  0
LINE
  5
73
100
AcDbEntity
  8
0
 62
256
370
13
 48
1.0
  6
BYLAYER
100
AcDbLine
 10
62.0000000000000213
 20
214.4000000000000057
 30
0.0
 11
62.0000000000000213
 21
219.5
 31
0.0
  0
LINE
  5
74
100
AcDbEntity
  8
0
 62
256
370
13
 48
1.0
  6
BYLAYER
100
AcDbLine
 10
30.0000000000000142
 20
246.4000000000000057
 30
0.0
 11
30.0000000000000142
 21
251.5
 31
0.0
  0
LINE
  5
75
100
AcDbEntity
  8
0
 62
256
370
13
 48
1.0
  6
BYLAYER
100
AcDbLine
 10
62.0000000000000213
 20
246.4000000000000057
 30
0.0
 11
62.0000000000000213
 21
251.5
 31
0.0
  0
LINE
  5
76
100
AcDbEntity
  8
0
 62
256
370
13
 48
1.0
  6
BYLAYER
100
AcDbLine
 10
94.0
 20
214.4000000000000057
 30
0.0
 11
94.0
 21
219.5
 31
0.0
  0
LINE
  5
77
100
AcDbEntity
  8
0
 62
256
370
13
 48
1.0
  6
BYLAYER
100
AcDbLine
 10
126.0
 20
214.4000000000000057
 30
0.0
 11
126.0
 21
219.5
 31
0.0
  0
LINE
  5
78
100
AcDbEntity
  8
0
 62
256
370
13
 48
1.0
  6
BYLAYER
100
AcDbLine
 10
94.0
 20
246.4000000000000057
 30
0.0
 11
94.0
 21
251.5
 31
0.0
  0
LINE
  5
79
100
AcDbEntity
  8
0
 62
256
370
13
 48
1.0
  6
BYLAYER
100
AcDbLine
 10
126.0
 20
246.4000000000000057
 30
0.0
 11
126.0
 21
251.5
 31
0.0
  0
LINE
  5
7A
100
AcDbEntity
  8
0
 62
256
370
13
 48
1.0
  6
BYLAYER
100
AcDbLine
 10
30.0
 20
7.3999999999999986
 30
0.0
 11
30.0
 21
15.1000000000000014
 31
0.0
  0
LINE
  5
7B
100
AcDbEntity
  8
0
 62
256
370
13
 48
1.0
  6
BYLAYER
100
AcDbLine
 10
62.0000000000000071
 20
7.3999999999999986
 30
0.0
 11
62.0000000000000071
 21
15.1000000000000014
 31
0.0
  0
LINE
  5
7C
100
AcDbEntity
  8
0
 62
256
370
13
 48
1.0
  6
BYLAYER
100
AcDbLine
 10
30.0
 20
39.3999999999999915
 30
0.0
 11
30.0
 21
47.0999999999999943
 31
0.0
  0
LINE
  5
7D
100
AcDbEntity
  8
0
 62
256
370
13
 48
1.0
  6
BYLAYER
100
AcDbLine
 10
62.0000000000000071
 20
39.3999999999999915
 30
0.0
 11
62.0000000000000071
 21
47.0999999999999943
 31
0.0
  0
LINE
  5
7E
100
AcDbEntity
  8
0
 62
256
370
13
 48
1.0
  6
BYLAYER
100
AcDbLine
 10
94.0
 20
7.3999999999999986
 30
0.0
 11
94.0
 21
15.1000000000000014
 31
0.0
  0
LINE
  5
7F
100
AcDbEntity
  8
0
 62
256
370
13
 48
1.0
  6
BYLAYER
100
AcDbLine
 10
126.0
 20
7.3999999999999986
 30
0.0
 11
126.0
 21
15.1000000000000014
 31
0.0
  0
LINE
  5
80
100
AcDbEntity
  8
0
 62
256
370
13
 48
1.0
  6
BYLAYER
100
AcDbLine
 10
94.0
 20
39.3999999999999915
 30
0.0
 11
94.0
 21
47.0999999999999943
 31
0.0
  0
LINE
  5
81
100
AcDbEntity
  8
0
 62
256
370
13
 48
1.0
  6
BYLAYER
100
AcDbLine
 10
126.0
 20
39.3999999999999915
 30
0.0
 11
126.0
 21
47.0999999999999943
 31
0.0
  0
LINE
  5
82
100
AcDbEntity
  8
0
 62
256
370
13
 48
1.0
  6
BYLAYER
100
AcDbLine
 10
30.0000000000000071
 20
71.4000000000000057
 30
0.0
 11
30.0000000000000071
 21
79.0999999999999943
 31
0.0
  0
LINE
  5
83
100
AcDbEntity
  8
0
 62
256
370
13
 48
1.0
  6
BYLAYER
100
AcDbLine
 10
62.0000000000000142
 20
71.4000000000000057
 30
0.0
 11
62.0000000000000142
 21
79.0999999999999943
 31
0.0
  0
LINE
  5
84
100
AcDbEntity
  8
0
 62
256
370
13
 48
1.0
  6
BYLAYER
100
AcDbLine
 10
30.0000000000000071
 20
103.3999999999999915
 30
0.0
 11
30.0000000000000071
 21
111.0999999999999943
 31
0.0
  0
LINE
  5
85
100
AcDbEntity
  8
0
 62
256
370
13
 48
1.0
  6
BYLAYER
100
AcDbLine
 10
62.0000000000000142
 20
103.3999999999999915
 30
0.0
 11
62.0000000000000142
 21
111.0999999999999943
 31
0.0
  0
LINE
  5
86
100
AcDbEntity
  8
0
 62
256
370
13
 48
1.0
  6
BYLAYER
100
AcDbLine
 10
94.0
 20
71.4000000000000057
 30
0.0
 11
94.0
 21
79.0999999999999943
 31
0.0
  0
LINE
  5
87
100
AcDbEntity
  8
0
 62
256
370
13
 48
1.0
  6
BYLAYER
100
AcDbLine
 10
126.0
 20
71.4000000000000057
 30
0.0
 11
126.0
 21
79.0999999999999943
 31
0.0
  0
LINE
  5
88
100
AcDbEntity
  8
0
 62
256
370
13
 48
1.0
  6
BYLAYER
100
AcDbLine
 10
94.0
 20
103.3999999999999915
 30
0.0
 11
94.0
 21
111.0999999999999943
 31
0.0
  0
LINE
  5
89
100
AcDbEntity
  8
0
 62
256
370
13
 48
1.0
  6
BYLAYER
100
AcDbLine
 10
126.0
 20
103.3999999999999915
 30
0.0
 11
126.0
 21
111.0999999999999943
 31
0.0
  0
LINE
  5
8A
100
AcDbEntity
  8
0
 62
256
370
13
 48
1.0
  6
BYLAYER
100
AcDbLine
 10
30.0000000000000071
 20
135.4000000000000057
 30
0.0
 11
30.0000000000000071
 21
143.0999999999999943
 31
0.0
  0
LINE
  5
8B
100
AcDbEntity
  8
0
 62
256
370
13
 48
1.0
  6
BYLAYER
100
AcDbLine
 10
62.0000000000000142
 20
135.4000000000000057
 30
0.0
 11
62.0000000000000142
 21
143.0999999999999943
 31
0.0
  0
LINE
  5
8C
100
AcDbEntity
  8
0
 62
256
370
13
 48
1.0
  6
BYLAYER
100
AcDbLine
 10
30.0000000000000071
 20
167.3999999999999773
 30
0.0
 11
30.0000000000000071
 21
175.0999999999999943
 31
0.0
  0
LINE
  5
8D
100
AcDbEntity
  8
0
 62
256
370
13
 48
1.0
  6
BYLAYER
100
AcDbLine
 10
62.0000000000000142
 20
167.3999999999999773
 30
0.0
 11
62.0000000000000142
 21
175.0999999999999943
 31
0.0
  0
LINE
  5
8E
100
AcDbEntity
  8
0
 62
256
370
13
 48
1.0
  6
BYLAYER
100
AcDbLine
 10
94.0
 20
135.4000000000000057
 30
0.0
 11
94.0
 21
143.0999999999999943
 31
0.0
  0
LINE
  5
8F
100
AcDbEntity
  8
0
 62
256
370
13
 48
1.0
  6
BYLAYER
100
AcDbLine
 10
126.0
 20
135.4000000000000057
 30
0.0
 11
126.0
 21
143.0999999999999943
 31
0.0
  0
LINE
  5
90
100
AcDbEntity
  8
0
 62
256
370
13
 48
1.0
  6
BYLAYER
100
AcDbLine
 10
94.0
 20
167.3999999999999773
 30
0.0
 11
94.0
 21
175.0999999999999943
 31
0.0
  0
LINE
  5
91
100
AcDbEntity
  8
0
 62
256
370
13
 48
1.0
  6
BYLAYER
100
AcDbLine
 10
126.0
 20
167.3999999999999773
 30
0.0
 11
126.0
 21
175.0999999999999943
 31
0.0
  0
LINE
  5
92
100
AcDbEntity
  8
0
 62
256
370
13
 48
1.0
  6
BYLAYER
100
AcDbLine
 10
30.0000000000000142
 20
199.4000000000000057
 30
0.0
 11
30.0000000000000142
 21
207.0999999999999943
 31
0.0
  0
LINE
  5
93
100
AcDbEntity
  8
0
 62
256
370
13
 48
1.0
  6
BYLAYER
100
AcDbLine
 10
62.0000000000000213
 20
199.4000000000000057
 30
0.0
 11
62.0000000000000213
 21
207.0999999999999943
 31
0.0
  0
LINE
  5
94
100
AcDbEntity
  8
0
 62
256
370
13
 48
1.0
  6
BYLAYER
100
AcDbLine
 10
30.0000000000000142
 20
231.3999999999999773
 30
0.0
 11
30.0000000000000142
 21
239.0999999999999943
 31
0.0
  0
LINE
  5
95
100
AcDbEntity
  8
0
 62
256
370
13
 48
1.0
  6
BYLAYER
100
AcDbLine
 10
62.0000000000000213
 20
231.3999999999999773
 30
0.0
 11
62.0000000000000213
 21
239.0999999999999943
 31
0.0
  0
LINE
  5
96
100
AcDbEntity
  8
0
 62
256
370
13
 48
1.0
  6
BYLAYER
100
AcDbLine
 10
94.0
 20
199.4000000000000057
 30
0.0
 11
94.0
 21
207.0999999999999943
 31
0.0
  0
LINE
  5
97
100
AcDbEntity
  8
0
 62
256
370
13
 48
1.0
  6
BYLAYER
100
AcDbLine
 10
126.0
 20
199.4000000000000057
 30
0.0
 11
126.0
 21
207.0999999999999943
 31
0.0
  0
LINE
  5
98
100
AcDbEntity
  8
0
 62
256
370
13
 48
1.0
  6
BYLAYER
100
AcDbLine
 10
94.0
 20
231.3999999999999773
 30
0.0
 11
94.0
 21
239.0999999999999943
 31
0.0
  0
LINE
  5
99
100
AcDbEntity
  8
0
 62
256
370
13
 48
1.0
  6
BYLAYER
100
AcDbLine
 10
126.0
 20
231.3999999999999773
 30
0.0
 11
126.0
 21
239.0999999999999943
 31
0.0
  0
LINE
  5
9A
100
AcDbEntity
  8
0
 62
256
370
13
 48
1.0
  6
BYLAYER
100
AcDbLine
 10
7.5999999999999872
 20
0.0
 30
0.0
 11
2.4999999999999716
 21
0.0
 31
0.0
  0
LINE
  5
9B
100
AcDbEntity
  8
0
 62
256
370
13
 48
1.0
  6
BYLAYER
100
AcDbLine
 10
39.5999999999999943
 20
-0.0000000000000071
 30
0.0
 11
34.4999999999999716
 21
0.0
 31
0.0
  0
LINE
  5
9C
100
AcDbEntity
  8
0
 62
256
370
13
 48
1.0
  6
BYLAYER
100
AcDbLine
 10
7.5999999999999872
 20
32.0
 30
0.0
 11
2.4999999999999716
 21
32.0
 31
0.0
  0
LINE
  5
9D
100
AcDbEntity
  8
0
 62
256
370
13
 48
1.0
  6
BYLAYER
100
AcDbLine
 10
39.5999999999999943
 20
31.9999999999999858
 30
0.0
 11
34.4999999999999716
 21
32.0
 31
0.0
  0
LINE
  5
9E
100
AcDbEntity
  8
0
 62
256
370
13
 48
1.0
  6
BYLAYER
100
AcDbLine
 10
71.5999999999999943
 20
0.0
 30
0.0
 11
66.4999999999999716
 21
0.0
 31
0.0
  0
LINE
  5
9F
100
AcDbEntity
  8
0
 62
256
370
13
 48
1.0
  6
BYLAYER
100
AcDbLine
 10
103.5999999999999943
 20
-0.0000000000000071
 30
0.0
 11
98.4999999999999716
 21
0.0
 31
0.0
  0
LINE
  5
A0
100
AcDbEntity
  8
0
 62
256
370
13
 48
1.0
  6
BYLAYER
100
AcDbLine
 10
71.5999999999999943
 20
32.0
 30
0.0
 11
66.4999999999999716
 21
32.0
 31
0.0
  0
LINE
  5
A1
100
AcDbEntity
  8
0
 62
256
370
13
 48
1.0
  6
BYLAYER
100
AcDbLine
 10
103.5999999999999943
 20
31.9999999999999858
 30
0.0
 11
98.4999999999999716
 21
32.0
 31
0.0
  0
LINE
  5
A2
100
AcDbEntity
  8
0
 62
256
370
13
 48
1.0
  6
BYLAYER
100
AcDbLine
 10
7.5999999999999943
 20
64.0
 30
0.0
 11
2.4999999999999787
 21
64.0
 31
0.0
  0
LINE
  5
A3
100
AcDbEntity
  8
0
 62
256
370
13
 48
1.0
  6
BYLAYER
100
AcDbLine
 10
39.6000000000000014
 20
63.9999999999999929
 30
0.0
 11
34.4999999999999787
 21
64.0
 31
0.0
  0
LINE
  5
A4
100
AcDbEntity
  8
0
 62
256
370
13
 48
1.0
  6
BYLAYER
100
AcDbLine
 10
7.5999999999999943
 20
96.0
 30
0.0
 11
2.4999999999999787
 21
96.0
 31
0.0
  0
LINE
  5
A5
100
AcDbEntity
  8
0
 62
256
370
13
 48
1.0
  6
BYLAYER
100
AcDbLine
 10
39.6000000000000014
 20
95.9999999999999858
 30
0.0
 11
34.4999999999999787
 21
96.0
 31
0.0
  0
LINE
  5
A6
100
AcDbEntity
  8
0
 62
256
370
13
 48
1.0
  6
BYLAYER
100
AcDbLine
 10
71.5999999999999943
 20
64.0
 30
0.0
 11
66.4999999999999716
 21
64.0
 31
0.0
  0
LINE
  5
A7
100
AcDbEntity
  8
0
 62
256
370
13
 48
1.0
  6
BYLAYER
100
AcDbLine
 10
103.5999999999999943
 20
63.9999999999999929
 30
0.0
 11
98.4999999999999716
 21
64.0
 31
0.0
  0
LINE
  5
A8
100
AcDbEntity
  8
0
 62
256
370
13
 48
1.0
  6
BYLAYER
100
AcDbLine
 10
71.5999999999999943
 20
96.0
 30
0.0
 11
66.4999999999999716
 21
96.0
 31
0.0
  0
LINE
  5
A9
100
AcDbEntity
  8
0
 62
256
370
13
 48
1.0
  6
BYLAYER
100
AcDbLine
 10
103.5999999999999943
 20
95.9999999999999858
 30
0.0
 11
98.4999999999999716
 21
96.0
 31
0.0
  0
LINE
  5
AA
100
AcDbEntity
  8
0
 62
256
370
13
 48
1.0
  6
BYLAYER
100
AcDbLine
 10
7.5999999999999943
 20
128.0
 30
0.0
 11
2.4999999999999787
 21
128.0
 31
0.0
  0
LINE
  5
AB
100
AcDbEntity
  8
0
 62
256
370
13
 48
1.0
  6
BYLAYER
100
AcDbLine
 10
39.6000000000000014
 20
128.0
 30
0.0
 11
34.4999999999999787
 21
128.0
 31
0.0
  0
LINE
  5
AC
100
AcDbEntity
  8
0
 62
256
370
13
 48
1.0
  6
BYLAYER
100
AcDbLine
 10
7.5999999999999943
 20
160.0
 30
0.0
 11
2.4999999999999787
 21
160.0
 31
0.0
  0
LINE
  5
AD
100
AcDbEntity
  8
0
 62
256
370
13
 48
1.0
  6
BYLAYER
100
AcDbLine
 10
39.6000000000000014
 20
160.0
 30
0.0
 11
34.4999999999999787
 21
160.0
 31
0.0
  0
LINE
  5
AE
100
AcDbEntity
  8
0
 62
256
370
13
 48
1.0
  6
BYLAYER
100
AcDbLine
 10
71.5999999999999943
 20
128.0
 30
0.0
 11
66.4999999999999716
 21
128.0
 31
0.0
  0
LINE
  5
AF
100
AcDbEntity
  8
0
 62
256
370
13
 48
1.0
  6
BYLAYER
100
AcDbLine
 10
103.5999999999999943
 20
128.0
 30
0.0
 11
98.4999999999999716
 21
128.0
 31
0.0
  0
LINE
  5
B0
100
AcDbEntity
  8
0
 62
256
370
13
 48
1.0
  6
BYLAYER
100
AcDbLine
 10
71.5999999999999943
 20
160.0
 30
0.0
 11
66.4999999999999716
 21
160.0
 31
0.0
  0
LINE
  5
B1
100
AcDbEntity
  8
0
 62
256
370
13
 48
1.0
  6
BYLAYER
100
AcDbLine
 10
103.5999999999999943
 20
160.0
 30
0.0
 11
98.4999999999999716
 21
160.0
 31
0.0
  0
LINE
  5
B2
100
AcDbEntity
  8
0
 62
256
370
13
 48
1.0
  6
BYLAYER
100
AcDbLine
 10
7.6000000000000014
 20
192.0
 30
0.0
 11
2.4999999999999858
 21
192.0
 31
0.0
  0
LINE
  5
B3
100
AcDbEntity
  8
0
 62
256
370
13
 48
1.0
  6
BYLAYER
100
AcDbLine
 10
39.6000000000000085
 20
192.0
 30
0.0
 11
34.4999999999999858
 21
192.0
 31
0.0
  0
LINE
  5
B4
100
AcDbEntity
  8
0
 62
256
370
13
 48
1.0
  6
BYLAYER
100
AcDbLine
 10
7.6000000000000014
 20
224.0
 30
0.0
 11
2.4999999999999858
 21
224.0
 31
0.0
  0
LINE
  5
B5
100
AcDbEntity
  8
0
 62
256
370
13
 48
1.0
  6
BYLAYER
100
AcDbLine
 10
39.6000000000000085
 20
224.0
 30
0.0
 11
34.4999999999999858
 21
224.0
 31
0.0
  0
LINE
  5
B6
100
AcDbEntity
  8
0
 62
256
370
13
 48
1.0
  6
BYLAYER
100
AcDbLine
 10
71.5999999999999943
 20
192.0
 30
0.0
 11
66.4999999999999716
 21
192.0
 31
0.0
  0
LINE
  5
B7
100
AcDbEntity
  8
0
 62
256
370
13
 48
1.0
  6
BYLAYER
100
AcDbLine
 10
103.5999999999999943
 20
192.0
 30
0.0
 11
98.4999999999999716
 21
192.0
 31
0.0
  0
LINE
  5
B8
100
AcDbEntity
  8
0
 62
256
370
13
 48
1.0
  6
BYLAYER
100
AcDbLine
 10
71.5999999999999943
 20
224.0
 30
0.0
 11
66.4999999999999716
 21
224.0
 31
0.0
  0
LINE
  5
B9
100
AcDbEntity
  8
0
 62
256
370
13
 48
1.0
  6
BYLAYER
100
AcDbLine
 10
103.5999999999999943
 20
224.0
 30
0.0
 11
98.4999999999999716
 21
224.0
 31
0.0
  0
LINE
  5
BA
100
AcDbEntity
  8
0
 62
256
370
13
 48
1.0
  6
BYLAYER
100
AcDbLine
 10
22.6000000000000085
 20
0.0000000000000071
 30
0.0
 11
14.8999999999999915
 21
0.0
 31
0.0
  0
LINE
  5
BB
100
AcDbEntity
  8
0
 62
256
370
13
 48
1.0
  6
BYLAYER
100
AcDbLine
 10
54.6000000000000298
 20
0.0000000000000071
 30
0.0
 11
46.8999999999999986
 21
0.0
 31
0.0
  0
LINE
  5
BC
100
AcDbEntity
  8
0
 62
256
370
13
 48
1.0
  6
BYLAYER
100
AcDbLine
 10
22.6000000000000085
 20
32.0
 30
0.0
 11
14.8999999999999915
 21
32.0
 31
0.0
  0
LINE
  5
BD
100
AcDbEntity
  8
0
 62
256
370
13
 48
1.0
  6
BYLAYER
100
AcDbLine
 10
54.6000000000000298
 20
32.0
 30
0.0
 11
46.8999999999999986
 21
32.0
 31
0.0
  0
LINE
  5
BE
100
AcDbEntity
  8
0
 62
256
370
13
 48
1.0
  6
BYLAYER
100
AcDbLine
 10
86.6000000000000085
 20
0.0000000000000071
 30
0.0
 11
78.8999999999999915
 21
0.0
 31
0.0
  0
LINE
  5
BF
100
AcDbEntity
  8
0
 62
256
370
13
 48
1.0
  6
BYLAYER
100
AcDbLine
 10
118.6000000000000227
 20
0.0000000000000071
 30
0.0
 11
110.9000000000000057
 21
0.0
 31
0.0
  0
LINE
  5
C0
100
AcDbEntity
  8
0
 62
256
370
13
 48
1.0
  6
BYLAYER
100
AcDbLine
 10
86.6000000000000085
 20
32.0
 30
0.0
 11
78.8999999999999915
 21
32.0
 31
0.0
  0
LINE
  5
C1
100
AcDbEntity
  8
0
 62
256
370
13
 48
1.0
  6
BYLAYER
100
AcDbLine
 10
118.6000000000000227
 20
32.0
 30
0.0
 11
110.9000000000000057
 21
32.0
 31
0.0
  0
LINE
  5
C2
100
AcDbEntity
  8
0
 62
256
370
13
 48
1.0
  6
BYLAYER
100
AcDbLine
 10
22.6000000000000156
 20
64.0
 30
0.0
 11
14.8999999999999986
 21
64.0
 31
0.0
  0
LINE
  5
C3
100
AcDbEntity
  8
0
 62
256
370
13
 48
1.0
  6
BYLAYER
100
AcDbLine
 10
54.6000000000000369
 20
64.0
 30
0.0
 11
46.9000000000000057
 21
64.0
 31
0.0
  0
LINE
  5
C4
100
AcDbEntity
  8
0
 62
256
370
13
 48
1.0
  6
BYLAYER
100
AcDbLine
 10
22.6000000000000156
 20
96.0
 30
0.0
 11
14.8999999999999986
 21
96.0
 31
0.0
  0
LINE
  5
C5
100
AcDbEntity
  8
0
 62
256
370
13
 48
1.0
  6
BYLAYER
100
AcDbLine
 10
54.6000000000000369
 20
96.0
 30
0.0
 11
46.9000000000000057
 21
96.0
 31
0.0
  0
LINE
  5
C6
100
AcDbEntity
  8
0
 62
256
370
13
 48
1.0
  6
BYLAYER
100
AcDbLine
 10
86.6000000000000227
 20
64.0
 30
0.0
 11
78.9000000000000057
 21
64.0
 31
0.0
  0
LINE
  5
C7
100
AcDbEntity
  8
0
 62
256
370
13
 48
1.0
  6
BYLAYER
100
AcDbLine
 10
118.6000000000000227
 20
64.0
 30
0.0
 11
110.9000000000000057
 21
64.0
 31
0.0
  0
LINE
  5
C8
100
AcDbEntity
  8
0
 62
256
370
13
 48
1.0
  6
BYLAYER
100
AcDbLine
 10
86.6000000000000227
 20
96.0
 30
0.0
 11
78.9000000000000057
 21
96.0
 31
0.0
  0
LINE
  5
C9
100
AcDbEntity
  8
0
 62
256
370
13
 48
1.0
  6
BYLAYER
100
AcDbLine
 10
118.6000000000000227
 20
96.0
 30
0.0
 11
110.9000000000000057
 21
96.0
 31
0.0
  0
LINE
  5
CA
100
AcDbEntity
  8
0
 62
256
370
13
 48
1.0
  6
BYLAYER
100
AcDbLine
 10
22.6000000000000156
 20
128.0
 30
0.0
 11
14.8999999999999986
 21
128.0
 31
0.0
  0
LINE
  5
CB
100
AcDbEntity
  8
0
 62
256
370
13
 48
1.0
  6
BYLAYER
100
AcDbLine
 10
54.6000000000000369
 20
128.0
 30
0.0
 11
46.9000000000000057
 21
128.0
 31
0.0
  0
LINE
  5
CC
100
AcDbEntity
  8
0
 62
256
370
13
 48
1.0
  6
BYLAYER
100
AcDbLine
 10
22.6000000000000156
 20
160.0
 30
0.0
 11
14.8999999999999986
 21
160.0
 31
0.0
  0
LINE
  5
CD
100
AcDbEntity
  8
0
 62
256
370
13
 48
1.0
  6
BYLAYER
100
AcDbLine
 10
54.6000000000000369
 20
160.0
 30
0.0
 11
46.9000000000000057
 21
160.0
 31
0.0
  0
LINE
  5
CE
100
AcDbEntity
  8
0
 62
256
370
13
 48
1.0
  6
BYLAYER
100
AcDbLine
 10
86.6000000000000227
 20
128.0
 30
0.0
 11
78.9000000000000057
 21
128.0
 31
0.0
  0
LINE
  5
CF
100
AcDbEntity
  8
0
 62
256
370
13
 48
1.0
  6
BYLAYER
100
AcDbLine
 10
118.6000000000000227
 20
128.0
 30
0.0
 11
110.9000000000000057
 21
128.0
 31
0.0
  0
LINE
  5
D0
100
AcDbEntity
  8
0
 62
256
370
13
 48
1.0
  6
BYLAYER
100
AcDbLine
 10
86.6000000000000227
 20
160.0
 30
0.0
 11
78.9000000000000057
 21
160.0
 31
0.0
  0
LINE
  5
D1
100
AcDbEntity
  8
0
 62
256
370
13
 48
1.0
  6
BYLAYER
100
AcDbLine
 10
118.6000000000000227
 20
160.0
 30
0.0
 11
110.9000000000000057
 21
160.0
 31
0.0
  0
LINE
  5
D2
100
AcDbEntity
  8
0
 62
256
370
13
 48
1.0
  6
BYLAYER
100
AcDbLine
 10
22.6000000000000227
 20
192.0
 30
0.0
 11
14.9000000000000057
 21
192.0
 31
0.0
  0
LINE
  5
D3
100
AcDbEntity
  8
0
 62
256
370
13
 48
1.0
  6
BYLAYER
100
AcDbLine
 10
54.6000000000000441
 20
192.0
 30
0.0
 11
46.9000000000000128
 21
192.0
 31
0.0
  0
LINE
  5
D4
100
AcDbEntity
  8
0
 62
256
370
13
 48
1.0
  6
BYLAYER
100
AcDbLine
 10
22.6000000000000227
 20
224.0
 30
0.0
 11
14.9000000000000057
 21
224.0
 31
0.0
  0
LINE
  5
D5
100
AcDbEntity
  8
0
 62
256
370
13
 48
1.0
  6
BYLAYER
100
AcDbLine
 10
54.6000000000000441
 20
224.0
 30
0.0
 11
46.9000000000000128
 21
224.0
 31
0.0
  0
LINE
  5
D6
100
AcDbEntity
  8
0
 62
256
370
13
 48
1.0
  6
BYLAYER
100
AcDbLine
 10
86.6000000000000227
 20
192.0
 30
0.0
 11
78.9000000000000057
 21
192.0
 31
0.0
  0
LINE
  5
D7
100
AcDbEntity
  8
0
 62
256
370
13
 48
1.0
  6
BYLAYER
100
AcDbLine
 10
118.6000000000000227
 20
192.0
 30
0.0
 11
110.9000000000000057
 21
192.0
 31
0.0
  0
LINE
  5
D8
100
AcDbEntity
  8
0
 62
256
370
13
 48
1.0
  6
BYLAYER
100
AcDbLine
 10
86.6000000000000227
 20
224.0
 30
0.0
 11
78.9000000000000057
 21
224.0
 31
0.0
  0
LINE
  5
D9
100
AcDbEntity
  8
0
 62
256
370
13
 48
1.0
  6
BYLAYER
100
AcDbLine
 10
118.6000000000000227
 20
224.0
 30
0.0
 11
110.9000000000000057
 21
224.0
 31
0.0
  0
LINE
  5
DA
100
AcDbEntity
  8
0
 62
256
370
13
 48
1.0
  6
BYLAYER
100
AcDbLine
 10
7.6000000000000014
 20
30.0
 30
0.0
 11
0.0
 21
30.0
 31
0.0
  0
LINE
  5
DB
100
AcDbEntity
  8
0
 62
256
370
13
 48
1.0
  6
BYLAYER
100
AcDbLine
 10
39.6000000000000085
 20
30.0
 30
0.0
 11
32.0000000000000071
 21
30.0
 31
0.0
  0
LINE
  5
DC
100
AcDbEntity
  8
0
 62
256
370
13
 48
1.0
  6
BYLAYER
100
AcDbLine
 10
7.6000000000000014
 20
62.0
 30
0.0
 11
0.0
 21
62.0
 31
0.0
  0
LINE
  5
DD
100
AcDbEntity
  8
0
 62
256
370
13
 48
1.0
  6
BYLAYER
100
AcDbLine
 10
39.6000000000000085
 20
62.0
 30
0.0
 11
32.0000000000000071
 21
62.0
 31
0.0
  0
LINE
  5
DE
100
AcDbEntity
  8
0
 62
256
370
13
 48
1.0
  6
BYLAYER
100
AcDbLine
 10
71.5999999999999943
 20
30.0
 30
0.0
 11
64.0
 21
30.0
 31
0.0
  0
LINE
  5
DF
100
AcDbEntity
  8
0
 62
256
370
13
 48
1.0
  6
BYLAYER
100
AcDbLine
 10
103.6000000000000085
 20
30.0
 30
0.0
 11
96.0
 21
30.0
 31
0.0
  0
LINE
  5
E0
100
AcDbEntity
  8
0
 62
256
370
13
 48
1.0
  6
BYLAYER
100
AcDbLine
 10
71.5999999999999943
 20
62.0
 30
0.0
 11
64.0
 21
62.0
 31
0.0
  0
LINE
  5
E1
100
AcDbEntity
  8
0
 62
256
370
13
 48
1.0
  6
BYLAYER
100
AcDbLine
 10
103.6000000000000085
 20
62.0
 30
0.0
 11
96.0
 21
62.0
 31
0.0
  0
LINE
  5
E2
100
AcDbEntity
  8
0
 62
256
370
13
 48
1.0
  6
BYLAYER
100
AcDbLine
 10
7.6000000000000085
 20
94.0
 30
0.0
 11
0.0000000000000071
 21
94.0
 31
0.0
  0
LINE
  5
E3
100
AcDbEntity
  8
0
 62
256
370
13
 48
1.0
  6
BYLAYER
100
AcDbLine
 10
39.6000000000000156
 20
94.0
 30
0.0
 11
32.0000000000000142
 21
94.0
 31
0.0
  0
LINE
  5
E4
100
AcDbEntity
  8
0
 62
256
370
13
 48
1.0
  6
BYLAYER
100
AcDbLine
 10
7.6000000000000085
 20
126.0
 30
0.0
 11
0.0000000000000071
 21
126.0
 31
0.0
  0
LINE
  5
E5
100
AcDbEntity
  8
0
 62
256
370
13
 48
1.0
  6
BYLAYER
100
AcDbLine
 10
39.6000000000000156
 20
126.0
 30
0.0
 11
32.0000000000000142
 21
126.0
 31
0.0
  0
LINE
  5
E6
100
AcDbEntity
  8
0
 62
256
370
13
 48
1.0
  6
BYLAYER
100
AcDbLine
 10
71.5999999999999943
 20
94.0
 30
0.0
 11
64.0
 21
94.0
 31
0.0
  0
LINE
  5
E7
100
AcDbEntity
  8
0
 62
256
370
13
 48
1.0
  6
BYLAYER
100
AcDbLine
 10
103.6000000000000227
 20
94.0
 30
0.0
 11
96.0
 21
94.0
 31
0.0
  0
LINE
  5
E8
100
AcDbEntity
  8
0
 62
256
370
13
 48
1.0
  6
BYLAYER
100
AcDbLine
 10
71.5999999999999943
 20
126.0
 30
0.0
 11
64.0
 21
126.0
 31
0.0
  0
LINE
  5
E9
100
AcDbEntity
  8
0
 62
256
370
13
 48
1.0
  6
BYLAYER
100
AcDbLine
 10
103.6000000000000227
 20
126.0
 30
0.0
 11
96.0
 21
126.0
 31
0.0
  0
LINE
  5
EA
100
AcDbEntity
  8
0
 62
256
370
13
 48
1.0
  6
BYLAYER
100
AcDbLine
 10
7.6000000000000085
 20
158.0
 30
0.0
 11
0.0000000000000071
 21
158.0
 31
0.0
  0
LINE
  5
EB
100
AcDbEntity
  8
0
 62
256
370
13
 48
1.0
  6
BYLAYER
100
AcDbLine
 10
39.6000000000000156
 20
158.0
 30
0.0
 11
32.0000000000000142
 21
158.0
 31
0.0
  0
LINE
  5
EC
100
AcDbEntity
  8
0
 62
256
370
13
 48
1.0
  6
BYLAYER
100
AcDbLine
 10
7.6000000000000085
 20
190.0
 30
0.0
 11
0.0000000000000071
 21
190.0
 31
0.0
  0
LINE
  5
ED
100
AcDbEntity
  8
0
 62
256
370
13
 48
1.0
  6
BYLAYER
100
AcDbLine
 10
39.6000000000000156
 20
190.0
 30
0.0
 11
32.0000000000000142
 21
190.0
 31
0.0
  0
LINE
  5
EE
100
AcDbEntity
  8
0
 62
256
370
13
 48
1.0
  6
BYLAYER
100
AcDbLine
 10
71.5999999999999943
 20
158.0
 30
0.0
 11
64.0
 21
158.0
 31
0.0
  0
LINE
  5
EF
100
AcDbEntity
  8
0
 62
256
370
13
 48
1.0
  6
BYLAYER
100
AcDbLine
 10
103.6000000000000227
 20
158.0
 30
0.0
 11
96.0
 21
158.0
 31
0.0
  0
LINE
  5
F0
100
AcDbEntity
  8
0
 62
256
370
13
 48
1.0
  6
BYLAYER
100
AcDbLine
 10
71.5999999999999943
 20
190.0
 30
0.0
 11
64.0
 21
190.0
 31
0.0
  0
LINE
  5
F1
100
AcDbEntity
  8
0
 62
256
370
13
 48
1.0
  6
BYLAYER
100
AcDbLine
 10
103.6000000000000227
 20
190.0
 30
0.0
 11
96.0
 21
190.0
 31
0.0
  0
LINE
  5
F2
100
AcDbEntity
  8
0
 62
256
370
13
 48
1.0
  6
BYLAYER
100
AcDbLine
 10
7.6000000000000156
 20
222.0
 30
0.0
 11
0.0000000000000142
 21
222.0
 31
0.0
  0
LINE
  5
F3
100
AcDbEntity
  8
0
 62
256
370
13
 48
1.0
  6
BYLAYER
100
AcDbLine
 10
39.6000000000000227
 20
222.0
 30
0.0
 11
32.0000000000000213
 21
222.0
 31
0.0
  0
LINE
  5
F4
100
AcDbEntity
  8
0
 62
256
370
13
 48
1.0
  6
BYLAYER
100
AcDbLine
 10
7.6000000000000156
 20
254.0
 30
0.0
 11
0.0000000000000142
 21
254.0
 31
0.0
  0
LINE
  5
F5
100
AcDbEntity
  8
0
 62
256
370
13
 48
1.0
  6
BYLAYER
100
AcDbLine
 10
39.6000000000000227
 20
254.0
 30
0.0
 11
32.0000000000000213
 21
254.0
 31
0.0
  0
LINE
  5
F6
100
AcDbEntity
  8
0
 62
256
370
13
 48
1.0
  6
BYLAYER
100
AcDbLine
 10
71.5999999999999943
 20
222.0
 30
0.0
 11
64.0
 21
222.0
 31
0.0
  0
LINE
  5
F7
100
AcDbEntity
  8
0
 62
256
370
13
 48
1.0
  6
BYLAYER
100
AcDbLine
 10
103.6000000000000227
 20
222.0
 30
0.0
 11
96.0
 21
222.0
 31
0.0
  0
LINE
  5
F8
100
AcDbEntity
  8
0
 62
256
370
13
 48
1.0
  6
BYLAYER
100
AcDbLine
 10
71.5999999999999943
 20
254.0
 30
0.0
 11
64.0
 21
254.0
 31
0.0
  0
LINE
  5
F9
100
AcDbEntity
  8
0
 62
256
370
13
 48
1.0
  6
BYLAYER
100
AcDbLine
 10
103.6000000000000227
 20
254.0
 30
0.0
 11
96.0
 21
254.0
 31
0.0
  0
LINE
  5
FA
100
AcDbEntity
  8
0
 62
256
370
13
 48
1.0
  6
BYLAYER
100
AcDbLine
 10
22.6000000000000014
 20
30.0
 30
0.0
 11
14.8999999999999986
 21
30.0
 31
0.0
  0
LINE
  5
FB
100
AcDbEntity
  8
0
 62
256
370
13
 48
1.0
  6
BYLAYER
100
AcDbLine
 10
54.6000000000000156
 20
30.0
 30
0.0
 11
46.9000000000000057
 21
30.0
 31
0.0
  0
LINE
  5
FC
100
AcDbEntity
  8
0
 62
256
370
13
 48
1.0
  6
BYLAYER
100
AcDbLine
 10
22.6000000000000014
 20
62.0
 30
0.0
 11
14.8999999999999986
 21
62.0
 31
0.0
  0
LINE
  5
FD
100
AcDbEntity
  8
0
 62
256
370
13
 48
1.0
  6
BYLAYER
100
AcDbLine
 10
54.6000000000000156
 20
62.0
 30
0.0
 11
46.9000000000000057
 21
62.0
 31
0.0
  0
LINE
  5
FE
100
AcDbEntity
  8
0
 62
256
370
13
 48
1.0
  6
BYLAYER
100
AcDbLine
 10
86.5999999999999943
 20
30.0
 30
0.0
 11
78.9000000000000057
 21
30.0
 31
0.0
  0
LINE
  5
FF
100
AcDbEntity
  8
0
 62
256
370
13
 48
1.0
  6
BYLAYER
100
AcDbLine
 10
118.6000000000000227
 20
30.0
 30
0.0
 11
110.9000000000000057
 21
30.0
 31
0.0
  0
LINE
  5
100
100
AcDbEntity
  8
0
 62
256
370
13
 48
1.0
  6
BYLAYER
100
AcDbLine
 10
86.5999999999999943
 20
62.0
 30
0.0
 11
78.9000000000000057
 21
62.0
 31
0.0
  0
LINE
  5
101
100
AcDbEntity
  8
0
 62
256
370
13
 48
1.0
  6
BYLAYER
100
AcDbLine
 10
118.6000000000000227
 20
62.0
 30
0.0
 11
110.9000000000000057
 21
62.0
 31
0.0
  0
LINE
  5
102
100
AcDbEntity
  8
0
 62
256
370
13
 48
1.0
  6
BYLAYER
100
AcDbLine
 10
22.6000000000000085
 20
94.0
 30
0.0
 11
14.9000000000000057
 21
94.0
 31
0.0
  0
LINE
  5
103
100
AcDbEntity
  8
0
 62
256
370
13
 48
1.0
  6
BYLAYER
100
AcDbLine
 10
54.6000000000000227
 20
94.0
 30
0.0
 11
46.9000000000000128
 21
94.0
 31
0.0
  0
LINE
  5
104
100
AcDbEntity
  8
0
 62
256
370
13
 48
1.0
  6
BYLAYER
100
AcDbLine
 10
22.6000000000000085
 20
126.0
 30
0.0
 11
14.9000000000000057
 21
126.0
 31
0.0
  0
LINE
  5
105
100
AcDbEntity
  8
0
 62
256
370
13
 48
1.0
  6
BYLAYER
100
AcDbLine
 10
54.6000000000000227
 20
126.0
 30
0.0
 11
46.9000000000000128
 21
126.0
 31
0.0
  0
LINE
  5
106
100
AcDbEntity
  8
0
 62
256
370
13
 48
1.0
  6
BYLAYER
100
AcDbLine
 10
86.5999999999999943
 20
94.0
 30
0.0
 11
78.9000000000000057
 21
94.0
 31
0.0
  0
LINE
  5
107
100
AcDbEntity
  8
0
 62
256
370
13
 48
1.0
  6
BYLAYER
100
AcDbLine
 10
118.6000000000000227
 20
94.0
 30
0.0
 11
110.9000000000000057
 21
94.0
 31
0.0
  0
LINE
  5
108
100
AcDbEntity
  8
0
 62
256
370
13
 48
1.0
  6
BYLAYER
100
AcDbLine
 10
86.5999999999999943
 20
126.0
 30
0.0
 11
78.9000000000000057
 21
126.0
 31
0.0
  0
LINE
  5
109
100
AcDbEntity
  8
0
 62
256
370
13
 48
1.0
  6
BYLAYER
100
AcDbLine
 10
118.6000000000000227
 20
126.0
 30
0.0
 11
110.9000000000000057
 21
126.0
 31
0.0
  0
LINE
  5
10A
100
AcDbEntity
  8
0
 62
256
370
13
 48
1.0
  6
BYLAYER
100
AcDbLine
 10
22.6000000000000085
 20
158.0
 30
0.0
 11
14.9000000000000057
 21
158.0
 31
0.0
  0
LINE
  5
10B
100
AcDbEntity
  8
0
 62
256
370
13
 48
1.0
  6
BYLAYER
100
AcDbLine
 10
54.6000000000000227
 20
158.0
 30
0.0
 11
46.9000000000000128
 21
158.0
 31
0.0
  0
LINE
  5
10C
100
AcDbEntity
  8
0
 62
256
370
13
 48
1.0
  6
BYLAYER
100
AcDbLine
 10
22.6000000000000085
 20
190.0
 30
0.0
 11
14.9000000000000057
 21
190.0
 31
0.0
  0
LINE
  5
10D
100
AcDbEntity
  8
0
 62
256
370
13
 48
1.0
  6
BYLAYER
100
AcDbLine
 10
54.6000000000000227
 20
190.0
 30
0.0
 11
46.9000000000000128
 21
190.0
 31
0.0
  0
LINE
  5
10E
100
AcDbEntity
  8
0
 62
256
370
13
 48
1.0
  6
BYLAYER
100
AcDbLine
 10
86.5999999999999943
 20
158.0
 30
0.0
 11
78.9000000000000057
 21
158.0
 31
0.0
  0
LINE
  5
10F
100
AcDbEntity
  8
0
 62
256
370
13
 48
1.0
  6
BYLAYER
100
AcDbLine
 10
118.6000000000000227
 20
158.0
 30
0.0
 11
110.9000000000000057
 21
158.0
 31
0.0
  0
LINE
  5
110
100
AcDbEntity
  8
0
 62
256
370
13
 48
1.0
  6
BYLAYER
100
AcDbLine
 10
86.5999999999999943
 20
190.0
 30
0.0
 11
78.9000000000000057
 21
190.0
 31
0.0
  0
LINE
  5
111
100
AcDbEntity
  8
0
 62
256
370
13
 48
1.0
  6
BYLAYER
100
AcDbLine
 10
118.6000000000000227
 20
190.0
 30
0.0
 11
110.9000000000000057
 21
190.0
 31
0.0
  0
LINE
  5
112
100
AcDbEntity
  8
0
 62
256
370
13
 48
1.0
  6
BYLAYER
100
AcDbLine
 10
22.6000000000000156
 20
222.0
 30
0.0
 11
14.9000000000000128
 21
222.0
 31
0.0
  0
LINE
  5
113
100
AcDbEntity
  8
0
 62
256
370
13
 48
1.0
  6
BYLAYER
100
AcDbLine
 10
54.6000000000000298
 20
222.0
 30
0.0
 11
46.9000000000000199
 21
222.0
 31
0.0
  0
LINE
  5
114
100
AcDbEntity
  8
0
 62
256
370
13
 48
1.0
  6
BYLAYER
100
AcDbLine
 10
22.6000000000000156
 20
254.0
 30
0.0
 11
14.9000000000000128
 21
254.0
 31
0.0
  0
LINE
  5
115
100
AcDbEntity
  8
0
 62
256
370
13
 48
1.0
  6
BYLAYER
100
AcDbLine
 10
54.6000000000000298
 20
254.0
 30
0.0
 11
46.9000000000000199
 21
254.0
 31
0.0
  0
LINE
  5
116
100
AcDbEntity
  8
0
 62
256
370
13
 48
1.0
  6
BYLAYER
100
AcDbLine
 10
86.5999999999999943
 20
222.0
 30
0.0
 11
78.9000000000000057
 21
222.0
 31
0.0
  0
LINE
  5
117
100
AcDbEntity
  8
0
 62
256
370
13
 48
1.0
  6
BYLAYER
100
AcDbLine
 10
118.6000000000000227
 20
222.0
 30
0.0
 11
110.9000000000000057
 21
222.0
 31
0.0
  0
LINE
  5
118
100
AcDbEntity
  8
0
 62
256
370
13
 48
1.0
  6
BYLAYER
100
AcDbLine
 10
86.5999999999999943
 20
254.0
 30
0.0
 11
78.9000000000000057
 21
254.0
 31
0.0
  0
LINE
  5
119
100
AcDbEntity
  8
0
 62
256
370
13
 48
1.0
  6
BYLAYER
100
AcDbLine
 10
118.6000000000000227
 20
254.0
 30
0.0
 11
110.9000000000000057
 21
254.0
 31
0.0
  0
LINE
  5
11A
100
AcDbEntity
  8
0
 62
256
370
13
 48
1.0
  6
BYLAYER
100
AcDbLine
 10
-0.0000000000000071
 20
7.3999999999999986
 30
0.0
 11
-0.0000000000000071
 21
15.1000000000000014
 31
0.0
  0
LINE
  5
11B
100
AcDbEntity
  8
0
 62
256
370
13
 48
1.0
  6
BYLAYER
100
AcDbLine
 10
32.0
 20
7.3999999999999986
 30
0.0
 11
32.0
 21
15.1000000000000014
 31
0.0
  0
LINE
  5
11C
100
AcDbEntity
  8
0
 62
256
370
13
 48
1.0
  6
BYLAYER
100
AcDbLine
 10
-0.0000000000000071
 20
39.3999999999999915
 30
0.0
 11
-0.0000000000000071
 21
47.0999999999999943
 31
0.0
  0
LINE
  5
11D
100
AcDbEntity
  8
0
 62
256
370
13
 48
1.0
  6
BYLAYER
100
AcDbLine
 10
32.0
 20
39.3999999999999915
 30
0.0
 11
32.0
 21
47.0999999999999943
 31
0.0
  0
LINE
  5
11E
100
AcDbEntity
  8
0
 62
256
370
13
 48
1.0
  6
BYLAYER
100
AcDbLine
 10
63.9999999999999929
 20
7.3999999999999986
 30
0.0
 11
63.9999999999999929
 21
15.1000000000000014
 31
0.0
  0
LINE
  5
11F
100
AcDbEntity
  8
0
 62
256
370
13
 48
1.0
  6
BYLAYER
100
AcDbLine
 10
96.0
 20
7.3999999999999986
 30
0.0
 11
96.0
 21
15.1000000000000014
 31
0.0
  0
LINE
  5
120
100
AcDbEntity
  8
0
 62
256
370
13
 48
1.0
  6
BYLAYER
100
AcDbLine
 10
63.9999999999999929
 20
39.3999999999999915
 30
0.0
 11
63.9999999999999929
 21
47.0999999999999943
 31
0.0
  0
LINE
  5
121
100
AcDbEntity
  8
0
 62
256
370
13
 48
1.0
  6
BYLAYER
100
AcDbLine
 10
96.0
 20
39.3999999999999915
 30
0.0
 11
96.0
 21
47.0999999999999943
 31
0.0
  0
LINE
  5
122
100
AcDbEntity
  8
0
 62
256
370
13
 48
1.0
  6
BYLAYER
100
AcDbLine
 10
0.0
 20
71.4000000000000057
 30
0.0
 11
0.0
 21
79.0999999999999943
 31
0.0
  0
LINE
  5
123
100
AcDbEntity
  8
0
 62
256
370
13
 48
1.0
  6
BYLAYER
100
AcDbLine
 10
32.0000000000000071
 20
71.4000000000000057
 30
0.0
 11
32.0000000000000071
 21
79.0999999999999943
 31
0.0
  0
LINE
  5
124
100
AcDbEntity
  8
0
 62
256
370
13
 48
1.0
  6
BYLAYER
100
AcDbLine
 10
0.0
 20
103.3999999999999915
 30
0.0
 11
0.0
 21
111.0999999999999943
 31
0.0
  0
LINE
  5
125
100
AcDbEntity
  8
0
 62
256
370
13
 48
1.0
  6
BYLAYER
100
AcDbLine
 10
32.0000000000000071
 20
103.3999999999999915
 30
0.0
 11
32.0000000000000071
 21
111.0999999999999943
 31
0.0
  0
LINE
  5
126
100
AcDbEntity
  8
0
 62
256
370
13
 48
1.0
  6
BYLAYER
100
AcDbLine
 10
64.0
 20
71.4000000000000057
 30
0.0
 11
64.0
 21
79.0999999999999943
 31
0.0
  0
LINE
  5
127
100
AcDbEntity
  8
0
 62
256
370
13
 48
1.0
  6
BYLAYER
100
AcDbLine
 10
96.0
 20
71.4000000000000057
 30
0.0
 11
96.0
 21
79.0999999999999943
 31
0.0
  0
LINE
  5
128
100
AcDbEntity
  8
0
 62
256
370
13
 48
1.0
  6
BYLAYER
100
AcDbLine
 10
64.0
 20
103.3999999999999915
 30
0.0
 11
64.0
 21
111.0999999999999943
 31
0.0
  0
LINE
  5
129
100
AcDbEntity
  8
0
 62
256
370
13
 48
1.0
  6
BYLAYER
100
AcDbLine
 10
96.0
 20
103.3999999999999915
 30
0.0
 11
96.0
 21
111.0999999999999943
 31
0.0
  0
LINE
  5
12A
100
AcDbEntity
  8
0
 62
256
370
13
 48
1.0
  6
BYLAYER
100
AcDbLine
 10
0.0
 20
135.4000000000000057
 30
0.0
 11
0.0
 21
143.0999999999999943
 31
0.0
  0
LINE
  5
12B
100
AcDbEntity
  8
0
 62
256
370
13
 48
1.0
  6
BYLAYER
100
AcDbLine
 10
32.0000000000000071
 20
135.4000000000000057
 30
0.0
 11
32.0000000000000071
 21
143.0999999999999943
 31
0.0
  0
LINE
  5
12C
100
AcDbEntity
  8
0
 62
256
370
13
 48
1.0
  6
BYLAYER
100
AcDbLine
 10
0.0
 20
167.3999999999999773
 30
0.0
 11
0.0
 21
175.0999999999999943
 31
0.0
  0
LINE
  5
12D
100
AcDbEntity
  8
0
 62
256
370
13
 48
1.0
  6
BYLAYER
100
AcDbLine
 10
32.0000000000000071
 20
167.3999999999999773
 30
0.0
 11
32.0000000000000071
 21
175.0999999999999943
 31
0.0
  0
LINE
  5
12E
100
AcDbEntity
  8
0
 62
256
370
13
 48
1.0
  6
BYLAYER
100
AcDbLine
 10
64.0
 20
135.4000000000000057
 30
0.0
 11
64.0
 21
143.0999999999999943
 31
0.0
  0
LINE
  5
12F
100
AcDbEntity
  8
0
 62
256
370
13
 48
1.0
  6
BYLAYER
100
AcDbLine
 10
96.0
 20
135.4000000000000057
 30
0.0
 11
96.0
 21
143.0999999999999943
 31
0.0
  0
LINE
  5
130
100
AcDbEntity
  8
0
 62
256
370
13
 48
1.0
  6
BYLAYER
100
AcDbLine
 10
64.0
 20
167.3999999999999773
 30
0.0
 11
64.0
 21
175.0999999999999943
 31
0.0
  0
LINE
  5
131
100
AcDbEntity
  8
0
 62
256
370
13
 48
1.0
  6
BYLAYER
100
AcDbLine
 10
96.0
 20
167.3999999999999773
 30
0.0
 11
96.0
 21
175.0999999999999943
 31
0.0
  0
LINE
  5
132
100
AcDbEntity
  8
0
 62
256
370
13
 48
1.0
  6
BYLAYER
100
AcDbLine
 10
0.0000000000000071
 20
199.4000000000000057
 30
0.0
 11
0.0000000000000071
 21
207.0999999999999943
 31
0.0
  0
LINE
  5
133
100
AcDbEntity
  8
0
 62
256
370
13
 48
1.0
  6
BYLAYER
100
AcDbLine
 10
32.0000000000000142
 20
199.4000000000000057
 30
0.0
 11
32.0000000000000142
 21
207.0999999999999943
 31
0.0
  0
LINE
  5
134
100
AcDbEntity
  8
0
 62
256
370
13
 48
1.0
  6
BYLAYER
100
AcDbLine
 10
0.0000000000000071
 20
231.3999999999999773
 30
0.0
 11
0.0000000000000071
 21
239.0999999999999943
 31
0.0
  0
LINE
  5
135
100
AcDbEntity
  8
0
 62
256
370
13
 48
1.0
  6
BYLAYER
100
AcDbLine
 10
32.0000000000000142
 20
231.3999999999999773
 30
0.0
 11
32.0000000000000142
 21
239.0999999999999943
 31
0.0
  0
LINE
  5
136
100
AcDbEntity
  8
0
 62
256
370
13
 48
1.0
  6
BYLAYER
100
AcDbLine
 10
64.0
 20
199.4000000000000057
 30
0.0
 11
64.0
 21
207.0999999999999943
 31
0.0
  0
LINE
  5
137
100
AcDbEntity
  8
0
 62
256
370
13
 48
1.0
  6
BYLAYER
100
AcDbLine
 10
96.0
 20
199.4000000000000057
 30
0.0
 11
96.0
 21
207.0999999999999943
 31
0.0
  0
LINE
  5
138
100
AcDbEntity
  8
0
 62
256
370
13
 48
1.0
  6
BYLAYER
100
AcDbLine
 10
64.0
 20
231.3999999999999773
 30
0.0
 11
64.0
 21
239.0999999999999943
 31
0.0
  0
LINE
  5
139
100
AcDbEntity
  8
0
 62
256
370
13
 48
1.0
  6
BYLAYER
100
AcDbLine
 10
96.0
 20
231.3999999999999773
 30
0.0
 11
96.0
 21
239.0999999999999943
 31
0.0
  0
LINE
  5
13A
100
AcDbEntity
  8
0
 62
256
370
13
 48
1.0
  6
BYLAYER
100
AcDbLine
 10
0.0
 20
22.4000000000000057
 30
0.0
 11
0.0
 21
30.0
 31
0.0
  0
LINE
  5
13B
100
AcDbEntity
  8
0
 62
256
370
13
 48
1.0
  6
BYLAYER
100
AcDbLine
 10
32.0
 20
22.4000000000000057
 30
0.0
 11
32.0000000000000071
 21
30.0
 31
0.0
  0
LINE
  5
13C
100
AcDbEntity
  8
0
 62
256
370
13
 48
1.0
  6
BYLAYER
100
AcDbLine
 10
0.0
 20
54.4000000000000057
 30
0.0
 11
0.0
 21
62.0
 31
0.0
  0
LINE
  5
13D
100
AcDbEntity
  8
0
 62
256
370
13
 48
1.0
  6
BYLAYER
100
AcDbLine
 10
32.0
 20
54.4000000000000057
 30
0.0
 11
32.0000000000000071
 21
62.0
 31
0.0
  0
LINE
  5
13E
100
AcDbEntity
  8
0
 62
256
370
13
 48
1.0
  6
BYLAYER
100
AcDbLine
 10
64.0
 20
22.4000000000000057
 30
0.0
 11
64.0
 21
30.0
 31
0.0
  0
LINE
  5
13F
100
AcDbEntity
  8
0
 62
256
370
13
 48
1.0
  6
BYLAYER
100
AcDbLine
 10
96.0
 20
22.4000000000000057
 30
0.0
 11
96.0
 21
30.0
 31
0.0
  0
LINE
  5
140
100
AcDbEntity
  8
0
 62
256
370
13
 48
1.0
  6
BYLAYER
100
AcDbLine
 10
64.0
 20
54.4000000000000057
 30
0.0
 11
64.0
 21
62.0
 31
0.0
  0
LINE
  5
141
100
AcDbEntity
  8
0
 62
256
370
13
 48
1.0
  6
BYLAYER
100
AcDbLine
 10
96.0
 20
54.4000000000000057
 30
0.0
 11
96.0
 21
62.0
 31
0.0
  0
LINE
  5
142
100
AcDbEntity
  8
0
 62
256
370
13
 48
1.0
  6
BYLAYER
100
AcDbLine
 10
0.0000000000000071
 20
86.4000000000000057
 30
0.0
 11
0.0000000000000071
 21
94.0
 31
0.0
  0
LINE
  5
143
100
AcDbEntity
  8
0
 62
256
370
13
 48
1.0
  6
BYLAYER
100
AcDbLine
 10
32.0000000000000071
 20
86.4000000000000057
 30
0.0
 11
32.0000000000000142
 21
94.0
 31
0.0
  0
LINE
  5
144
100
AcDbEntity
  8
0
 62
256
370
13
 48
1.0
  6
BYLAYER
100
AcDbLine
 10
0.0000000000000071
 20
118.4000000000000057
 30
0.0
 11
0.0000000000000071
 21
126.0
 31
0.0
  0
LINE
  5
145
100
AcDbEntity
  8
0
 62
256
370
13
 48
1.0
  6
BYLAYER
100
AcDbLine
 10
32.0000000000000071
 20
118.4000000000000057
 30
0.0
 11
32.0000000000000142
 21
126.0
 31
0.0
  0
LINE
  5
146
100
AcDbEntity
  8
0
 62
256
370
13
 48
1.0
  6
BYLAYER
100
AcDbLine
 10
64.0
 20
86.4000000000000057
 30
0.0
 11
64.0
 21
94.0
 31
0.0
  0
LINE
  5
147
100
AcDbEntity
  8
0
 62
256
370
13
 48
1.0
  6
BYLAYER
100
AcDbLine
 10
96.0
 20
86.4000000000000057
 30
0.0
 11
96.0
 21
94.0
 31
0.0
  0
LINE
  5
148
100
AcDbEntity
  8
0
 62
256
370
13
 48
1.0
  6
BYLAYER
100
AcDbLine
 10
64.0
 20
118.4000000000000057
 30
0.0
 11
64.0
 21
126.0
 31
0.0
  0
LINE
  5
149
100
AcDbEntity
  8
0
 62
256
370
13
 48
1.0
  6
BYLAYER
100
AcDbLine
 10
96.0
 20
118.4000000000000057
 30
0.0
 11
96.0
 21
126.0
 31
0.0
  0
LINE
  5
14A
100
AcDbEntity
  8
0
 62
256
370
13
 48
1.0
  6
BYLAYER
100
AcDbLine
 10
0.0000000000000071
 20
150.4000000000000057
 30
0.0
 11
0.0000000000000071
 21
158.0
 31
0.0
  0
LINE
  5
14B
100
AcDbEntity
  8
0
 62
256
370
13
 48
1.0
  6
BYLAYER
100
AcDbLine
 10
32.0000000000000071
 20
150.4000000000000057
 30
0.0
 11
32.0000000000000142
 21
158.0
 31
0.0
  0
LINE
  5
14C
100
AcDbEntity
  8
0
 62
256
370
13
 48
1.0
  6
BYLAYER
100
AcDbLine
 10
0.0000000000000071
 20
182.4000000000000057
 30
0.0
 11
0.0000000000000071
 21
190.0
 31
0.0
  0
LINE
  5
14D
100
AcDbEntity
  8
0
 62
256
370
13
 48
1.0
  6
BYLAYER
100
AcDbLine
 10
32.0000000000000071
 20
182.4000000000000057
 30
0.0
 11
32.0000000000000142
 21
190.0
 31
0.0
  0
LINE
  5
14E
100
AcDbEntity
  8
0
 62
256
370
13
 48
1.0
  6
BYLAYER
100
AcDbLine
 10
64.0
 20
150.4000000000000057
 30
0.0
 11
64.0
 21
158.0
 31
0.0
  0
LINE
  5
14F
100
AcDbEntity
  8
0
 62
256
370
13
 48
1.0
  6
BYLAYER
100
AcDbLine
 10
96.0
 20
150.4000000000000057
 30
0.0
 11
96.0
 21
158.0
 31
0.0
  0
LINE
  5
150
100
AcDbEntity
  8
0
 62
256
370
13
 48
1.0
  6
BYLAYER
100
AcDbLine
 10
64.0
 20
182.4000000000000057
 30
0.0
 11
64.0
 21
190.0
 31
0.0
  0
LINE
  5
151
100
AcDbEntity
  8
0
 62
256
370
13
 48
1.0
  6
BYLAYER
100
AcDbLine
 10
96.0
 20
182.4000000000000057
 30
0.0
 11
96.0
 21
190.0
 31
0.0
  0
LINE
  5
152
100
AcDbEntity
  8
0
 62
256
370
13
 48
1.0
  6
BYLAYER
100
AcDbLine
 10
0.0000000000000142
 20
214.4000000000000057
 30
0.0
 11
0.0000000000000142
 21
222.0
 31
0.0
  0
LINE
  5
153
100
AcDbEntity
  8
0
 62
256
370
13
 48
1.0
  6
BYLAYER
100
AcDbLine
 10
32.0000000000000142
 20
214.4000000000000057
 30
0.0
 11
32.0000000000000213
 21
222.0
 31
0.0
  0
LINE
  5
154
100
AcDbEntity
  8
0
 62
256
370
13
 48
1.0
  6
BYLAYER
100
AcDbLine
 10
0.0000000000000142
 20
246.4000000000000057
 30
0.0
 11
0.0000000000000142
 21
254.0
 31
0.0
  0
LINE
  5
155
100
AcDbEntity
  8
0
 62
256
370
13
 48
1.0
  6
BYLAYER
100
AcDbLine
 10
32.0000000000000142
 20
246.4000000000000057
 30
0.0
 11
32.0000000000000213
 21
254.0
 31
0.0
  0
LINE
  5
156
100
AcDbEntity
  8
0
 62
256
370
13
 48
1.0
  6
BYLAYER
100
AcDbLine
 10
64.0
 20
214.4000000000000057
 30
0.0
 11
64.0
 21
222.0
 31
0.0
  0
LINE
  5
157
100
AcDbEntity
  8
0
 62
256
370
13
 48
1.0
  6
BYLAYER
100
AcDbLine
 10
96.0
 20
214.4000000000000057
 30
0.0
 11
96.0
 21
222.0
 31
0.0
  0
LINE
  5
158
100
AcDbEntity
  8
0
 62
256
370
13
 48
1.0
  6
BYLAYER
100
AcDbLine
 10
64.0
 20
246.4000000000000057
 30
0.0
 11
64.0
 21
254.0
 31
0.0
  0
LINE
  5
159
100
AcDbEntity
  8
0
 62
256
370
13
 48
1.0
  6
BYLAYER
100
AcDbLine
 10
96.0
 20
246.4000000000000057
 30
0.0
 11
96.0
 21
254.0
 31
0.0
  0
LINE
  5
15A
100
AcDbEntity
  8
0
 62
256
370
13
 48
1.0
  6
BYLAYER
100
AcDbLine
 10
14.8999999999999986
 20
27.5
 30
0.0
 11
7.6000000000000014
 21
27.5
 31
0.0
  0
LINE
  5
15B
100
AcDbEntity
  8
0
 62
256
370
13
 48
1.0
  6
BYLAYER
100
AcDbLine
 10
46.9000000000000057
 20
27.5
 30
0.0
 11
39.6000000000000085
 21
27.5
 31
0.0
  0
LINE
  5
15C
100
AcDbEntity
  8
0
 62
256
370
13
 48
1.0
  6
BYLAYER
100
AcDbLine
 10
14.8999999999999986
 20
59.5
 30
0.0
 11
7.6000000000000014
 21
59.5
 31
0.0
  0
LINE
  5
15D
100
AcDbEntity
  8
0
 62
256
370
13
 48
1.0
  6
BYLAYER
100
AcDbLine
 10
46.9000000000000057
 20
59.5
 30
0.0
 11
39.6000000000000085
 21
59.5
 31
0.0
  0
LINE
  5
15E
100
AcDbEntity
  8
0
 62
256
370
13
 48
1.0
  6
BYLAYER
100
AcDbLine
 10
78.9000000000000057
 20
27.5
 30
0.0
 11
71.5999999999999943
 21
27.5
 31
0.0
  0
LINE
  5
15F
100
AcDbEntity
  8
0
 62
256
370
13
 48
1.0
  6
BYLAYER
100
AcDbLine
 10
110.9000000000000057
 20
27.5
 30
0.0
 11
103.6000000000000085
 21
27.5
 31
0.0
  0
LINE
  5
160
100
AcDbEntity
  8
0
 62
256
370
13
 48
1.0
  6
BYLAYER
100
AcDbLine
 10
78.9000000000000057
 20
59.5
 30
0.0
 11
71.5999999999999943
 21
59.5
 31
0.0
  0
LINE
  5
161
100
AcDbEntity
  8
0
 62
256
370
13
 48
1.0
  6
BYLAYER
100
AcDbLine
 10
110.9000000000000057
 20
59.5
 30
0.0
 11
103.6000000000000085
 21
59.5
 31
0.0
  0
LINE
  5
162
100
AcDbEntity
  8
0
 62
256
370
13
 48
1.0
  6
BYLAYER
100
AcDbLine
 10
14.9000000000000057
 20
91.5
 30
0.0
 11
7.6000000000000085
 21
91.5
 31
0.0
  0
LINE
  5
163
100
AcDbEntity
  8
0
 62
256
370
13
 48
1.0
  6
BYLAYER
100
AcDbLine
 10
46.9000000000000128
 20
91.5
 30
0.0
 11
39.6000000000000156
 21
91.5
 31
0.0
  0
LINE
  5
164
100
AcDbEntity
  8
0
 62
256
370
13
 48
1.0
  6
BYLAYER
100
AcDbLine
 10
14.9000000000000057
 20
123.5
 30
0.0
 11
7.6000000000000085
 21
123.5
 31
0.0
  0
LINE
  5
165
100
AcDbEntity
  8
0
 62
256
370
13
 48
1.0
  6
BYLAYER
100
AcDbLine
 10
46.9000000000000128
 20
123.5
 30
0.0
 11
39.6000000000000156
 21
123.5
 31
0.0
  0
LINE
  5
166
100
AcDbEntity
  8
0
 62
256
370
13
 48
1.0
  6
BYLAYER
100
AcDbLine
 10
78.9000000000000057
 20
91.5
 30
0.0
 11
71.5999999999999943
 21
91.5
 31
0.0
  0
LINE
  5
167
100
AcDbEntity
  8
0
 62
256
370
13
 48
1.0
  6
BYLAYER
100
AcDbLine
 10
110.9000000000000057
 20
91.5
 30
0.0
 11
103.6000000000000227
 21
91.5
 31
0.0
  0
LINE
  5
168
100
AcDbEntity
  8
0
 62
256
370
13
 48
1.0
  6
BYLAYER
100
AcDbLine
 10
78.9000000000000057
 20
123.5
 30
0.0
 11
71.5999999999999943
 21
123.5
 31
0.0
  0
LINE
  5
169
100
AcDbEntity
  8
0
 62
256
370
13
 48
1.0
  6
BYLAYER
100
AcDbLine
 10
110.9000000000000057
 20
123.5
 30
0.0
 11
103.6000000000000227
 21
123.5
 31
0.0
  0
LINE
  5
16A
100
AcDbEntity
  8
0
 62
256
370
13
 48
1.0
  6
BYLAYER
100
AcDbLine
 10
14.9000000000000057
 20
155.5
 30
0.0
 11
7.6000000000000085
 21
155.5
 31
0.0
  0
LINE
  5
16B
100
AcDbEntity
  8
0
 62
256
370
13
 48
1.0
  6
BYLAYER
100
AcDbLine
 10
46.9000000000000128
 20
155.5
 30
0.0
 11
39.6000000000000156
 21
155.5
 31
0.0
  0
LINE
  5
16C
100
AcDbEntity
  8
0
 62
256
370
13
 48
1.0
  6
BYLAYER
100
AcDbLine
 10
14.9000000000000057
 20
187.5
 30
0.0
 11
7.6000000000000085
 21
187.5
 31
0.0
  0
LINE
  5
16D
100
AcDbEntity
  8
0
 62
256
370
13
 48
1.0
  6
BYLAYER
100
AcDbLine
 10
46.9000000000000128
 20
187.5
 30
0.0
 11
39.6000000000000156
 21
187.5
 31
0.0
  0
LINE
  5
16E
100
AcDbEntity
  8
0
 62
256
370
13
 48
1.0
  6
BYLAYER
100
AcDbLine
 10
78.9000000000000057
 20
155.5
 30
0.0
 11
71.5999999999999943
 21
155.5
 31
0.0
  0
LINE
  5
16F
100
AcDbEntity
  8
0
 62
256
370
13
 48
1.0
  6
BYLAYER
100
AcDbLine
 10
110.9000000000000057
 20
155.5
 30
0.0
 11
103.6000000000000227
 21
155.5
 31
0.0
  0
LINE
  5
170
100
AcDbEntity
  8
0
 62
256
370
13
 48
1.0
  6
BYLAYER
100
AcDbLine
 10
78.9000000000000057
 20
187.5
 30
0.0
 11
71.5999999999999943
 21
187.5
 31
0.0
  0
LINE
  5
171
100
AcDbEntity
  8
0
 62
256
370
13
 48
1.0
  6
BYLAYER
100
AcDbLine
 10
110.9000000000000057
 20
187.5
 30
0.0
 11
103.6000000000000227
 21
187.5
 31
0.0
  0
LINE
  5
172
100
AcDbEntity
  8
0
 62
256
370
13
 48
1.0
  6
BYLAYER
100
AcDbLine
 10
14.9000000000000128
 20
219.5
 30
0.0
 11
7.6000000000000156
 21
219.5
 31
0.0
  0
LINE
  5
173
100
AcDbEntity
  8
0
 62
256
370
13
 48
1.0
  6
BYLAYER
100
AcDbLine
 10
46.9000000000000199
 20
219.5
 30
0.0
 11
39.6000000000000227
 21
219.5
 31
0.0
  0
LINE
  5
174
100
AcDbEntity
  8
0
 62
256
370
13
 48
1.0
  6
BYLAYER
100
AcDbLine
 10
14.9000000000000128
 20
251.5
 30
0.0
 11
7.6000000000000156
 21
251.5
 31
0.0
  0
LINE
  5
175
100
AcDbEntity
  8
0
 62
256
370
13
 48
1.0
  6
BYLAYER
100
AcDbLine
 10
46.9000000000000199
 20
251.5
 30
0.0
 11
39.6000000000000227
 21
251.5
 31
0.0
  0
LINE
  5
176
100
AcDbEntity
  8
0
 62
256
370
13
 48
1.0
  6
BYLAYER
100
AcDbLine
 10
78.9000000000000057
 20
219.5
 30
0.0
 11
71.5999999999999943
 21
219.5
 31
0.0
  0
LINE
  5
177
100
AcDbEntity
  8
0
 62
256
370
13
 48
1.0
  6
BYLAYER
100
AcDbLine
 10
110.9000000000000057
 20
219.5
 30
0.0
 11
103.6000000000000227
 21
219.5
 31
0.0
  0
LINE
  5
178
100
AcDbEntity
  8
0
 62
256
370
13
 48
1.0
  6
BYLAYER
100
AcDbLine
 10
78.9000000000000057
 20
251.5
 30
0.0
 11
71.5999999999999943
 21
251.5
 31
0.0
  0
LINE
  5
179
100
AcDbEntity
  8
0
 62
256
370
13
 48
1.0
  6
BYLAYER
100
AcDbLine
 10
110.9000000000000057
 20
251.5
 30
0.0
 11
103.6000000000000227
 21
251.5
 31
0.0
  0
LINE
  5
17A
100
AcDbEntity
  8
0
 62
256
370
13
 48
1.0
  6
BYLAYER
100
AcDbLine
 10
2.5
 20
15.1000000000000014
 30
0.0
 11
2.5
 21
22.4000000000000057
 31
0.0
  0
LINE
  5
17B
100
AcDbEntity
  8
0
 62
256
370
13
 48
1.0
  6
BYLAYER
100
AcDbLine
 10
34.5000000000000071
 20
15.1000000000000014
 30
0.0
 11
34.5
 21
22.4000000000000057
 31
0.0
  0
LINE
  5
17C
100
AcDbEntity
  8
0
 62
256
370
13
 48
1.0
  6
BYLAYER
100
AcDbLine
 10
2.5
 20
47.0999999999999943
 30
0.0
 11
2.5
 21
54.4000000000000057
 31
0.0
  0
LINE
  5
17D
100
AcDbEntity
  8
0
 62
256
370
13
 48
1.0
  6
BYLAYER
100
AcDbLine
 10
34.5000000000000071
 20
47.0999999999999943
 30
0.0
 11
34.5
 21
54.4000000000000057
 31
0.0
  0
LINE
  5
17E
100
AcDbEntity
  8
0
 62
256
370
13
 48
1.0
  6
BYLAYER
100
AcDbLine
 10
66.5
 20
15.1000000000000014
 30
0.0
 11
66.5
 21
22.4000000000000057
 31
0.0
  0
LINE
  5
17F
100
AcDbEntity
  8
0
 62
256
370
13
 48
1.0
  6
BYLAYER
100
AcDbLine
 10
98.5
 20
15.1000000000000014
 30
0.0
 11
98.5
 21
22.4000000000000057
 31
0.0
  0
LINE
  5
180
100
AcDbEntity
  8
0
 62
256
370
13
 48
1.0
  6
BYLAYER
100
AcDbLine
 10
66.5
 20
47.0999999999999943
 30
0.0
 11
66.5
 21
54.4000000000000057
 31
0.0
  0
LINE
  5
181
100
AcDbEntity
  8
0
 62
256
370
13
 48
1.0
  6
BYLAYER
100
AcDbLine
 10
98.5
 20
47.0999999999999943
 30
0.0
 11
98.5
 21
54.4000000000000057
 31
0.0
  0
LINE
  5
182
100
AcDbEntity
  8
0
 62
256
370
13
 48
1.0
  6
BYLAYER
100
AcDbLine
 10
2.5000000000000071
 20
79.0999999999999943
 30
0.0
 11
2.5000000000000071
 21
86.4000000000000057
 31
0.0
  0
LINE
  5
183
100
AcDbEntity
  8
0
 62
256
370
13
 48
1.0
  6
BYLAYER
100
AcDbLine
 10
34.5000000000000142
 20
79.0999999999999943
 30
0.0
 11
34.5000000000000071
 21
86.4000000000000057
 31
0.0
  0
LINE
  5
184
100
AcDbEntity
  8
0
 62
256
370
13
 48
1.0
  6
BYLAYER
100
AcDbLine
 10
2.5000000000000071
 20
111.0999999999999943
 30
0.0
 11
2.5000000000000071
 21
118.4000000000000057
 31
0.0
  0
LINE
  5
185
100
AcDbEntity
  8
0
 62
256
370
13
 48
1.0
  6
BYLAYER
100
AcDbLine
 10
34.5000000000000142
 20
111.0999999999999943
 30
0.0
 11
34.5000000000000071
 21
118.4000000000000057
 31
0.0
  0
LINE
  5
186
100
AcDbEntity
  8
0
 62
256
370
13
 48
1.0
  6
BYLAYER
100
AcDbLine
 10
66.5
 20
79.0999999999999943
 30
0.0
 11
66.5
 21
86.4000000000000057
 31
0.0
  0
LINE
  5
187
100
AcDbEntity
  8
0
 62
256
370
13
 48
1.0
  6
BYLAYER
100
AcDbLine
 10
98.5
 20
79.0999999999999943
 30
0.0
 11
98.5
 21
86.4000000000000057
 31
0.0
  0
LINE
  5
188
100
AcDbEntity
  8
0
 62
256
370
13
 48
1.0
  6
BYLAYER
100
AcDbLine
 10
66.5
 20
111.0999999999999943
 30
0.0
 11
66.5
 21
118.4000000000000057
 31
0.0
  0
LINE
  5
189
100
AcDbEntity
  8
0
 62
256
370
13
 48
1.0
  6
BYLAYER
100
AcDbLine
 10
98.5
 20
111.0999999999999943
 30
0.0
 11
98.5
 21
118.4000000000000057
 31
0.0
  0
LINE
  5
18A
100
AcDbEntity
  8
0
 62
256
370
13
 48
1.0
  6
BYLAYER
100
AcDbLine
 10
2.5000000000000071
 20
143.0999999999999943
 30
0.0
 11
2.5000000000000071
 21
150.4000000000000057
 31
0.0
  0
LINE
  5
18B
100
AcDbEntity
  8
0
 62
256
370
13
 48
1.0
  6
BYLAYER
100
AcDbLine
 10
34.5000000000000142
 20
143.0999999999999943
 30
0.0
 11
34.5000000000000071
 21
150.4000000000000057
 31
0.0
  0
LINE
  5
18C
100
AcDbEntity
  8
0
 62
256
370
13
 48
1.0
  6
BYLAYER
100
AcDbLine
 10
2.5000000000000071
 20
175.0999999999999943
 30
0.0
 11
2.5000000000000071
 21
182.4000000000000057
 31
0.0
  0
LINE
  5
18D
100
AcDbEntity
  8
0
 62
256
370
13
 48
1.0
  6
BYLAYER
100
AcDbLine
 10
34.5000000000000142
 20
175.0999999999999943
 30
0.0
 11
34.5000000000000071
 21
182.4000000000000057
 31
0.0
  0
LINE
  5
18E
100
AcDbEntity
  8
0
 62
256
370
13
 48
1.0
  6
BYLAYER
100
AcDbLine
 10
66.5
 20
143.0999999999999943
 30
0.0
 11
66.5
 21
150.4000000000000057
 31
0.0
  0
LINE
  5
18F
100
AcDbEntity
  8
0
 62
256
370
13
 48
1.0
  6
BYLAYER
100
AcDbLine
 10
98.5
 20
143.0999999999999943
 30
0.0
 11
98.5
 21
150.4000000000000057
 31
0.0
  0
LINE
  5
190
100
AcDbEntity
  8
0
 62
256
370
13
 48
1.0
  6
BYLAYER
100
AcDbLine
 10
66.5
 20
175.0999999999999943
 30
0.0
 11
66.5
 21
182.4000000000000057
 31
0.0
  0
LINE
  5
191
100
AcDbEntity
  8
0
 62
256
370
13
 48
1.0
  6
BYLAYER
100
AcDbLine
 10
98.5
 20
175.0999999999999943
 30
0.0
 11
98.5
 21
182.4000000000000057
 31
0.0
  0
LINE
  5
192
100
AcDbEntity
  8
0
 62
256
370
13
 48
1.0
  6
BYLAYER
100
AcDbLine
 10
2.5000000000000142
 20
207.0999999999999943
 30
0.0
 11
2.5000000000000142
 21
214.4000000000000057
 31
0.0
  0
LINE
  5
193
100
AcDbEntity
  8
0
 62
256
370
13
 48
1.0
  6
BYLAYER
100
AcDbLine
 10
34.5000000000000213
 20
207.0999999999999943
 30
0.0
 11
34.5000000000000142
 21
214.4000000000000057
 31
0.0
  0
LINE
  5
194
100
AcDbEntity
  8
0
 62
256
370
13
 48
1.0
  6
BYLAYER
100
AcDbLine
 10
2.5000000000000142
 20
239.0999999999999943
 30
0.0
 11
2.5000000000000142
 21
246.4000000000000057
 31
0.0
  0
LINE
  5
195
100
AcDbEntity
  8
0
 62
256
370
13
 48
1.0
  6
BYLAYER
100
AcDbLine
 10
34.5000000000000213
 20
239.0999999999999943
 30
0.0
 11
34.5000000000000142
 21
246.4000000000000057
 31
0.0
  0
LINE
  5
196
100
AcDbEntity
  8
0
 62
256
370
13
 48
1.0
  6
BYLAYER
100
AcDbLine
 10
66.5
 20
207.0999999999999943
 30
0.0
 11
66.5
 21
214.4000000000000057
 31
0.0
  0
LINE
  5
197
100
AcDbEntity
  8
0
 62
256
370
13
 48
1.0
  6
BYLAYER
100
AcDbLine
 10
98.5
 20
207.0999999999999943
 30
0.0
 11
98.5
 21
214.4000000000000057
 31
0.0
  0
LINE
  5
198
100
AcDbEntity
  8
0
 62
256
370
13
 48
1.0
  6
BYLAYER
100
AcDbLine
 10
66.5
 20
239.0999999999999943
 30
0.0
 11
66.5
 21
246.4000000000000057
 31
0.0
  0
LINE
  5
199
100
AcDbEntity
  8
0
 62
256
370
13
 48
1.0
  6
BYLAYER
100
AcDbLine
 10
98.5
 20
239.0999999999999943
 30
0.0
 11
98.5
 21
246.4000000000000057
 31
0.0
  0
LINE
  5
19A
100
AcDbEntity
  8
0
 62
256
370
13
 48
1.0
  6
BYLAYER
100
AcDbLine
 10
30.0
 20
27.5
 30
0.0
 11
22.6000000000000014
 21
27.5
 31
0.0
  0
LINE
  5
19B
100
AcDbEntity
  8
0
 62
256
370
13
 48
1.0
  6
BYLAYER
100
AcDbLine
 10
62.0000000000000071
 20
27.5
 30
0.0
 11
54.6000000000000156
 21
27.5
 31
0.0
  0
LINE
  5
19C
100
AcDbEntity
  8
0
 62
256
370
13
 48
1.0
  6
BYLAYER
100
AcDbLine
 10
30.0
 20
59.5
 30
0.0
 11
22.6000000000000014
 21
59.5
 31
0.0
  0
LINE
  5
19D
100
AcDbEntity
  8
0
 62
256
370
13
 48
1.0
  6
BYLAYER
100
AcDbLine
 10
62.0000000000000071
 20
59.5
 30
0.0
 11
54.6000000000000156
 21
59.5
 31
0.0
  0
LINE
  5
19E
100
AcDbEntity
  8
0
 62
256
370
13
 48
1.0
  6
BYLAYER
100
AcDbLine
 10
94.0
 20
27.5
 30
0.0
 11
86.5999999999999943
 21
27.5
 31
0.0
  0
LINE
  5
19F
100
AcDbEntity
  8
0
 62
256
370
13
 48
1.0
  6
BYLAYER
100
AcDbLine
 10
126.0
 20
27.5
 30
0.0
 11
118.6000000000000227
 21
27.5
 31
0.0
  0
LINE
  5
1A0
100
AcDbEntity
  8
0
 62
256
370
13
 48
1.0
  6
BYLAYER
100
AcDbLine
 10
94.0
 20
59.5
 30
0.0
 11
86.5999999999999943
 21
59.5
 31
0.0
  0
LINE
  5
1A1
100
AcDbEntity
  8
0
 62
256
370
13
 48
1.0
  6
BYLAYER
100
AcDbLine
 10
126.0
 20
59.5
 30
0.0
 11
118.6000000000000227
 21
59.5
 31
0.0
  0
LINE
  5
1A2
100
AcDbEntity
  8
0
 62
256
370
13
 48
1.0
  6
BYLAYER
100
AcDbLine
 10
30.0000000000000071
 20
91.5
 30
0.0
 11
22.6000000000000085
 21
91.5
 31
0.0
  0
LINE
  5
1A3
100
AcDbEntity
  8
0
 62
256
370
13
 48
1.0
  6
BYLAYER
100
AcDbLine
 10
62.0000000000000142
 20
91.5
 30
0.0
 11
54.6000000000000227
 21
91.5
 31
0.0
  0
LINE
  5
1A4
100
AcDbEntity
  8
0
 62
256
370
13
 48
1.0
  6
BYLAYER
100
AcDbLine
 10
30.0000000000000071
 20
123.5
 30
0.0
 11
22.6000000000000085
 21
123.5
 31
0.0
  0
LINE
  5
1A5
100
AcDbEntity
  8
0
 62
256
370
13
 48
1.0
  6
BYLAYER
100
AcDbLine
 10
62.0000000000000142
 20
123.5
 30
0.0
 11
54.6000000000000227
 21
123.5
 31
0.0
  0
LINE
  5
1A6
100
AcDbEntity
  8
0
 62
256
370
13
 48
1.0
  6
BYLAYER
100
AcDbLine
 10
94.0
 20
91.5
 30
0.0
 11
86.5999999999999943
 21
91.5
 31
0.0
  0
LINE
  5
1A7
100
AcDbEntity
  8
0
 62
256
370
13
 48
1.0
  6
BYLAYER
100
AcDbLine
 10
126.0
 20
91.5
 30
0.0
 11
118.6000000000000227
 21
91.5
 31
0.0
  0
LINE
  5
1A8
100
AcDbEntity
  8
0
 62
256
370
13
 48
1.0
  6
BYLAYER
100
AcDbLine
 10
94.0
 20
123.5
 30
0.0
 11
86.5999999999999943
 21
123.5
 31
0.0
  0
LINE
  5
1A9
100
AcDbEntity
  8
0
 62
256
370
13
 48
1.0
  6
BYLAYER
100
AcDbLine
 10
126.0
 20
123.5
 30
0.0
 11
118.6000000000000227
 21
123.5
 31
0.0
  0
LINE
  5
1AA
100
AcDbEntity
  8
0
 62
256
370
13
 48
1.0
  6
BYLAYER
100
AcDbLine
 10
30.0000000000000071
 20
155.5
 30
0.0
 11
22.6000000000000085
 21
155.5
 31
0.0
  0
LINE
  5
1AB
100
AcDbEntity
  8
0
 62
256
370
13
 48
1.0
  6
BYLAYER
100
AcDbLine
 10
62.0000000000000142
 20
155.5
 30
0.0
 11
54.6000000000000227
 21
155.5
 31
0.0
  0
LINE
  5
1AC
100
AcDbEntity
  8
0
 62
256
370
13
 48
1.0
  6
BYLAYER
100
AcDbLine
 10
30.0000000000000071
 20
187.5
 30
0.0
 11
22.6000000000000085
 21
187.5
 31
0.0
  0
LINE
  5
1AD
100
AcDbEntity
  8
0
 62
256
370
13
 48
1.0
  6
BYLAYER
100
AcDbLine
 10
62.0000000000000142
 20
187.5
 30
0.0
 11
54.6000000000000227
 21
187.5
 31
0.0
  0
LINE
  5
1AE
100
AcDbEntity
  8
0
 62
256
370
13
 48
1.0
  6
BYLAYER
100
AcDbLine
 10
94.0
 20
155.5
 30
0.0
 11
86.5999999999999943
 21
155.5
 31
0.0
  0
LINE
  5
1AF
100
AcDbEntity
  8
0
 62
256
370
13
 48
1.0
  6
BYLAYER
100
AcDbLine
 10
126.0
 20
155.5
 30
0.0
 11
118.6000000000000227
 21
155.5
 31
0.0
  0
LINE
  5
1B0
100
AcDbEntity
  8
0
 62
256
370
13
 48
1.0
  6
BYLAYER
100
AcDbLine
 10
94.0
 20
187.5
 30
0.0
 11
86.5999999999999943
 21
187.5
 31
0.0
  0
LINE
  5
1B1
100
AcDbEntity
  8
0
 62
256
370
13
 48
1.0
  6
BYLAYER
100
AcDbLine
 10
126.0
 20
187.5
 30
0.0
 11
118.6000000000000227
 21
187.5
 31
0.0
  0
LINE
  5
1B2
100
AcDbEntity
  8
0
 62
256
370
13
 48
1.0
  6
BYLAYER
100
AcDbLine
 10
30.0000000000000142
 20
219.5
 30
0.0
 11
22.6000000000000156
 21
219.5
 31
0.0
  0
LINE
  5
1B3
100
AcDbEntity
  8
0
 62
256
370
13
 48
1.0
  6
BYLAYER
100
AcDbLine
 10
62.0000000000000213
 20
219.5
 30
0.0
 11
54.6000000000000298
 21
219.5
 31
0.0
  0
LINE
  5
1B4
100
AcDbEntity
  8
0
 62
256
370
13
 48
1.0
  6
BYLAYER
100
AcDbLine
 10
30.0000000000000142
 20
251.5
 30
0.0
 11
22.6000000000000156
 21
251.5
 31
0.0
  0
LINE
  5
1B5
100
AcDbEntity
  8
0
 62
256
370
13
 48
1.0
  6
BYLAYER
100
AcDbLine
 10
62.0000000000000213
 20
251.5
 30
0.0
 11
54.6000000000000298
 21
251.5
 31
0.0
  0
LINE
  5
1B6
100
AcDbEntity
  8
0
 62
256
370
13
 48
1.0
  6
BYLAYER
100
AcDbLine
 10
94.0
 20
219.5
 30
0.0
 11
86.5999999999999943
 21
219.5
 31
0.0
  0
LINE
  5
1B7
100
AcDbEntity
  8
0
 62
256
370
13
 48
1.0
  6
BYLAYER
100
AcDbLine
 10
126.0
 20
219.5
 30
0.0
 11
118.6000000000000227
 21
219.5
 31
0.0
  0
LINE
  5
1B8
100
AcDbEntity
  8
0
 62
256
370
13
 48
1.0
  6
BYLAYER
100
AcDbLine
 10
94.0
 20
251.5
 30
0.0
 11
86.5999999999999943
 21
251.5
 31
0.0
  0
LINE
  5
1B9
100
AcDbEntity
  8
0
 62
256
370
13
 48
1.0
  6
BYLAYER
100
AcDbLine
 10
126.0
 20
251.5
 30
0.0
 11
118.6000000000000227
 21
251.5
 31
0.0
  0
LINE
  5
1BA
100
AcDbEntity
  8
0
 62
256
370
13
 48
1.0
  6
BYLAYER
100
AcDbLine
 10
2.4999999999999716
 20
0.0
 30
0.0
 11
2.4999999999999787
 21
7.3999999999999986
 31
0.0
  0
LINE
  5
1BB
100
AcDbEntity
  8
0
 62
256
370
13
 48
1.0
  6
BYLAYER
100
AcDbLine
 10
34.4999999999999716
 20
0.0
 30
0.0
 11
34.4999999999999858
 21
7.3999999999999986
 31
0.0
  0
LINE
  5
1BC
100
AcDbEntity
  8
0
 62
256
370
13
 48
1.0
  6
BYLAYER
100
AcDbLine
 10
2.4999999999999716
 20
32.0
 30
0.0
 11
2.4999999999999787
 21
39.3999999999999915
 31
0.0
  0
LINE
  5
1BD
100
AcDbEntity
  8
0
 62
256
370
13
 48
1.0
  6
BYLAYER
100
AcDbLine
 10
34.4999999999999716
 20
32.0
 30
0.0
 11
34.4999999999999858
 21
39.3999999999999915
 31
0.0
  0
LINE
  5
1BE
100
AcDbEntity
  8
0
 62
256
370
13
 48
1.0
  6
BYLAYER
100
AcDbLine
 10
66.4999999999999716
 20
0.0
 30
0.0
 11
66.4999999999999716
 21
7.3999999999999986
 31
0.0
  0
LINE
  5
1BF
100
AcDbEntity
  8
0
 62
256
370
13
 48
1.0
  6
BYLAYER
100
AcDbLine
 10
98.4999999999999716
 20
0.0
 30
0.0
 11
98.4999999999999858
 21
7.3999999999999986
 31
0.0
  0
LINE
  5
1C0
100
AcDbEntity
  8
0
 62
256
370
13
 48
1.0
  6
BYLAYER
100
AcDbLine
 10
66.4999999999999716
 20
32.0
 30
0.0
 11
66.4999999999999716
 21
39.3999999999999915
 31
0.0
  0
LINE
  5
1C1
100
AcDbEntity
  8
0
 62
256
370
13
 48
1.0
  6
BYLAYER
100
AcDbLine
 10
98.4999999999999716
 20
32.0
 30
0.0
 11
98.4999999999999858
 21
39.3999999999999915
 31
0.0
  0
LINE
  5
1C2
100
AcDbEntity
  8
0
 62
256
370
13
 48
1.0
  6
BYLAYER
100
AcDbLine
 10
2.4999999999999787
 20
64.0
 30
0.0
 11
2.4999999999999858
 21
71.4000000000000057
 31
0.0
  0
LINE
  5
1C3
100
AcDbEntity
  8
0
 62
256
370
13
 48
1.0
  6
BYLAYER
100
AcDbLine
 10
34.4999999999999787
 20
64.0
 30
0.0
 11
34.4999999999999929
 21
71.4000000000000057
 31
0.0
  0
LINE
  5
1C4
100
AcDbEntity
  8
0
 62
256
370
13
 48
1.0
  6
BYLAYER
100
AcDbLine
 10
2.4999999999999787
 20
96.0
 30
0.0
 11
2.4999999999999858
 21
103.3999999999999915
 31
0.0
  0
LINE
  5
1C5
100
AcDbEntity
  8
0
 62
256
370
13
 48
1.0
  6
BYLAYER
100
AcDbLine
 10
34.4999999999999787
 20
96.0
 30
0.0
 11
34.4999999999999929
 21
103.3999999999999915
 31
0.0
  0
LINE
  5
1C6
100
AcDbEntity
  8
0
 62
256
370
13
 48
1.0
  6
BYLAYER
100
AcDbLine
 10
66.4999999999999716
 20
64.0
 30
0.0
 11
66.4999999999999716
 21
71.4000000000000057
 31
0.0
  0
LINE
  5
1C7
100
AcDbEntity
  8
0
 62
256
370
13
 48
1.0
  6
BYLAYER
100
AcDbLine
 10
98.4999999999999716
 20
64.0
 30
0.0
 11
98.5
 21
71.4000000000000057
 31
0.0
  0
LINE
  5
1C8
100
AcDbEntity
  8
0
 62
256
370
13
 48
1.0
  6
BYLAYER
100
AcDbLine
 10
66.4999999999999716
 20
96.0
 30
0.0
 11
66.4999999999999716
 21
103.3999999999999915
 31
0.0
  0
LINE
  5
1C9
100
AcDbEntity
  8
0
 62
256
370
13
 48
1.0
  6
BYLAYER
100
AcDbLine
 10
98.4999999999999716
 20
96.0
 30
0.0
 11
98.5
 21
103.3999999999999915
 31
0.0
  0
LINE
  5
1CA
100
AcDbEntity
  8
0
 62
256
370
13
 48
1.0
  6
BYLAYER
100
AcDbLine
 10
2.4999999999999787
 20
128.0
 30
0.0
 11
2.4999999999999858
 21
135.4000000000000057
 31
0.0
  0
LINE
  5
1CB
100
AcDbEntity
  8
0
 62
256
370
13
 48
1.0
  6
BYLAYER
100
AcDbLine
 10
34.4999999999999787
 20
128.0
 30
0.0
 11
34.4999999999999929
 21
135.4000000000000057
 31
0.0
  0
LINE
  5
1CC
100
AcDbEntity
  8
0
 62
256
370
13
 48
1.0
  6
BYLAYER
100
AcDbLine
 10
2.4999999999999787
 20
160.0
 30
0.0
 11
2.4999999999999858
 21
167.3999999999999773
 31
0.0
  0
LINE
  5
1CD
100
AcDbEntity
  8
0
 62
256
370
13
 48
1.0
  6
BYLAYER
100
AcDbLine
 10
34.4999999999999787
 20
160.0
 30
0.0
 11
34.4999999999999929
 21
167.3999999999999773
 31
0.0
  0
LINE
  5
1CE
100
AcDbEntity
  8
0
 62
256
370
13
 48
1.0
  6
BYLAYER
100
AcDbLine
 10
66.4999999999999716
 20
128.0
 30
0.0
 11
66.4999999999999716
 21
135.4000000000000057
 31
0.0
  0
LINE
  5
1CF
100
AcDbEntity
  8
0
 62
256
370
13
 48
1.0
  6
BYLAYER
100
AcDbLine
 10
98.4999999999999716
 20
128.0
 30
0.0
 11
98.5
 21
135.4000000000000057
 31
0.0
  0
LINE
  5
1D0
100
AcDbEntity
  8
0
 62
256
370
13
 48
1.0
  6
BYLAYER
100
AcDbLine
 10
66.4999999999999716
 20
160.0
 30
0.0
 11
66.4999999999999716
 21
167.3999999999999773
 31
0.0
  0
LINE
  5
1D1
100
AcDbEntity
  8
0
 62
256
370
13
 48
1.0
  6
BYLAYER
100
AcDbLine
 10
98.4999999999999716
 20
160.0
 30
0.0
 11
98.5
 21
167.3999999999999773
 31
0.0
  0
LINE
  5
1D2
100
AcDbEntity
  8
0
 62
256
370
13
 48
1.0
  6
BYLAYER
100
AcDbLine
 10
2.4999999999999858
 20
192.0
 30
0.0
 11
2.4999999999999929
 21
199.4000000000000057
 31
0.0
  0
LINE
  5
1D3
100
AcDbEntity
  8
0
 62
256
370
13
 48
1.0
  6
BYLAYER
100
AcDbLine
 10
34.4999999999999858
 20
192.0
 30
0.0
 11
34.5
 21
199.4000000000000057
 31
0.0
  0
LINE
  5
1D4
100
AcDbEntity
  8
0
 62
256
370
13
 48
1.0
  6
BYLAYER
100
AcDbLine
 10
2.4999999999999858
 20
224.0
 30
0.0
 11
2.4999999999999929
 21
231.3999999999999773
 31
0.0
  0
LINE
  5
1D5
100
AcDbEntity
  8
0
 62
256
370
13
 48
1.0
  6
BYLAYER
100
AcDbLine
 10
34.4999999999999858
 20
224.0
 30
0.0
 11
34.5
 21
231.3999999999999773
 31
0.0
  0
LINE
  5
1D6
100
AcDbEntity
  8
0
 62
256
370
13
 48
1.0
  6
BYLAYER
100
AcDbLine
 10
66.4999999999999716
 20
192.0
 30
0.0
 11
66.4999999999999716
 21
199.4000000000000057
 31
0.0
  0
LINE
  5
1D7
100
AcDbEntity
  8
0
 62
256
370
13
 48
1.0
  6
BYLAYER
100
AcDbLine
 10
98.4999999999999716
 20
192.0
 30
0.0
 11
98.5
 21
199.4000000000000057
 31
0.0
  0
LINE
  5
1D8
100
AcDbEntity
  8
0
 62
256
370
13
 48
1.0
  6
BYLAYER
100
AcDbLine
 10
66.4999999999999716
 20
224.0
 30
0.0
 11
66.4999999999999716
 21
231.3999999999999773
 31
0.0
  0
LINE
  5
1D9
100
AcDbEntity
  8
0
 62
256
370
13
 48
1.0
  6
BYLAYER
100
AcDbLine
 10
98.4999999999999716
 20
224.0
 30
0.0
 11
98.5
 21
231.3999999999999773
 31
0.0
  0
LINE
  5
1DA
100
AcDbEntity
  8
0
 62
256
370
13
 48
1.0
  6
BYLAYER
100
AcDbLine
 10
27.5
 20
15.1000000000000014
 30
0.0
 11
27.5
 21
22.4000000000000057
 31
0.0
  0
LINE
  5
1DB
100
AcDbEntity
  8
0
 62
256
370
13
 48
1.0
  6
BYLAYER
100
AcDbLine
 10
59.5000000000000071
 20
15.1000000000000014
 30
0.0
 11
59.5000000000000071
 21
22.4000000000000057
 31
0.0
  0
LINE
  5
1DC
100
AcDbEntity
  8
0
 62
256
370
13
 48
1.0
  6
BYLAYER
100
AcDbLine
 10
27.5
 20
47.0999999999999943
 30
0.0
 11
27.5
 21
54.4000000000000057
 31
0.0
  0
LINE
  5
1DD
100
AcDbEntity
  8
0
 62
256
370
13
 48
1.0
  6
BYLAYER
100
AcDbLine
 10
59.5000000000000071
 20
47.0999999999999943
 30
0.0
 11
59.5000000000000071
 21
54.4000000000000057
 31
0.0
  0
LINE
  5
1DE
100
AcDbEntity
  8
0
 62
256
370
13
 48
1.0
  6
BYLAYER
100
AcDbLine
 10
91.5
 20
15.1000000000000014
 30
0.0
 11
91.5
 21
22.4000000000000057
 31
0.0
  0
LINE
  5
1DF
100
AcDbEntity
  8
0
 62
256
370
13
 48
1.0
  6
BYLAYER
100
AcDbLine
 10
123.5
 20
15.1000000000000014
 30
0.0
 11
123.5
 21
22.4000000000000057
 31
0.0
  0
LINE
  5
1E0
100
AcDbEntity
  8
0
 62
256
370
13
 48
1.0
  6
BYLAYER
100
AcDbLine
 10
91.5
 20
47.0999999999999943
 30
0.0
 11
91.5
 21
54.4000000000000057
 31
0.0
  0
LINE
  5
1E1
100
AcDbEntity
  8
0
 62
256
370
13
 48
1.0
  6
BYLAYER
100
AcDbLine
 10
123.5
 20
47.0999999999999943
 30
0.0
 11
123.5
 21
54.4000000000000057
 31
0.0
  0
LINE
  5
1E2
100
AcDbEntity
  8
0
 62
256
370
13
 48
1.0
  6
BYLAYER
100
AcDbLine
 10
27.5000000000000071
 20
79.0999999999999943
 30
0.0
 11
27.5000000000000071
 21
86.4000000000000057
 31
0.0
  0
LINE
  5
1E3
100
AcDbEntity
  8
0
 62
256
370
13
 48
1.0
  6
BYLAYER
100
AcDbLine
 10
59.5000000000000142
 20
79.0999999999999943
 30
0.0
 11
59.5000000000000142
 21
86.4000000000000057
 31
0.0
  0
LINE
  5
1E4
100
AcDbEntity
  8
0
 62
256
370
13
 48
1.0
  6
BYLAYER
100
AcDbLine
 10
27.5000000000000071
 20
111.0999999999999943
 30
0.0
 11
27.5000000000000071
 21
118.4000000000000057
 31
0.0
  0
LINE
  5
1E5
100
AcDbEntity
  8
0
 62
256
370
13
 48
1.0
  6
BYLAYER
100
AcDbLine
 10
59.5000000000000142
 20
111.0999999999999943
 30
0.0
 11
59.5000000000000142
 21
118.4000000000000057
 31
0.0
  0
LINE
  5
1E6
100
AcDbEntity
  8
0
 62
256
370
13
 48
1.0
  6
BYLAYER
100
AcDbLine
 10
91.5
 20
79.0999999999999943
 30
0.0
 11
91.5
 21
86.4000000000000057
 31
0.0
  0
LINE
  5
1E7
100
AcDbEntity
  8
0
 62
256
370
13
 48
1.0
  6
BYLAYER
100
AcDbLine
 10
123.5
 20
79.0999999999999943
 30
0.0
 11
123.5
 21
86.4000000000000057
 31
0.0
  0
LINE
  5
1E8
100
AcDbEntity
  8
0
 62
256
370
13
 48
1.0
  6
BYLAYER
100
AcDbLine
 10
91.5
 20
111.0999999999999943
 30
0.0
 11
91.5
 21
118.4000000000000057
 31
0.0
  0
LINE
  5
1E9
100
AcDbEntity
  8
0
 62
256
370
13
 48
1.0
  6
BYLAYER
100
AcDbLine
 10
123.5
 20
111.0999999999999943
 30
0.0
 11
123.5
 21
118.4000000000000057
 31
0.0
  0
LINE
  5
1EA
100
AcDbEntity
  8
0
 62
256
370
13
 48
1.0
  6
BYLAYER
100
AcDbLine
 10
27.5000000000000071
 20
143.0999999999999943
 30
0.0
 11
27.5000000000000071
 21
150.4000000000000057
 31
0.0
  0
LINE
  5
1EB
100
AcDbEntity
  8
0
 62
256
370
13
 48
1.0
  6
BYLAYER
100
AcDbLine
 10
59.5000000000000142
 20
143.0999999999999943
 30
0.0
 11
59.5000000000000142
 21
150.4000000000000057
 31
0.0
  0
LINE
  5
1EC
100
AcDbEntity
  8
0
 62
256
370
13
 48
1.0
  6
BYLAYER
100
AcDbLine
 10
27.5000000000000071
 20
175.0999999999999943
 30
0.0
 11
27.5000000000000071
 21
182.4000000000000057
 31
0.0
  0
LINE
  5
1ED
100
AcDbEntity
  8
0
 62
256
370
13
 48
1.0
  6
BYLAYER
100
AcDbLine
 10
59.5000000000000142
 20
175.0999999999999943
 30
0.0
 11
59.5000000000000142
 21
182.4000000000000057
 31
0.0
  0
LINE
  5
1EE
100
AcDbEntity
  8
0
 62
256
370
13
 48
1.0
  6
BYLAYER
100
AcDbLine
 10
91.5
 20
143.0999999999999943
 30
0.0
 11
91.5
 21
150.4000000000000057
 31
0.0
  0
LINE
  5
1EF
100
AcDbEntity
  8
0
 62
256
370
13
 48
1.0
  6
BYLAYER
100
AcDbLine
 10
123.5
 20
143.0999999999999943
 30
0.0
 11
123.5
 21
150.4000000000000057
 31
0.0
  0
LINE
  5
1F0
100
AcDbEntity
  8
0
 62
256
370
13
 48
1.0
  6
BYLAYER
100
AcDbLine
 10
91.5
 20
175.0999999999999943
 30
0.0
 11
91.5
 21
182.4000000000000057
 31
0.0
  0
LINE
  5
1F1
100
AcDbEntity
  8
0
 62
256
370
13
 48
1.0
  6
BYLAYER
100
AcDbLine
 10
123.5
 20
175.0999999999999943
 30
0.0
 11
123.5
 21
182.4000000000000057
 31
0.0
  0
LINE
  5
1F2
100
AcDbEntity
  8
0
 62
256
370
13
 48
1.0
  6
BYLAYER
100
AcDbLine
 10
27.5000000000000142
 20
207.0999999999999943
 30
0.0
 11
27.5000000000000142
 21
214.4000000000000057
 31
0.0
  0
LINE
  5
1F3
100
AcDbEntity
  8
0
 62
256
370
13
 48
1.0
  6
BYLAYER
100
AcDbLine
 10
59.5000000000000213
 20
207.0999999999999943
 30
0.0
 11
59.5000000000000213
 21
214.4000000000000057
 31
0.0
  0
LINE
  5
1F4
100
AcDbEntity
  8
0
 62
256
370
13
 48
1.0
  6
BYLAYER
100
AcDbLine
 10
27.5000000000000142
 20
239.0999999999999943
 30
0.0
 11
27.5000000000000142
 21
246.4000000000000057
 31
0.0
  0
LINE
  5
1F5
100
AcDbEntity
  8
0
 62
256
370
13
 48
1.0
  6
BYLAYER
100
AcDbLine
 10
59.5000000000000213
 20
239.0999999999999943
 30
0.0
 11
59.5000000000000213
 21
246.4000000000000057
 31
0.0
  0
LINE
  5
1F6
100
AcDbEntity
  8
0
 62
256
370
13
 48
1.0
  6
BYLAYER
100
AcDbLine
 10
91.5
 20
207.0999999999999943
 30
0.0
 11
91.5
 21
214.4000000000000057
 31
0.0
  0
LINE
  5
1F7
100
AcDbEntity
  8
0
 62
256
370
13
 48
1.0
  6
BYLAYER
100
AcDbLine
 10
123.5
 20
207.0999999999999943
 30
0.0
 11
123.5
 21
214.4000000000000057
 31
0.0
  0
LINE
  5
1F8
100
AcDbEntity
  8
0
 62
256
370
13
 48
1.0
  6
BYLAYER
100
AcDbLine
 10
91.5
 20
239.0999999999999943
 30
0.0
 11
91.5
 21
246.4000000000000057
 31
0.0
  0
LINE
  5
1F9
100
AcDbEntity
  8
0
 62
256
370
13
 48
1.0
  6
BYLAYER
100
AcDbLine
 10
123.5
 20
239.0999999999999943
 30
0.0
 11
123.5
 21
246.4000000000000057
 31
0.0
  0
LINE
  5
1FA
100
AcDbEntity
  8
0
 62
256
370
13
 48
1.0
  6
BYLAYER
100
AcDbLine
 10
14.8999999999999915
 20
2.5
 30
0.0
 11
7.6000000000000085
 21
2.5
 31
0.0
  0
LINE
  5
1FB
100
AcDbEntity
  8
0
 62
256
370
13
 48
1.0
  6
BYLAYER
100
AcDbLine
 10
46.8999999999999986
 20
2.4999999999999929
 30
0.0
 11
39.6000000000000156
 21
2.5
 31
0.0
  0
LINE
  5
1FC
100
AcDbEntity
  8
0
 62
256
370
13
 48
1.0
  6
BYLAYER
100
AcDbLine
 10
14.8999999999999915
 20
34.5
 30
0.0
 11
7.6000000000000085
 21
34.5
 31
0.0
  0
LINE
  5
1FD
100
AcDbEntity
  8
0
 62
256
370
13
 48
1.0
  6
BYLAYER
100
AcDbLine
 10
46.8999999999999986
 20
34.4999999999999858
 30
0.0
 11
39.6000000000000156
 21
34.5
 31
0.0
  0
LINE
  5
1FE
100
AcDbEntity
  8
0
 62
256
370
13
 48
1.0
  6
BYLAYER
100
AcDbLine
 10
78.8999999999999915
 20
2.5
 30
0.0
 11
71.6000000000000085
 21
2.5
 31
0.0
  0
LINE
  5
1FF
100
AcDbEntity
  8
0
 62
256
370
13
 48
1.0
  6
BYLAYER
100
AcDbLine
 10
110.9000000000000057
 20
2.4999999999999929
 30
0.0
 11
103.6000000000000227
 21
2.5
 31
0.0
  0
LINE
  5
200
100
AcDbEntity
  8
0
 62
256
370
13
 48
1.0
  6
BYLAYER
100
AcDbLine
 10
78.8999999999999915
 20
34.5
 30
0.0
 11
71.6000000000000085
 21
34.5
 31
0.0
  0
LINE
  5
201
100
AcDbEntity
  8
0
 62
256
370
13
 48
1.0
  6
BYLAYER
100
AcDbLine
 10
110.9000000000000057
 20
34.4999999999999858
 30
0.0
 11
103.6000000000000227
 21
34.5
 31
0.0
  0
LINE
  5
202
100
AcDbEntity
  8
0
 62
256
370
13
 48
1.0
  6
BYLAYER
100
AcDbLine
 10
14.8999999999999986
 20
66.5
 30
0.0
 11
7.6000000000000156
 21
66.5
 31
0.0
  0
LINE
  5
203
100
AcDbEntity
  8
0
 62
256
370
13
 48
1.0
  6
BYLAYER
100
AcDbLine
 10
46.9000000000000057
 20
66.5
 30
0.0
 11
39.6000000000000227
 21
66.5
 31
0.0
  0
LINE
  5
204
100
AcDbEntity
  8
0
 62
256
370
13
 48
1.0
  6
BYLAYER
100
AcDbLine
 10
14.8999999999999986
 20
98.5
 30
0.0
 11
7.6000000000000156
 21
98.5
 31
0.0
  0
LINE
  5
205
100
AcDbEntity
  8
0
 62
256
370
13
 48
1.0
  6
BYLAYER
100
AcDbLine
 10
46.9000000000000057
 20
98.4999999999999858
 30
0.0
 11
39.6000000000000227
 21
98.5
 31
0.0
  0
LINE
  5
206
100
AcDbEntity
  8
0
 62
256
370
13
 48
1.0
  6
BYLAYER
100
AcDbLine
 10
78.9000000000000057
 20
66.5
 30
0.0
 11
71.6000000000000227
 21
66.5
 31
0.0
  0
LINE
  5
207
100
AcDbEntity
  8
0
 62
256
370
13
 48
1.0
  6
BYLAYER
100
AcDbLine
 10
110.9000000000000057
 20
66.5
 30
0.0
 11
103.6000000000000227
 21
66.5
 31
0.0
  0
LINE
  5
208
100
AcDbEntity
  8
0
 62
256
370
13
 48
1.0
  6
BYLAYER
100
AcDbLine
 10
78.9000000000000057
 20
98.5
 30
0.0
 11
71.6000000000000227
 21
98.5
 31
0.0
  0
LINE
  5
209
100
AcDbEntity
  8
0
 62
256
370
13
 48
1.0
  6
BYLAYER
100
AcDbLine
 10
110.9000000000000057
 20
98.4999999999999858
 30
0.0
 11
103.6000000000000227
 21
98.5
 31
0.0
  0
LINE
  5
20A
100
AcDbEntity
  8
0
 62
256
370
13
 48
1.0
  6
BYLAYER
100
AcDbLine
 10
14.8999999999999986
 20
130.5
 30
0.0
 11
7.6000000000000156
 21
130.5
 31
0.0
  0
LINE
  5
20B
100
AcDbEntity
  8
0
 62
256
370
13
 48
1.0
  6
BYLAYER
100
AcDbLine
 10
46.9000000000000057
 20
130.5
 30
0.0
 11
39.6000000000000227
 21
130.5
 31
0.0
  0
LINE
  5
20C
100
AcDbEntity
  8
0
 62
256
370
13
 48
1.0
  6
BYLAYER
100
AcDbLine
 10
14.8999999999999986
 20
162.5
 30
0.0
 11
7.6000000000000156
 21
162.5
 31
0.0
  0
LINE
  5
20D
100
AcDbEntity
  8
0
 62
256
370
13
 48
1.0
  6
BYLAYER
100
AcDbLine
 10
46.9000000000000057
 20
162.5
 30
0.0
 11
39.6000000000000227
 21
162.5
 31
0.0
  0
LINE
  5
20E
100
AcDbEntity
  8
0
 62
256
370
13
 48
1.0
  6
BYLAYER
100
AcDbLine
 10
78.9000000000000057
 20
130.5
 30
0.0
 11
71.6000000000000227
 21
130.5
 31
0.0
  0
LINE
  5
20F
100
AcDbEntity
  8
0
 62
256
370
13
 48
1.0
  6
BYLAYER
100
AcDbLine
 10
110.9000000000000057
 20
130.5
 30
0.0
 11
103.6000000000000227
 21
130.5
 31
0.0
  0
LINE
  5
210
100
AcDbEntity
  8
0
 62
256
370
13
 48
1.0
  6
BYLAYER
100
AcDbLine
 10
78.9000000000000057
 20
162.5
 30
0.0
 11
71.6000000000000227
 21
162.5
 31
0.0
  0
LINE
  5
211
100
AcDbEntity
  8
0
 62
256
370
13
 48
1.0
  6
BYLAYER
100
AcDbLine
 10
110.9000000000000057
 20
162.5
 30
0.0
 11
103.6000000000000227
 21
162.5
 31
0.0
  0
LINE
  5
212
100
AcDbEntity
  8
0
 62
256
370
13
 48
1.0
  6
BYLAYER
100
AcDbLine
 10
14.9000000000000057
 20
194.5
 30
0.0
 11
7.6000000000000227
 21
194.5
 31
0.0
  0
LINE
  5
213
100
AcDbEntity
  8
0
 62
256
370
13
 48
1.0
  6
BYLAYER
100
AcDbLine
 10
46.9000000000000128
 20
194.5
 30
0.0
 11
39.6000000000000298
 21
194.5
 31
0.0
  0
LINE
  5
214
100
AcDbEntity
  8
0
 62
256
370
13
 48
1.0
  6
BYLAYER
100
AcDbLine
 10
14.9000000000000057
 20
226.5
 30
0.0
 11
7.6000000000000227
 21
226.5
 31
0.0
  0
LINE
  5
215
100
AcDbEntity
  8
0
 62
256
370
13
 48
1.0
  6
BYLAYER
100
AcDbLine
 10
46.9000000000000128
 20
226.5
 30
0.0
 11
39.6000000000000298
 21
226.5
 31
0.0
  0
LINE
  5
216
100
AcDbEntity
  8
0
 62
256
370
13
 48
1.0
  6
BYLAYER
100
AcDbLine
 10
78.9000000000000057
 20
194.5
 30
0.0
 11
71.6000000000000227
 21
194.5
 31
0.0
  0
LINE
  5
217
100
AcDbEntity
  8
0
 62
256
370
13
 48
1.0
  6
BYLAYER
100
AcDbLine
 10
110.9000000000000057
 20
194.5
 30
0.0
 11
103.6000000000000227
 21
194.5
 31
0.0
  0
LINE
  5
218
100
AcDbEntity
  8
0
 62
256
370
13
 48
1.0
  6
BYLAYER
100
AcDbLine
 10
78.9000000000000057
 20
226.5
 30
0.0
 11
71.6000000000000227
 21
226.5
 31
0.0
  0
LINE
  5
219
100
AcDbEntity
  8
0
 62
256
370
13
 48
1.0
  6
BYLAYER
100
AcDbLine
 10
110.9000000000000057
 20
226.5
 30
0.0
 11
103.6000000000000227
 21
226.5
 31
0.0
  0
LINE
  5
21A
100
AcDbEntity
  8
0
 62
256
370
13
 48
1.0
  6
BYLAYER
100
AcDbLine
 10
27.5
 20
2.4999999999999929
 30
0.0
 11
27.5
 21
7.3999999999999986
 31
0.0
  0
LINE
  5
21B
100
AcDbEntity
  8
0
 62
256
370
13
 48
1.0
  6
BYLAYER
100
AcDbLine
 10
59.5000000000000071
 20
2.4999999999999858
 30
0.0
 11
59.5000000000000071
 21
7.3999999999999986
 31
0.0
  0
LINE
  5
21C
100
AcDbEntity
  8
0
 62
256
370
13
 48
1.0
  6
BYLAYER
100
AcDbLine
 10
27.5
 20
34.4999999999999858
 30
0.0
 11
27.5
 21
39.3999999999999915
 31
0.0
  0
LINE
  5
21D
100
AcDbEntity
  8
0
 62
256
370
13
 48
1.0
  6
BYLAYER
100
AcDbLine
 10
59.5000000000000071
 20
34.4999999999999716
 30
0.0
 11
59.5000000000000071
 21
39.3999999999999915
 31
0.0
  0
LINE
  5
21E
100
AcDbEntity
  8
0
 62
256
370
13
 48
1.0
  6
BYLAYER
100
AcDbLine
 10
91.5
 20
2.4999999999999929
 30
0.0
 11
91.5
 21
7.3999999999999986
 31
0.0
  0
LINE
  5
21F
100
AcDbEntity
  8
0
 62
256
370
13
 48
1.0
  6
BYLAYER
100
AcDbLine
 10
123.5
 20
2.4999999999999858
 30
0.0
 11
123.5
 21
7.3999999999999986
 31
0.0
  0
LINE
  5
220
100
AcDbEntity
  8
0
 62
256
370
13
 48
1.0
  6
BYLAYER
100
AcDbLine
 10
91.5
 20
34.4999999999999858
 30
0.0
 11
91.5
 21
39.3999999999999915
 31
0.0
  0
LINE
  5
221
100
AcDbEntity
  8
0
 62
256
370
13
 48
1.0
  6
BYLAYER
100
AcDbLine
 10
123.5
 20
34.4999999999999716
 30
0.0
 11
123.5
 21
39.3999999999999915
 31
0.0
  0
LINE
  5
222
100
AcDbEntity
  8
0
 62
256
370
13
 48
1.0
  6
BYLAYER
100
AcDbLine
 10
27.5000000000000071
 20
66.5
 30
0.0
 11
27.5000000000000071
 21
71.4000000000000057
 31
0.0
  0
LINE
  5
223
100
AcDbEntity
  8
0
 62
256
370
13
 48
1.0
  6
BYLAYER
100
AcDbLine
 10
59.5000000000000142
 20
66.4999999999999858
 30
0.0
 11
59.5000000000000142
 21
71.4000000000000057
 31
0.0
  0
LINE
  5
224
100
AcDbEntity
  8
0
 62
256
370
13
 48
1.0
  6
BYLAYER
100
AcDbLine
 10
27.5000000000000071
 20
98.4999999999999858
 30
0.0
 11
27.5000000000000071
 21
103.3999999999999915
 31
0.0
  0
LINE
  5
225
100
AcDbEntity
  8
0
 62
256
370
13
 48
1.0
  6
BYLAYER
100
AcDbLine
 10
59.5000000000000142
 20
98.4999999999999716
 30
0.0
 11
59.5000000000000142
 21
103.3999999999999915
 31
0.0
  0
LINE
  5
226
100
AcDbEntity
  8
0
 62
256
370
13
 48
1.0
  6
BYLAYER
100
AcDbLine
 10
91.5
 20
66.5
 30
0.0
 11
91.5
 21
71.4000000000000057
 31
0.0
  0
LINE
  5
227
100
AcDbEntity
  8
0
 62
256
370
13
 48
1.0
  6
BYLAYER
100
AcDbLine
 10
123.5
 20
66.4999999999999858
 30
0.0
 11
123.5
 21
71.4000000000000057
 31
0.0
  0
LINE
  5
228
100
AcDbEntity
  8
0
 62
256
370
13
 48
1.0
  6
BYLAYER
100
AcDbLine
 10
91.5
 20
98.4999999999999858
 30
0.0
 11
91.5
 21
103.3999999999999915
 31
0.0
  0
LINE
  5
229
100
AcDbEntity
  8
0
 62
256
370
13
 48
1.0
  6
BYLAYER
100
AcDbLine
 10
123.5
 20
98.4999999999999716
 30
0.0
 11
123.5
 21
103.3999999999999915
 31
0.0
  0
LINE
  5
22A
100
AcDbEntity
  8
0
 62
256
370
13
 48
1.0
  6
BYLAYER
100
AcDbLine
 10
27.5000000000000071
 20
130.5
 30
0.0
 11
27.5000000000000071
 21
135.4000000000000057
 31
0.0
  0
LINE
  5
22B
100
AcDbEntity
  8
0
 62
256
370
13
 48
1.0
  6
BYLAYER
100
AcDbLine
 10
59.5000000000000142
 20
130.5
 30
0.0
 11
59.5000000000000142
 21
135.4000000000000057
 31
0.0
  0
LINE
  5
22C
100
AcDbEntity
  8
0
 62
256
370
13
 48
1.0
  6
BYLAYER
100
AcDbLine
 10
27.5000000000000071
 20
162.5
 30
0.0
 11
27.5000000000000071
 21
167.3999999999999773
 31
0.0
  0
LINE
  5
22D
100
AcDbEntity
  8
0
 62
256
370
13
 48
1.0
  6
BYLAYER
100
AcDbLine
 10
59.5000000000000142
 20
162.4999999999999716
 30
0.0
 11
59.5000000000000142
 21
167.3999999999999773
 31
0.0
  0
LINE
  5
22E
100
AcDbEntity
  8
0
 62
256
370
13
 48
1.0
  6
BYLAYER
100
AcDbLine
 10
91.5
 20
130.5
 30
0.0
 11
91.5
 21
135.4000000000000057
 31
0.0
  0
LINE
  5
22F
100
AcDbEntity
  8
0
 62
256
370
13
 48
1.0
  6
BYLAYER
100
AcDbLine
 10
123.5
 20
130.5
 30
0.0
 11
123.5
 21
135.4000000000000057
 31
0.0
  0
LINE
  5
230
100
AcDbEntity
  8
0
 62
256
370
13
 48
1.0
  6
BYLAYER
100
AcDbLine
 10
91.5
 20
162.5
 30
0.0
 11
91.5
 21
167.3999999999999773
 31
0.0
  0
LINE
  5
231
100
AcDbEntity
  8
0
 62
256
370
13
 48
1.0
  6
BYLAYER
100
AcDbLine
 10
123.5
 20
162.4999999999999716
 30
0.0
 11
123.5
 21
167.3999999999999773
 31
0.0
  0
LINE
  5
232
100
AcDbEntity
  8
0
 62
256
370
13
 48
1.0
  6
BYLAYER
100
AcDbLine
 10
27.5000000000000142
 20
194.5
 30
0.0
 11
27.5000000000000142
 21
199.4000000000000057
 31
0.0
  0
LINE
  5
233
100
AcDbEntity
  8
0
 62
256
370
13
 48
1.0
  6
BYLAYER
100
AcDbLine
 10
59.5000000000000213
 20
194.5
 30
0.0
 11
59.5000000000000213
 21
199.4000000000000057
 31
0.0
  0
LINE
  5
234
100
AcDbEntity
  8
0
 62
256
370
13
 48
1.0
  6
BYLAYER
100
AcDbLine
 10
27.5000000000000142
 20
226.5
 30
0.0
 11
27.5000000000000142
 21
231.3999999999999773
 31
0.0
  0
LINE
  5
235
100
AcDbEntity
  8
0
 62
256
370
13
 48
1.0
  6
BYLAYER
100
AcDbLine
 10
59.5000000000000213
 20
226.4999999999999716
 30
0.0
 11
59.5000000000000213
 21
231.3999999999999773
 31
0.0
  0
LINE
  5
236
100
AcDbEntity
  8
0
 62
256
370
13
 48
1.0
  6
BYLAYER
100
AcDbLine
 10
91.5
 20
194.5
 30
0.0
 11
91.5
 21
199.4000000000000057
 31
0.0
  0
LINE
  5
237
100
AcDbEntity
  8
0
 62
256
370
13
 48
1.0
  6
BYLAYER
100
AcDbLine
 10
123.5
 20
194.5
 30
0.0
 11
123.5
 21
199.4000000000000057
 31
0.0
  0
LINE
  5
238
100
AcDbEntity
  8
0
 62
256
370
13
 48
1.0
  6
BYLAYER
100
AcDbLine
 10
91.5
 20
226.5
 30
0.0
 11
91.5
 21
231.3999999999999773
 31
0.0
  0
LINE
  5
239
100
AcDbEntity
  8
0
 62
256
370
13
 48
1.0
  6
BYLAYER
100
AcDbLine
 10
123.5
 20
226.4999999999999716
 30
0.0
 11
123.5
 21
231.3999999999999773
 31
0.0
  0
LINE
  5
23A
100
AcDbEntity
  8
0
 62
256
370
13
 48
1.0
  6
BYLAYER
100
AcDbLine
 10
27.5
 20
2.4999999999999929
 30
0.0
 11
22.6000000000000014
 21
2.5
 31
0.0
  0
LINE
  5
23B
100
AcDbEntity
  8
0
 62
256
370
13
 48
1.0
  6
BYLAYER
100
AcDbLine
 10
59.5000000000000071
 20
2.4999999999999858
 30
0.0
 11
54.6000000000000156
 21
2.5
 31
0.0
  0
LINE
  5
23C
100
AcDbEntity
  8
0
 62
256
370
13
 48
1.0
  6
BYLAYER
100
AcDbLine
 10
27.5
 20
34.4999999999999858
 30
0.0
 11
22.6000000000000014
 21
34.5
 31
0.0
  0
LINE
  5
23D
100
AcDbEntity
  8
0
 62
256
370
13
 48
1.0
  6
BYLAYER
100
AcDbLine
 10
59.5000000000000071
 20
34.4999999999999716
 30
0.0
 11
54.6000000000000156
 21
34.5
 31
0.0
  0
LINE
  5
23E
100
AcDbEntity
  8
0
 62
256
370
13
 48
1.0
  6
BYLAYER
100
AcDbLine
 10
91.5
 20
2.4999999999999929
 30
0.0
 11
86.5999999999999943
 21
2.5
 31
0.0
  0
LINE
  5
23F
100
AcDbEntity
  8
0
 62
256
370
13
 48
1.0
  6
BYLAYER
100
AcDbLine
 10
123.5
 20
2.4999999999999858
 30
0.0
 11
118.6000000000000227
 21
2.5
 31
0.0
  0
LINE
  5
240
100
AcDbEntity
  8
0
 62
256
370
13
 48
1.0
  6
BYLAYER
100
AcDbLine
 10
91.5
 20
34.4999999999999858
 30
0.0
 11
86.5999999999999943
 21
34.5
 31
0.0
  0
LINE
  5
241
100
AcDbEntity
  8
0
 62
256
370
13
 48
1.0
  6
BYLAYER
100
AcDbLine
 10
123.5
 20
34.4999999999999716
 30
0.0
 11
118.6000000000000227
 21
34.5
 31
0.0
  0
LINE
  5
242
100
AcDbEntity
  8
0
 62
256
370
13
 48
1.0
  6
BYLAYER
100
AcDbLine
 10
27.5000000000000071
 20
66.5
 30
0.0
 11
22.6000000000000085
 21
66.5
 31
0.0
  0
LINE
  5
243
100
AcDbEntity
  8
0
 62
256
370
13
 48
1.0
  6
BYLAYER
100
AcDbLine
 10
59.5000000000000142
 20
66.4999999999999858
 30
0.0
 11
54.6000000000000227
 21
66.5
 31
0.0
  0
LINE
  5
244
100
AcDbEntity
  8
0
 62
256
370
13
 48
1.0
  6
BYLAYER
100
AcDbLine
 10
27.5000000000000071
 20
98.4999999999999858
 30
0.0
 11
22.6000000000000085
 21
98.5
 31
0.0
  0
LINE
  5
245
100
AcDbEntity
  8
0
 62
256
370
13
 48
1.0
  6
BYLAYER
100
AcDbLine
 10
59.5000000000000142
 20
98.4999999999999716
 30
0.0
 11
54.6000000000000227
 21
98.5
 31
0.0
  0
LINE
  5
246
100
AcDbEntity
  8
0
 62
256
370
13
 48
1.0
  6
BYLAYER
100
AcDbLine
 10
91.5
 20
66.5
 30
0.0
 11
86.5999999999999943
 21
66.5
 31
0.0
  0
LINE
  5
247
100
AcDbEntity
  8
0
 62
256
370
13
 48
1.0
  6
BYLAYER
100
AcDbLine
 10
123.5
 20
66.4999999999999858
 30
0.0
 11
118.6000000000000227
 21
66.5
 31
0.0
  0
LINE
  5
248
100
AcDbEntity
  8
0
 62
256
370
13
 48
1.0
  6
BYLAYER
100
AcDbLine
 10
91.5
 20
98.4999999999999858
 30
0.0
 11
86.5999999999999943
 21
98.5
 31
0.0
  0
LINE
  5
249
100
AcDbEntity
  8
0
 62
256
370
13
 48
1.0
  6
BYLAYER
100
AcDbLine
 10
123.5
 20
98.4999999999999716
 30
0.0
 11
118.6000000000000227
 21
98.5
 31
0.0
  0
LINE
  5
24A
100
AcDbEntity
  8
0
 62
256
370
13
 48
1.0
  6
BYLAYER
100
AcDbLine
 10
27.5000000000000071
 20
130.5
 30
0.0
 11
22.6000000000000085
 21
130.5
 31
0.0
  0
LINE
  5
24B
100
AcDbEntity
  8
0
 62
256
370
13
 48
1.0
  6
BYLAYER
100
AcDbLine
 10
59.5000000000000142
 20
130.5
 30
0.0
 11
54.6000000000000227
 21
130.5
 31
0.0
  0
LINE
  5
24C
100
AcDbEntity
  8
0
 62
256
370
13
 48
1.0
  6
BYLAYER
100
AcDbLine
 10
27.5000000000000071
 20
162.5
 30
0.0
 11
22.6000000000000085
 21
162.5
 31
0.0
  0
LINE
  5
24D
100
AcDbEntity
  8
0
 62
256
370
13
 48
1.0
  6
BYLAYER
100
AcDbLine
 10
59.5000000000000142
 20
162.4999999999999716
 30
0.0
 11
54.6000000000000227
 21
162.5
 31
0.0
  0
LINE
  5
24E
100
AcDbEntity
  8
0
 62
256
370
13
 48
1.0
  6
BYLAYER
100
AcDbLine
 10
91.5
 20
130.5
 30
0.0
 11
86.5999999999999943
 21
130.5
 31
0.0
  0
LINE
  5
24F
100
AcDbEntity
  8
0
 62
256
370
13
 48
1.0
  6
BYLAYER
100
AcDbLine
 10
123.5
 20
130.5
 30
0.0
 11
118.6000000000000227
 21
130.5
 31
0.0
  0
LINE
  5
250
100
AcDbEntity
  8
0
 62
256
370
13
 48
1.0
  6
BYLAYER
100
AcDbLine
 10
91.5
 20
162.5
 30
0.0
 11
86.5999999999999943
 21
162.5
 31
0.0
  0
LINE
  5
251
100
AcDbEntity
  8
0
 62
256
370
13
 48
1.0
  6
BYLAYER
100
AcDbLine
 10
123.5
 20
162.4999999999999716
 30
0.0
 11
118.6000000000000227
 21
162.5
 31
0.0
  0
LINE
  5
252
100
AcDbEntity
  8
0
 62
256
370
13
 48
1.0
  6
BYLAYER
100
AcDbLine
 10
27.5000000000000142
 20
194.5
 30
0.0
 11
22.6000000000000156
 21
194.5
 31
0.0
  0
LINE
  5
253
100
AcDbEntity
  8
0
 62
256
370
13
 48
1.0
  6
BYLAYER
100
AcDbLine
 10
59.5000000000000213
 20
194.5
 30
0.0
 11
54.6000000000000298
 21
194.5
 31
0.0
  0
LINE
  5
254
100
AcDbEntity
  8
0
 62
256
370
13
 48
1.0
  6
BYLAYER
100
AcDbLine
 10
27.5000000000000142
 20
226.5
 30
0.0
 11
22.6000000000000156
 21
226.5
 31
0.0
  0
LINE
  5
255
100
AcDbEntity
  8
0
 62
256
370
13
 48
1.0
  6
BYLAYER
100
AcDbLine
 10
59.5000000000000213
 20
226.4999999999999716
 30
0.0
 11
54.6000000000000298
 21
226.5
 31
0.0
  0
LINE
  5
256
100
AcDbEntity
  8
0
 62
256
370
13
 48
1.0
  6
BYLAYER
100
AcDbLine
 10
91.5
 20
194.5
 30
0.0
 11
86.5999999999999943
 21
194.5
 31
0.0
  0
LINE
  5
257
100
AcDbEntity
  8
0
 62
256
370
13
 48
1.0
  6
BYLAYER
100
AcDbLine
 10
123.5
 20
194.5
 30
0.0
 11
118.6000000000000227
 21
194.5
 31
0.0
  0
LINE
  5
258
100
AcDbEntity
  8
0
 62
256
370
13
 48
1.0
  6
BYLAYER
100
AcDbLine
 10
91.5
 20
226.5
 30
0.0
 11
86.5999999999999943
 21
226.5
 31
0.0
  0
LINE
  5
259
100
AcDbEntity
  8
0
 62
256
370
13
 48
1.0
  6
BYLAYER
100
AcDbLine
 10
123.5
 20
226.4999999999999716
 30
0.0
 11
118.6000000000000227
 21
226.5
 31
0.0
  0
LINE
  5
25A
100
AcDbEntity
  8
0
 62
256
370
13
 48
1.0
  6
BYLAYER
100
AcDbLine
 10
7.6000000000000014
 20
30.0
 30
0.0
 11
7.6000000000000014
 21
27.5
 31
0.0
  0
LINE
  5
25B
100
AcDbEntity
  8
0
 62
256
370
13
 48
1.0
  6
BYLAYER
100
AcDbLine
 10
39.6000000000000085
 20
30.0
 30
0.0
 11
39.6000000000000085
 21
27.5
 31
0.0
  0
LINE
  5
25C
100
AcDbEntity
  8
0
 62
256
370
13
 48
1.0
  6
BYLAYER
100
AcDbLine
 10
7.6000000000000014
 20
62.0
 30
0.0
 11
7.6000000000000014
 21
59.5
 31
0.0
  0
LINE
  5
25D
100
AcDbEntity
  8
0
 62
256
370
13
 48
1.0
  6
BYLAYER
100
AcDbLine
 10
39.6000000000000085
 20
62.0
 30
0.0
 11
39.6000000000000085
 21
59.5
 31
0.0
  0
LINE
  5
25E
100
AcDbEntity
  8
0
 62
256
370
13
 48
1.0
  6
BYLAYER
100
AcDbLine
 10
71.5999999999999943
 20
30.0
 30
0.0
 11
71.5999999999999943
 21
27.5
 31
0.0
  0
LINE
  5
25F
100
AcDbEntity
  8
0
 62
256
370
13
 48
1.0
  6
BYLAYER
100
AcDbLine
 10
103.6000000000000085
 20
30.0
 30
0.0
 11
103.6000000000000085
 21
27.5
 31
0.0
  0
LINE
  5
260
100
AcDbEntity
  8
0
 62
256
370
13
 48
1.0
  6
BYLAYER
100
AcDbLine
 10
71.5999999999999943
 20
62.0
 30
0.0
 11
71.5999999999999943
 21
59.5
 31
0.0
  0
LINE
  5
261
100
AcDbEntity
  8
0
 62
256
370
13
 48
1.0
  6
BYLAYER
100
AcDbLine
 10
103.6000000000000085
 20
62.0
 30
0.0
 11
103.6000000000000085
 21
59.5
 31
0.0
  0
LINE
  5
262
100
AcDbEntity
  8
0
 62
256
370
13
 48
1.0
  6
BYLAYER
100
AcDbLine
 10
7.6000000000000085
 20
94.0
 30
0.0
 11
7.6000000000000085
 21
91.5
 31
0.0
  0
LINE
  5
263
100
AcDbEntity
  8
0
 62
256
370
13
 48
1.0
  6
BYLAYER
100
AcDbLine
 10
39.6000000000000156
 20
94.0
 30
0.0
 11
39.6000000000000156
 21
91.5
 31
0.0
  0
LINE
  5
264
100
AcDbEntity
  8
0
 62
256
370
13
 48
1.0
  6
BYLAYER
100
AcDbLine
 10
7.6000000000000085
 20
126.0
 30
0.0
 11
7.6000000000000085
 21
123.5
 31
0.0
  0
LINE
  5
265
100
AcDbEntity
  8
0
 62
256
370
13
 48
1.0
  6
BYLAYER
100
AcDbLine
 10
39.6000000000000156
 20
126.0
 30
0.0
 11
39.6000000000000156
 21
123.5
 31
0.0
  0
LINE
  5
266
100
AcDbEntity
  8
0
 62
256
370
13
 48
1.0
  6
BYLAYER
100
AcDbLine
 10
71.5999999999999943
 20
94.0
 30
0.0
 11
71.5999999999999943
 21
91.5
 31
0.0
  0
LINE
  5
267
100
AcDbEntity
  8
0
 62
256
370
13
 48
1.0
  6
BYLAYER
100
AcDbLine
 10
103.6000000000000227
 20
94.0
 30
0.0
 11
103.6000000000000227
 21
91.5
 31
0.0
  0
LINE
  5
268
100
AcDbEntity
  8
0
 62
256
370
13
 48
1.0
  6
BYLAYER
100
AcDbLine
 10
71.5999999999999943
 20
126.0
 30
0.0
 11
71.5999999999999943
 21
123.5
 31
0.0
  0
LINE
  5
269
100
AcDbEntity
  8
0
 62
256
370
13
 48
1.0
  6
BYLAYER
100
AcDbLine
 10
103.6000000000000227
 20
126.0
 30
0.0
 11
103.6000000000000227
 21
123.5
 31
0.0
  0
LINE
  5
26A
100
AcDbEntity
  8
0
 62
256
370
13
 48
1.0
  6
BYLAYER
100
AcDbLine
 10
7.6000000000000085
 20
158.0
 30
0.0
 11
7.6000000000000085
 21
155.5
 31
0.0
  0
LINE
  5
26B
100
AcDbEntity
  8
0
 62
256
370
13
 48
1.0
  6
BYLAYER
100
AcDbLine
 10
39.6000000000000156
 20
158.0
 30
0.0
 11
39.6000000000000156
 21
155.5
 31
0.0
  0
LINE
  5
26C
100
AcDbEntity
  8
0
 62
256
370
13
 48
1.0
  6
BYLAYER
100
AcDbLine
 10
7.6000000000000085
 20
190.0
 30
0.0
 11
7.6000000000000085
 21
187.5
 31
0.0
  0
LINE
  5
26D
100
AcDbEntity
  8
0
 62
256
370
13
 48
1.0
  6
BYLAYER
100
AcDbLine
 10
39.6000000000000156
 20
190.0
 30
0.0
 11
39.6000000000000156
 21
187.5
 31
0.0
  0
LINE
  5
26E
100
AcDbEntity
  8
0
 62
256
370
13
 48
1.0
  6
BYLAYER
100
AcDbLine
 10
71.5999999999999943
 20
158.0
 30
0.0
 11
71.5999999999999943
 21
155.5
 31
0.0
  0
LINE
  5
26F
100
AcDbEntity
  8
0
 62
256
370
13
 48
1.0
  6
BYLAYER
100
AcDbLine
 10
103.6000000000000227
 20
158.0
 30
0.0
 11
103.6000000000000227
 21
155.5
 31
0.0
  0
LINE
  5
270
100
AcDbEntity
  8
0
 62
256
370
13
 48
1.0
  6
BYLAYER
100
AcDbLine
 10
71.5999999999999943
 20
190.0
 30
0.0
 11
71.5999999999999943
 21
187.5
 31
0.0
  0
LINE
  5
271
100
AcDbEntity
  8
0
 62
256
370
13
 48
1.0
  6
BYLAYER
100
AcDbLine
 10
103.6000000000000227
 20
190.0
 30
0.0
 11
103.6000000000000227
 21
187.5
 31
0.0
  0
LINE
  5
272
100
AcDbEntity
  8
0
 62
256
370
13
 48
1.0
  6
BYLAYER
100
AcDbLine
 10
7.6000000000000156
 20
222.0
 30
0.0
 11
7.6000000000000156
 21
219.5
 31
0.0
  0
LINE
  5
273
100
AcDbEntity
  8
0
 62
256
370
13
 48
1.0
  6
BYLAYER
100
AcDbLine
 10
39.6000000000000227
 20
222.0
 30
0.0
 11
39.6000000000000227
 21
219.5
 31
0.0
  0
LINE
  5
274
100
AcDbEntity
  8
0
 62
256
370
13
 48
1.0
  6
BYLAYER
100
AcDbLine
 10
7.6000000000000156
 20
254.0
 30
0.0
 11
7.6000000000000156
 21
251.5
 31
0.0
  0
LINE
  5
275
100
AcDbEntity
  8
0
 62
256
370
13
 48
1.0
  6
BYLAYER
100
AcDbLine
 10
39.6000000000000227
 20
254.0
 30
0.0
 11
39.6000000000000227
 21
251.5
 31
0.0
  0
LINE
  5
276
100
AcDbEntity
  8
0
 62
256
370
13
 48
1.0
  6
BYLAYER
100
AcDbLine
 10
71.5999999999999943
 20
222.0
 30
0.0
 11
71.5999999999999943
 21
219.5
 31
0.0
  0
LINE
  5
277
100
AcDbEntity
  8
0
 62
256
370
13
 48
1.0
  6
BYLAYER
100
AcDbLine
 10
103.6000000000000227
 20
222.0
 30
0.0
 11
103.6000000000000227
 21
219.5
 31
0.0
  0
LINE
  5
278
100
AcDbEntity
  8
0
 62
256
370
13
 48
1.0
  6
BYLAYER
100
AcDbLine
 10
71.5999999999999943
 20
254.0
 30
0.0
 11
71.5999999999999943
 21
251.5
 31
0.0
  0
LINE
  5
279
100
AcDbEntity
  8
0
 62
256
370
13
 48
1.0
  6
BYLAYER
100
AcDbLine
 10
103.6000000000000227
 20
254.0
 30
0.0
 11
103.6000000000000227
 21
251.5
 31
0.0
  0
LINE
  5
27A
100
AcDbEntity
  8
0
 62
256
370
13
 48
1.0
  6
BYLAYER
100
AcDbLine
 10
0.0
 20
22.4000000000000057
 30
0.0
 11
2.5
 21
22.4000000000000057
 31
0.0
  0
LINE
  5
27B
100
AcDbEntity
  8
0
 62
256
370
13
 48
1.0
  6
BYLAYER
100
AcDbLine
 10
32.0
 20
22.4000000000000057
 30
0.0
 11
34.5000000000000071
 21
22.4000000000000057
 31
0.0
  0
LINE
  5
27C
100
AcDbEntity
  8
0
 62
256
370
13
 48
1.0
  6
BYLAYER
100
AcDbLine
 10
0.0
 20
54.4000000000000057
 30
0.0
 11
2.5
 21
54.4000000000000057
 31
0.0
  0
LINE
  5
27D
100
AcDbEntity
  8
0
 62
256
370
13
 48
1.0
  6
BYLAYER
100
AcDbLine
 10
32.0
 20
54.4000000000000057
 30
0.0
 11
34.5000000000000071
 21
54.4000000000000057
 31
0.0
  0
LINE
  5
27E
100
AcDbEntity
  8
0
 62
256
370
13
 48
1.0
  6
BYLAYER
100
AcDbLine
 10
64.0
 20
22.4000000000000057
 30
0.0
 11
66.5
 21
22.4000000000000057
 31
0.0
  0
LINE
  5
27F
100
AcDbEntity
  8
0
 62
256
370
13
 48
1.0
  6
BYLAYER
100
AcDbLine
 10
96.0
 20
22.4000000000000057
 30
0.0
 11
98.5
 21
22.4000000000000057
 31
0.0
  0
LINE
  5
280
100
AcDbEntity
  8
0
 62
256
370
13
 48
1.0
  6
BYLAYER
100
AcDbLine
 10
64.0
 20
54.4000000000000057
 30
0.0
 11
66.5
 21
54.4000000000000057
 31
0.0
  0
LINE
  5
281
100
AcDbEntity
  8
0
 62
256
370
13
 48
1.0
  6
BYLAYER
100
AcDbLine
 10
96.0
 20
54.4000000000000057
 30
0.0
 11
98.5
 21
54.4000000000000057
 31
0.0
  0
LINE
  5
282
100
AcDbEntity
  8
0
 62
256
370
13
 48
1.0
  6
BYLAYER
100
AcDbLine
 10
0.0000000000000071
 20
86.4000000000000057
 30
0.0
 11
2.5000000000000071
 21
86.4000000000000057
 31
0.0
  0
LINE
  5
283
100
AcDbEntity
  8
0
 62
256
370
13
 48
1.0
  6
BYLAYER
100
AcDbLine
 10
32.0000000000000071
 20
86.4000000000000057
 30
0.0
 11
34.5000000000000142
 21
86.4000000000000057
 31
0.0
  0
LINE
  5
284
100
AcDbEntity
  8
0
 62
256
370
13
 48
1.0
  6
BYLAYER
100
AcDbLine
 10
0.0000000000000071
 20
118.4000000000000057
 30
0.0
 11
2.5000000000000071
 21
118.4000000000000057
 31
0.0
  0
LINE
  5
285
100
AcDbEntity
  8
0
 62
256
370
13
 48
1.0
  6
BYLAYER
100
AcDbLine
 10
32.0000000000000071
 20
118.4000000000000057
 30
0.0
 11
34.5000000000000142
 21
118.4000000000000057
 31
0.0
  0
LINE
  5
286
100
AcDbEntity
  8
0
 62
256
370
13
 48
1.0
  6
BYLAYER
100
AcDbLine
 10
64.0
 20
86.4000000000000057
 30
0.0
 11
66.5
 21
86.4000000000000057
 31
0.0
  0
LINE
  5
287
100
AcDbEntity
  8
0
 62
256
370
13
 48
1.0
  6
BYLAYER
100
AcDbLine
 10
96.0
 20
86.4000000000000057
 30
0.0
 11
98.5
 21
86.4000000000000057
 31
0.0
  0
LINE
  5
288
100
AcDbEntity
  8
0
 62
256
370
13
 48
1.0
  6
BYLAYER
100
AcDbLine
 10
64.0
 20
118.4000000000000057
 30
0.0
 11
66.5
 21
118.4000000000000057
 31
0.0
  0
LINE
  5
289
100
AcDbEntity
  8
0
 62
256
370
13
 48
1.0
  6
BYLAYER
100
AcDbLine
 10
96.0
 20
118.4000000000000057
 30
0.0
 11
98.5
 21
118.4000000000000057
 31
0.0
  0
LINE
  5
28A
100
AcDbEntity
  8
0
 62
256
370
13
 48
1.0
  6
BYLAYER
100
AcDbLine
 10
0.0000000000000071
 20
150.4000000000000057
 30
0.0
 11
2.5000000000000071
 21
150.4000000000000057
 31
0.0
  0
LINE
  5
28B
100
AcDbEntity
  8
0
 62
256
370
13
 48
1.0
  6
BYLAYER
100
AcDbLine
 10
32.0000000000000071
 20
150.4000000000000057
 30
0.0
 11
34.5000000000000142
 21
150.4000000000000057
 31
0.0
  0
LINE
  5
28C
100
AcDbEntity
  8
0
 62
256
370
13
 48
1.0
  6
BYLAYER
100
AcDbLine
 10
0.0000000000000071
 20
182.4000000000000057
 30
0.0
 11
2.5000000000000071
 21
182.4000000000000057
 31
0.0
  0
LINE
  5
28D
100
AcDbEntity
  8
0
 62
256
370
13
 48
1.0
  6
BYLAYER
100
AcDbLine
 10
32.0000000000000071
 20
182.4000000000000057
 30
0.0
 11
34.5000000000000142
 21
182.4000000000000057
 31
0.0
  0
LINE
  5
28E
100
AcDbEntity
  8
0
 62
256
370
13
 48
1.0
  6
BYLAYER
100
AcDbLine
 10
64.0
 20
150.4000000000000057
 30
0.0
 11
66.5
 21
150.4000000000000057
 31
0.0
  0
LINE
  5
28F
100
AcDbEntity
  8
0
 62
256
370
13
 48
1.0
  6
BYLAYER
100
AcDbLine
 10
96.0
 20
150.4000000000000057
 30
0.0
 11
98.5
 21
150.4000000000000057
 31
0.0
  0
LINE
  5
290
100
AcDbEntity
  8
0
 62
256
370
13
 48
1.0
  6
BYLAYER
100
AcDbLine
 10
64.0
 20
182.4000000000000057
 30
0.0
 11
66.5
 21
182.4000000000000057
 31
0.0
  0
LINE
  5
291
100
AcDbEntity
  8
0
 62
256
370
13
 48
1.0
  6
BYLAYER
100
AcDbLine
 10
96.0
 20
182.4000000000000057
 30
0.0
 11
98.5
 21
182.4000000000000057
 31
0.0
  0
LINE
  5
292
100
AcDbEntity
  8
0
 62
256
370
13
 48
1.0
  6
BYLAYER
100
AcDbLine
 10
0.0000000000000142
 20
214.4000000000000057
 30
0.0
 11
2.5000000000000142
 21
214.4000000000000057
 31
0.0
  0
LINE
  5
293
100
AcDbEntity
  8
0
 62
256
370
13
 48
1.0
  6
BYLAYER
100
AcDbLine
 10
32.0000000000000142
 20
214.4000000000000057
 30
0.0
 11
34.5000000000000213
 21
214.4000000000000057
 31
0.0
  0
LINE
  5
294
100
AcDbEntity
  8
0
 62
256
370
13
 48
1.0
  6
BYLAYER
100
AcDbLine
 10
0.0000000000000142
 20
246.4000000000000057
 30
0.0
 11
2.5000000000000142
 21
246.4000000000000057
 31
0.0
  0
LINE
  5
295
100
AcDbEntity
  8
0
 62
256
370
13
 48
1.0
  6
BYLAYER
100
AcDbLine
 10
32.0000000000000142
 20
246.4000000000000057
 30
0.0
 11
34.5000000000000213
 21
246.4000000000000057
 31
0.0
  0
LINE
  5
296
100
AcDbEntity
  8
0
 62
256
370
13
 48
1.0
  6
BYLAYER
100
AcDbLine
 10
64.0
 20
214.4000000000000057
 30
0.0
 11
66.5
 21
214.4000000000000057
 31
0.0
  0
LINE
  5
297
100
AcDbEntity
  8
0
 62
256
370
13
 48
1.0
  6
BYLAYER
100
AcDbLine
 10
96.0
 20
214.4000000000000057
 30
0.0
 11
98.5
 21
214.4000000000000057
 31
0.0
  0
LINE
  5
298
100
AcDbEntity
  8
0
 62
256
370
13
 48
1.0
  6
BYLAYER
100
AcDbLine
 10
64.0
 20
246.4000000000000057
 30
0.0
 11
66.5
 21
246.4000000000000057
 31
0.0
  0
LINE
  5
299
100
AcDbEntity
  8
0
 62
256
370
13
 48
1.0
  6
BYLAYER
100
AcDbLine
 10
96.0
 20
246.4000000000000057
 30
0.0
 11
98.5
 21
246.4000000000000057
 31
0.0
  0
LINE
  5
29A
100
AcDbEntity
  8
0
 62
256
370
13
 48
1.0
  6
BYLAYER
100
AcDbLine
 10
14.8999999999999986
 20
30.0
 30
0.0
 11
14.8999999999999986
 21
27.5
 31
0.0
  0
LINE
  5
29B
100
AcDbEntity
  8
0
 62
256
370
13
 48
1.0
  6
BYLAYER
100
AcDbLine
 10
46.9000000000000057
 20
30.0
 30
0.0
 11
46.9000000000000057
 21
27.5
 31
0.0
  0
LINE
  5
29C
100
AcDbEntity
  8
0
 62
256
370
13
 48
1.0
  6
BYLAYER
100
AcDbLine
 10
14.8999999999999986
 20
62.0
 30
0.0
 11
14.8999999999999986
 21
59.5
 31
0.0
  0
LINE
  5
29D
100
AcDbEntity
  8
0
 62
256
370
13
 48
1.0
  6
BYLAYER
100
AcDbLine
 10
46.9000000000000057
 20
62.0
 30
0.0
 11
46.9000000000000057
 21
59.5
 31
0.0
  0
LINE
  5
29E
100
AcDbEntity
  8
0
 62
256
370
13
 48
1.0
  6
BYLAYER
100
AcDbLine
 10
78.9000000000000057
 20
30.0
 30
0.0
 11
78.9000000000000057
 21
27.5
 31
0.0
  0
LINE
  5
29F
100
AcDbEntity
  8
0
 62
256
370
13
 48
1.0
  6
BYLAYER
100
AcDbLine
 10
110.9000000000000057
 20
30.0
 30
0.0
 11
110.9000000000000057
 21
27.5
 31
0.0
  0
LINE
  5
2A0
100
AcDbEntity
  8
0
 62
256
370
13
 48
1.0
  6
BYLAYER
100
AcDbLine
 10
78.9000000000000057
 20
62.0
 30
0.0
 11
78.9000000000000057
 21
59.5
 31
0.0
  0
LINE
  5
2A1
100
AcDbEntity
  8
0
 62
256
370
13
 48
1.0
  6
BYLAYER
100
AcDbLine
 10
110.9000000000000057
 20
62.0
 30
0.0
 11
110.9000000000000057
 21
59.5
 31
0.0
  0
LINE
  5
2A2
100
AcDbEntity
  8
0
 62
256
370
13
 48
1.0
  6
BYLAYER
100
AcDbLine
 10
14.9000000000000057
 20
94.0
 30
0.0
 11
14.9000000000000057
 21
91.5
 31
0.0
  0
LINE
  5
2A3
100
AcDbEntity
  8
0
 62
256
370
13
 48
1.0
  6
BYLAYER
100
AcDbLine
 10
46.9000000000000128
 20
94.0
 30
0.0
 11
46.9000000000000128
 21
91.5
 31
0.0
  0
LINE
  5
2A4
100
AcDbEntity
  8
0
 62
256
370
13
 48
1.0
  6
BYLAYER
100
AcDbLine
 10
14.9000000000000057
 20
126.0
 30
0.0
 11
14.9000000000000057
 21
123.5
 31
0.0
  0
LINE
  5
2A5
100
AcDbEntity
  8
0
 62
256
370
13
 48
1.0
  6
BYLAYER
100
AcDbLine
 10
46.9000000000000128
 20
126.0
 30
0.0
 11
46.9000000000000128
 21
123.5
 31
0.0
  0
LINE
  5
2A6
100
AcDbEntity
  8
0
 62
256
370
13
 48
1.0
  6
BYLAYER
100
AcDbLine
 10
78.9000000000000057
 20
94.0
 30
0.0
 11
78.9000000000000057
 21
91.5
 31
0.0
  0
LINE
  5
2A7
100
AcDbEntity
  8
0
 62
256
370
13
 48
1.0
  6
BYLAYER
100
AcDbLine
 10
110.9000000000000057
 20
94.0
 30
0.0
 11
110.9000000000000057
 21
91.5
 31
0.0
  0
LINE
  5
2A8
100
AcDbEntity
  8
0
 62
256
370
13
 48
1.0
  6
BYLAYER
100
AcDbLine
 10
78.9000000000000057
 20
126.0
 30
0.0
 11
78.9000000000000057
 21
123.5
 31
0.0
  0
LINE
  5
2A9
100
AcDbEntity
  8
0
 62
256
370
13
 48
1.0
  6
BYLAYER
100
AcDbLine
 10
110.9000000000000057
 20
126.0
 30
0.0
 11
110.9000000000000057
 21
123.5
 31
0.0
  0
LINE
  5
2AA
100
AcDbEntity
  8
0
 62
256
370
13
 48
1.0
  6
BYLAYER
100
AcDbLine
 10
14.9000000000000057
 20
158.0
 30
0.0
 11
14.9000000000000057
 21
155.5
 31
0.0
  0
LINE
  5
2AB
100
AcDbEntity
  8
0
 62
256
370
13
 48
1.0
  6
BYLAYER
100
AcDbLine
 10
46.9000000000000128
 20
158.0
 30
0.0
 11
46.9000000000000128
 21
155.5
 31
0.0
  0
LINE
  5
2AC
100
AcDbEntity
  8
0
 62
256
370
13
 48
1.0
  6
BYLAYER
100
AcDbLine
 10
14.9000000000000057
 20
190.0
 30
0.0
 11
14.9000000000000057
 21
187.5
 31
0.0
  0
LINE
  5
2AD
100
AcDbEntity
  8
0
 62
256
370
13
 48
1.0
  6
BYLAYER
100
AcDbLine
 10
46.9000000000000128
 20
190.0
 30
0.0
 11
46.9000000000000128
 21
187.5
 31
0.0
  0
LINE
  5
2AE
100
AcDbEntity
  8
0
 62
256
370
13
 48
1.0
  6
BYLAYER
100
AcDbLine
 10
78.9000000000000057
 20
158.0
 30
0.0
 11
78.9000000000000057
 21
155.5
 31
0.0
  0
LINE
  5
2AF
100
AcDbEntity
  8
0
 62
256
370
13
 48
1.0
  6
BYLAYER
100
AcDbLine
 10
110.9000000000000057
 20
158.0
 30
0.0
 11
110.9000000000000057
 21
155.5
 31
0.0
  0
LINE
  5
2B0
100
AcDbEntity
  8
0
 62
256
370
13
 48
1.0
  6
BYLAYER
100
AcDbLine
 10
78.9000000000000057
 20
190.0
 30
0.0
 11
78.9000000000000057
 21
187.5
 31
0.0
  0
LINE
  5
2B1
100
AcDbEntity
  8
0
 62
256
370
13
 48
1.0
  6
BYLAYER
100
AcDbLine
 10
110.9000000000000057
 20
190.0
 30
0.0
 11
110.9000000000000057
 21
187.5
 31
0.0
  0
LINE
  5
2B2
100
AcDbEntity
  8
0
 62
256
370
13
 48
1.0
  6
BYLAYER
100
AcDbLine
 10
14.9000000000000128
 20
222.0
 30
0.0
 11
14.9000000000000128
 21
219.5
 31
0.0
  0
LINE
  5
2B3
100
AcDbEntity
  8
0
 62
256
370
13
 48
1.0
  6
BYLAYER
100
AcDbLine
 10
46.9000000000000199
 20
222.0
 30
0.0
 11
46.9000000000000199
 21
219.5
 31
0.0
  0
LINE
  5
2B4
100
AcDbEntity
  8
0
 62
256
370
13
 48
1.0
  6
BYLAYER
100
AcDbLine
 10
14.9000000000000128
 20
254.0
 30
0.0
 11
14.9000000000000128
 21
251.5
 31
0.0
  0
LINE
  5
2B5
100
AcDbEntity
  8
0
 62
256
370
13
 48
1.0
  6
BYLAYER
100
AcDbLine
 10
46.9000000000000199
 20
254.0
 30
0.0
 11
46.9000000000000199
 21
251.5
 31
0.0
  0
LINE
  5
2B6
100
AcDbEntity
  8
0
 62
256
370
13
 48
1.0
  6
BYLAYER
100
AcDbLine
 10
78.9000000000000057
 20
222.0
 30
0.0
 11
78.9000000000000057
 21
219.5
 31
0.0
  0
LINE
  5
2B7
100
AcDbEntity
  8
0
 62
256
370
13
 48
1.0
  6
BYLAYER
100
AcDbLine
 10
110.9000000000000057
 20
222.0
 30
0.0
 11
110.9000000000000057
 21
219.5
 31
0.0
  0
LINE
  5
2B8
100
AcDbEntity
  8
0
 62
256
370
13
 48
1.0
  6
BYLAYER
100
AcDbLine
 10
78.9000000000000057
 20
254.0
 30
0.0
 11
78.9000000000000057
 21
251.5
 31
0.0
  0
LINE
  5
2B9
100
AcDbEntity
  8
0
 62
256
370
13
 48
1.0
  6
BYLAYER
100
AcDbLine
 10
110.9000000000000057
 20
254.0
 30
0.0
 11
110.9000000000000057
 21
251.5
 31
0.0
  0
LINE
  5
2BA
100
AcDbEntity
  8
0
 62
256
370
13
 48
1.0
  6
BYLAYER
100
AcDbLine
 10
-0.0000000000000071
 20
15.1000000000000014
 30
0.0
 11
2.5
 21
15.1000000000000014
 31
0.0
  0
LINE
  5
2BB
100
AcDbEntity
  8
0
 62
256
370
13
 48
1.0
  6
BYLAYER
100
AcDbLine
 10
32.0
 20
15.1000000000000014
 30
0.0
 11
34.5000000000000071
 21
15.1000000000000014
 31
0.0
  0
LINE
  5
2BC
100
AcDbEntity
  8
0
 62
256
370
13
 48
1.0
  6
BYLAYER
100
AcDbLine
 10
-0.0000000000000071
 20
47.0999999999999943
 30
0.0
 11
2.5
 21
47.0999999999999943
 31
0.0
  0
LINE
  5
2BD
100
AcDbEntity
  8
0
 62
256
370
13
 48
1.0
  6
BYLAYER
100
AcDbLine
 10
32.0
 20
47.0999999999999943
 30
0.0
 11
34.5000000000000071
 21
47.0999999999999943
 31
0.0
  0
LINE
  5
2BE
100
AcDbEntity
  8
0
 62
256
370
13
 48
1.0
  6
BYLAYER
100
AcDbLine
 10
63.9999999999999929
 20
15.1000000000000014
 30
0.0
 11
66.5
 21
15.1000000000000014
 31
0.0
  0
LINE
  5
2BF
100
AcDbEntity
  8
0
 62
256
370
13
 48
1.0
  6
BYLAYER
100
AcDbLine
 10
96.0
 20
15.1000000000000014
 30
0.0
 11
98.5
 21
15.1000000000000014
 31
0.0
  0
LINE
  5
2C0
100
AcDbEntity
  8
0
 62
256
370
13
 48
1.0
  6
BYLAYER
100
AcDbLine
 10
63.9999999999999929
 20
47.0999999999999943
 30
0.0
 11
66.5
 21
47.0999999999999943
 31
0.0
  0
LINE
  5
2C1
100
AcDbEntity
  8
0
 62
256
370
13
 48
1.0
  6
BYLAYER
100
AcDbLine
 10
96.0
 20
47.0999999999999943
 30
0.0
 11
98.5
 21
47.0999999999999943
 31
0.0
  0
LINE
  5
2C2
100
AcDbEntity
  8
0
 62
256
370
13
 48
1.0
  6
BYLAYER
100
AcDbLine
 10
0.0
 20
79.0999999999999943
 30
0.0
 11
2.5000000000000071
 21
79.0999999999999943
 31
0.0
  0
LINE
  5
2C3
100
AcDbEntity
  8
0
 62
256
370
13
 48
1.0
  6
BYLAYER
100
AcDbLine
 10
32.0000000000000071
 20
79.0999999999999943
 30
0.0
 11
34.5000000000000142
 21
79.0999999999999943
 31
0.0
  0
LINE
  5
2C4
100
AcDbEntity
  8
0
 62
256
370
13
 48
1.0
  6
BYLAYER
100
AcDbLine
 10
0.0
 20
111.0999999999999943
 30
0.0
 11
2.5000000000000071
 21
111.0999999999999943
 31
0.0
  0
LINE
  5
2C5
100
AcDbEntity
  8
0
 62
256
370
13
 48
1.0
  6
BYLAYER
100
AcDbLine
 10
32.0000000000000071
 20
111.0999999999999943
 30
0.0
 11
34.5000000000000142
 21
111.0999999999999943
 31
0.0
  0
LINE
  5
2C6
100
AcDbEntity
  8
0
 62
256
370
13
 48
1.0
  6
BYLAYER
100
AcDbLine
 10
64.0
 20
79.0999999999999943
 30
0.0
 11
66.5
 21
79.0999999999999943
 31
0.0
  0
LINE
  5
2C7
100
AcDbEntity
  8
0
 62
256
370
13
 48
1.0
  6
BYLAYER
100
AcDbLine
 10
96.0
 20
79.0999999999999943
 30
0.0
 11
98.5
 21
79.0999999999999943
 31
0.0
  0
LINE
  5
2C8
100
AcDbEntity
  8
0
 62
256
370
13
 48
1.0
  6
BYLAYER
100
AcDbLine
 10
64.0
 20
111.0999999999999943
 30
0.0
 11
66.5
 21
111.0999999999999943
 31
0.0
  0
LINE
  5
2C9
100
AcDbEntity
  8
0
 62
256
370
13
 48
1.0
  6
BYLAYER
100
AcDbLine
 10
96.0
 20
111.0999999999999943
 30
0.0
 11
98.5
 21
111.0999999999999943
 31
0.0
  0
LINE
  5
2CA
100
AcDbEntity
  8
0
 62
256
370
13
 48
1.0
  6
BYLAYER
100
AcDbLine
 10
0.0
 20
143.0999999999999943
 30
0.0
 11
2.5000000000000071
 21
143.0999999999999943
 31
0.0
  0
LINE
  5
2CB
100
AcDbEntity
  8
0
 62
256
370
13
 48
1.0
  6
BYLAYER
100
AcDbLine
 10
32.0000000000000071
 20
143.0999999999999943
 30
0.0
 11
34.5000000000000142
 21
143.0999999999999943
 31
0.0
  0
LINE
  5
2CC
100
AcDbEntity
  8
0
 62
256
370
13
 48
1.0
  6
BYLAYER
100
AcDbLine
 10
0.0
 20
175.0999999999999943
 30
0.0
 11
2.5000000000000071
 21
175.0999999999999943
 31
0.0
  0
LINE
  5
2CD
100
AcDbEntity
  8
0
 62
256
370
13
 48
1.0
  6
BYLAYER
100
AcDbLine
 10
32.0000000000000071
 20
175.0999999999999943
 30
0.0
 11
34.5000000000000142
 21
175.0999999999999943
 31
0.0
  0
LINE
  5
2CE
100
AcDbEntity
  8
0
 62
256
370
13
 48
1.0
  6
BYLAYER
100
AcDbLine
 10
64.0
 20
143.0999999999999943
 30
0.0
 11
66.5
 21
143.0999999999999943
 31
0.0
  0
LINE
  5
2CF
100
AcDbEntity
  8
0
 62
256
370
13
 48
1.0
  6
BYLAYER
100
AcDbLine
 10
96.0
 20
143.0999999999999943
 30
0.0
 11
98.5
 21
143.0999999999999943
 31
0.0
  0
LINE
  5
2D0
100
AcDbEntity
  8
0
 62
256
370
13
 48
1.0
  6
BYLAYER
100
AcDbLine
 10
64.0
 20
175.0999999999999943
 30
0.0
 11
66.5
 21
175.0999999999999943
 31
0.0
  0
LINE
  5
2D1
100
AcDbEntity
  8
0
 62
256
370
13
 48
1.0
  6
BYLAYER
100
AcDbLine
 10
96.0
 20
175.0999999999999943
 30
0.0
 11
98.5
 21
175.0999999999999943
 31
0.0
  0
LINE
  5
2D2
100
AcDbEntity
  8
0
 62
256
370
13
 48
1.0
  6
BYLAYER
100
AcDbLine
 10
0.0000000000000071
 20
207.0999999999999943
 30
0.0
 11
2.5000000000000142
 21
207.0999999999999943
 31
0.0
  0
LINE
  5
2D3
100
AcDbEntity
  8
0
 62
256
370
13
 48
1.0
  6
BYLAYER
100
AcDbLine
 10
32.0000000000000142
 20
207.0999999999999943
 30
0.0
 11
34.5000000000000213
 21
207.0999999999999943
 31
0.0
  0
LINE
  5
2D4
100
AcDbEntity
  8
0
 62
256
370
13
 48
1.0
  6
BYLAYER
100
AcDbLine
 10
0.0000000000000071
 20
239.0999999999999943
 30
0.0
 11
2.5000000000000142
 21
239.0999999999999943
 31
0.0
  0
LINE
  5
2D5
100
AcDbEntity
  8
0
 62
256
370
13
 48
1.0
  6
BYLAYER
100
AcDbLine
 10
32.0000000000000142
 20
239.0999999999999943
 30
0.0
 11
34.5000000000000213
 21
239.0999999999999943
 31
0.0
  0
LINE
  5
2D6
100
AcDbEntity
  8
0
 62
256
370
13
 48
1.0
  6
BYLAYER
100
AcDbLine
 10
64.0
 20
207.0999999999999943
 30
0.0
 11
66.5
 21
207.0999999999999943
 31
0.0
  0
LINE
  5
2D7
100
AcDbEntity
  8
0
 62
256
370
13
 48
1.0
  6
BYLAYER
100
AcDbLine
 10
96.0
 20
207.0999999999999943
 30
0.0
 11
98.5
 21
207.0999999999999943
 31
0.0
  0
LINE
  5
2D8
100
AcDbEntity
  8
0
 62
256
370
13
 48
1.0
  6
BYLAYER
100
AcDbLine
 10
64.0
 20
239.0999999999999943
 30
0.0
 11
66.5
 21
239.0999999999999943
 31
0.0
  0
LINE
  5
2D9
100
AcDbEntity
  8
0
 62
256
370
13
 48
1.0
  6
BYLAYER
100
AcDbLine
 10
96.0
 20
239.0999999999999943
 30
0.0
 11
98.5
 21
239.0999999999999943
 31
0.0
  0
LINE
  5
2DA
100
AcDbEntity
  8
0
 62
256
370
13
 48
1.0
  6
BYLAYER
100
AcDbLine
 10
22.6000000000000014
 20
30.0
 30
0.0
 11
22.6000000000000014
 21
27.5
 31
0.0
  0
LINE
  5
2DB
100
AcDbEntity
  8
0
 62
256
370
13
 48
1.0
  6
BYLAYER
100
AcDbLine
 10
54.6000000000000156
 20
30.0
 30
0.0
 11
54.6000000000000156
 21
27.5
 31
0.0
  0
LINE
  5
2DC
100
AcDbEntity
  8
0
 62
256
370
13
 48
1.0
  6
BYLAYER
100
AcDbLine
 10
22.6000000000000014
 20
62.0
 30
0.0
 11
22.6000000000000014
 21
59.5
 31
0.0
  0
LINE
  5
2DD
100
AcDbEntity
  8
0
 62
256
370
13
 48
1.0
  6
BYLAYER
100
AcDbLine
 10
54.6000000000000156
 20
62.0
 30
0.0
 11
54.6000000000000156
 21
59.5
 31
0.0
  0
LINE
  5
2DE
100
AcDbEntity
  8
0
 62
256
370
13
 48
1.0
  6
BYLAYER
100
AcDbLine
 10
86.5999999999999943
 20
30.0
 30
0.0
 11
86.5999999999999943
 21
27.5
 31
0.0
  0
LINE
  5
2DF
100
AcDbEntity
  8
0
 62
256
370
13
 48
1.0
  6
BYLAYER
100
AcDbLine
 10
118.6000000000000227
 20
30.0
 30
0.0
 11
118.6000000000000227
 21
27.5
 31
0.0
  0
LINE
  5
2E0
100
AcDbEntity
  8
0
 62
256
370
13
 48
1.0
  6
BYLAYER
100
AcDbLine
 10
86.5999999999999943
 20
62.0
 30
0.0
 11
86.5999999999999943
 21
59.5
 31
0.0
  0
LINE
  5
2E1
100
AcDbEntity
  8
0
 62
256
370
13
 48
1.0
  6
BYLAYER
100
AcDbLine
 10
118.6000000000000227
 20
62.0
 30
0.0
 11
118.6000000000000227
 21
59.5
 31
0.0
  0
LINE
  5
2E2
100
AcDbEntity
  8
0
 62
256
370
13
 48
1.0
  6
BYLAYER
100
AcDbLine
 10
22.6000000000000085
 20
94.0
 30
0.0
 11
22.6000000000000085
 21
91.5
 31
0.0
  0
LINE
  5
2E3
100
AcDbEntity
  8
0
 62
256
370
13
 48
1.0
  6
BYLAYER
100
AcDbLine
 10
54.6000000000000227
 20
94.0
 30
0.0
 11
54.6000000000000227
 21
91.5
 31
0.0
  0
LINE
  5
2E4
100
AcDbEntity
  8
0
 62
256
370
13
 48
1.0
  6
BYLAYER
100
AcDbLine
 10
22.6000000000000085
 20
126.0
 30
0.0
 11
22.6000000000000085
 21
123.5
 31
0.0
  0
LINE
  5
2E5
100
AcDbEntity
  8
0
 62
256
370
13
 48
1.0
  6
BYLAYER
100
AcDbLine
 10
54.6000000000000227
 20
126.0
 30
0.0
 11
54.6000000000000227
 21
123.5
 31
0.0
  0
LINE
  5
2E6
100
AcDbEntity
  8
0
 62
256
370
13
 48
1.0
  6
BYLAYER
100
AcDbLine
 10
86.5999999999999943
 20
94.0
 30
0.0
 11
86.5999999999999943
 21
91.5
 31
0.0
  0
LINE
  5
2E7
100
AcDbEntity
  8
0
 62
256
370
13
 48
1.0
  6
BYLAYER
100
AcDbLine
 10
118.6000000000000227
 20
94.0
 30
0.0
 11
118.6000000000000227
 21
91.5
 31
0.0
  0
LINE
  5
2E8
100
AcDbEntity
  8
0
 62
256
370
13
 48
1.0
  6
BYLAYER
100
AcDbLine
 10
86.5999999999999943
 20
126.0
 30
0.0
 11
86.5999999999999943
 21
123.5
 31
0.0
  0
LINE
  5
2E9
100
AcDbEntity
  8
0
 62
256
370
13
 48
1.0
  6
BYLAYER
100
AcDbLine
 10
118.6000000000000227
 20
126.0
 30
0.0
 11
118.6000000000000227
 21
123.5
 31
0.0
  0
LINE
  5
2EA
100
AcDbEntity
  8
0
 62
256
370
13
 48
1.0
  6
BYLAYER
100
AcDbLine
 10
22.6000000000000085
 20
158.0
 30
0.0
 11
22.6000000000000085
 21
155.5
 31
0.0
  0
LINE
  5
2EB
100
AcDbEntity
  8
0
 62
256
370
13
 48
1.0
  6
BYLAYER
100
AcDbLine
 10
54.6000000000000227
 20
158.0
 30
0.0
 11
54.6000000000000227
 21
155.5
 31
0.0
  0
LINE
  5
2EC
100
AcDbEntity
  8
0
 62
256
370
13
 48
1.0
  6
BYLAYER
100
AcDbLine
 10
22.6000000000000085
 20
190.0
 30
0.0
 11
22.6000000000000085
 21
187.5
 31
0.0
  0
LINE
  5
2ED
100
AcDbEntity
  8
0
 62
256
370
13
 48
1.0
  6
BYLAYER
100
AcDbLine
 10
54.6000000000000227
 20
190.0
 30
0.0
 11
54.6000000000000227
 21
187.5
 31
0.0
  0
LINE
  5
2EE
100
AcDbEntity
  8
0
 62
256
370
13
 48
1.0
  6
BYLAYER
100
AcDbLine
 10
86.5999999999999943
 20
158.0
 30
0.0
 11
86.5999999999999943
 21
155.5
 31
0.0
  0
LINE
  5
2EF
100
AcDbEntity
  8
0
 62
256
370
13
 48
1.0
  6
BYLAYER
100
AcDbLine
 10
118.6000000000000227
 20
158.0
 30
0.0
 11
118.6000000000000227
 21
155.5
 31
0.0
  0
LINE
  5
2F0
100
AcDbEntity
  8
0
 62
256
370
13
 48
1.0
  6
BYLAYER
100
AcDbLine
 10
86.5999999999999943
 20
190.0
 30
0.0
 11
86.5999999999999943
 21
187.5
 31
0.0
  0
LINE
  5
2F1
100
AcDbEntity
  8
0
 62
256
370
13
 48
1.0
  6
BYLAYER
100
AcDbLine
 10
118.6000000000000227
 20
190.0
 30
0.0
 11
118.6000000000000227
 21
187.5
 31
0.0
  0
LINE
  5
2F2
100
AcDbEntity
  8
0
 62
256
370
13
 48
1.0
  6
BYLAYER
100
AcDbLine
 10
22.6000000000000156
 20
222.0
 30
0.0
 11
22.6000000000000156
 21
219.5
 31
0.0
  0
LINE
  5
2F3
100
AcDbEntity
  8
0
 62
256
370
13
 48
1.0
  6
BYLAYER
100
AcDbLine
 10
54.6000000000000298
 20
222.0
 30
0.0
 11
54.6000000000000298
 21
219.5
 31
0.0
  0
LINE
  5
2F4
100
AcDbEntity
  8
0
 62
256
370
13
 48
1.0
  6
BYLAYER
100
AcDbLine
 10
22.6000000000000156
 20
254.0
 30
0.0
 11
22.6000000000000156
 21
251.5
 31
0.0
  0
LINE
  5
2F5
100
AcDbEntity
  8
0
 62
256
370
13
 48
1.0
  6
BYLAYER
100
AcDbLine
 10
54.6000000000000298
 20
254.0
 30
0.0
 11
54.6000000000000298
 21
251.5
 31
0.0
  0
LINE
  5
2F6
100
AcDbEntity
  8
0
 62
256
370
13
 48
1.0
  6
BYLAYER
100
AcDbLine
 10
86.5999999999999943
 20
222.0
 30
0.0
 11
86.5999999999999943
 21
219.5
 31
0.0
  0
LINE
  5
2F7
100
AcDbEntity
  8
0
 62
256
370
13
 48
1.0
  6
BYLAYER
100
AcDbLine
 10
118.6000000000000227
 20
222.0
 30
0.0
 11
118.6000000000000227
 21
219.5
 31
0.0
  0
LINE
  5
2F8
100
AcDbEntity
  8
0
 62
256
370
13
 48
1.0
  6
BYLAYER
100
AcDbLine
 10
86.5999999999999943
 20
254.0
 30
0.0
 11
86.5999999999999943
 21
251.5
 31
0.0
  0
LINE
  5
2F9
100
AcDbEntity
  8
0
 62
256
370
13
 48
1.0
  6
BYLAYER
100
AcDbLine
 10
118.6000000000000227
 20
254.0
 30
0.0
 11
118.6000000000000227
 21
251.5
 31
0.0
  0
LINE
  5
2FA
100
AcDbEntity
  8
0
 62
256
370
13
 48
1.0
  6
BYLAYER
100
AcDbLine
 10
-0.0000000000000071
 20
7.3999999999999986
 30
0.0
 11
2.4999999999999787
 21
7.3999999999999986
 31
0.0
  0
LINE
  5
2FB
100
AcDbEntity
  8
0
 62
256
370
13
 48
1.0
  6
BYLAYER
100
AcDbLine
 10
32.0
 20
7.3999999999999986
 30
0.0
 11
34.4999999999999858
 21
7.3999999999999986
 31
0.0
  0
LINE
  5
2FC
100
AcDbEntity
  8
0
 62
256
370
13
 48
1.0
  6
BYLAYER
100
AcDbLine
 10
-0.0000000000000071
 20
39.3999999999999915
 30
0.0
 11
2.4999999999999787
 21
39.3999999999999915
 31
0.0
  0
LINE
  5
2FD
100
AcDbEntity
  8
0
 62
256
370
13
 48
1.0
  6
BYLAYER
100
AcDbLine
 10
32.0
 20
39.3999999999999915
 30
0.0
 11
34.4999999999999858
 21
39.3999999999999915
 31
0.0
  0
LINE
  5
2FE
100
AcDbEntity
  8
0
 62
256
370
13
 48
1.0
  6
BYLAYER
100
AcDbLine
 10
63.9999999999999929
 20
7.3999999999999986
 30
0.0
 11
66.4999999999999716
 21
7.3999999999999986
 31
0.0
  0
LINE
  5
2FF
100
AcDbEntity
  8
0
 62
256
370
13
 48
1.0
  6
BYLAYER
100
AcDbLine
 10
96.0
 20
7.3999999999999986
 30
0.0
 11
98.4999999999999858
 21
7.3999999999999986
 31
0.0
  0
LINE
  5
300
100
AcDbEntity
  8
0
 62
256
370
13
 48
1.0
  6
BYLAYER
100
AcDbLine
 10
63.9999999999999929
 20
39.3999999999999915
 30
0.0
 11
66.4999999999999716
 21
39.3999999999999915
 31
0.0
  0
LINE
  5
301
100
AcDbEntity
  8
0
 62
256
370
13
 48
1.0
  6
BYLAYER
100
AcDbLine
 10
96.0
 20
39.3999999999999915
 30
0.0
 11
98.4999999999999858
 21
39.3999999999999915
 31
0.0
  0
LINE
  5
302
100
AcDbEntity
  8
0
 62
256
370
13
 48
1.0
  6
BYLAYER
100
AcDbLine
 10
0.0
 20
71.4000000000000057
 30
0.0
 11
2.4999999999999858
 21
71.4000000000000057
 31
0.0
  0
LINE
  5
303
100
AcDbEntity
  8
0
 62
256
370
13
 48
1.0
  6
BYLAYER
100
AcDbLine
 10
32.0000000000000071
 20
71.4000000000000057
 30
0.0
 11
34.4999999999999929
 21
71.4000000000000057
 31
0.0
  0
LINE
  5
304
100
AcDbEntity
  8
0
 62
256
370
13
 48
1.0
  6
BYLAYER
100
AcDbLine
 10
0.0
 20
103.3999999999999915
 30
0.0
 11
2.4999999999999858
 21
103.3999999999999915
 31
0.0
  0
LINE
  5
305
100
AcDbEntity
  8
0
 62
256
370
13
 48
1.0
  6
BYLAYER
100
AcDbLine
 10
32.0000000000000071
 20
103.3999999999999915
 30
0.0
 11
34.4999999999999929
 21
103.3999999999999915
 31
0.0
  0
LINE
  5
306
100
AcDbEntity
  8
0
 62
256
370
13
 48
1.0
  6
BYLAYER
100
AcDbLine
 10
64.0
 20
71.4000000000000057
 30
0.0
 11
66.4999999999999716
 21
71.4000000000000057
 31
0.0
  0
LINE
  5
307
100
AcDbEntity
  8
0
 62
256
370
13
 48
1.0
  6
BYLAYER
100
AcDbLine
 10
96.0
 20
71.4000000000000057
 30
0.0
 11
98.5
 21
71.4000000000000057
 31
0.0
  0
LINE
  5
308
100
AcDbEntity
  8
0
 62
256
370
13
 48
1.0
  6
BYLAYER
100
AcDbLine
 10
64.0
 20
103.3999999999999915
 30
0.0
 11
66.4999999999999716
 21
103.3999999999999915
 31
0.0
  0
LINE
  5
309
100
AcDbEntity
  8
0
 62
256
370
13
 48
1.0
  6
BYLAYER
100
AcDbLine
 10
96.0
 20
103.3999999999999915
 30
0.0
 11
98.5
 21
103.3999999999999915
 31
0.0
  0
LINE
  5
30A
100
AcDbEntity
  8
0
 62
256
370
13
 48
1.0
  6
BYLAYER
100
AcDbLine
 10
0.0
 20
135.4000000000000057
 30
0.0
 11
2.4999999999999858
 21
135.4000000000000057
 31
0.0
  0
LINE
  5
30B
100
AcDbEntity
  8
0
 62
256
370
13
 48
1.0
  6
BYLAYER
100
AcDbLine
 10
32.0000000000000071
 20
135.4000000000000057
 30
0.0
 11
34.4999999999999929
 21
135.4000000000000057
 31
0.0
  0
LINE
  5
30C
100
AcDbEntity
  8
0
 62
256
370
13
 48
1.0
  6
BYLAYER
100
AcDbLine
 10
0.0
 20
167.3999999999999773
 30
0.0
 11
2.4999999999999858
 21
167.3999999999999773
 31
0.0
  0
LINE
  5
30D
100
AcDbEntity
  8
0
 62
256
370
13
 48
1.0
  6
BYLAYER
100
AcDbLine
 10
32.0000000000000071
 20
167.3999999999999773
 30
0.0
 11
34.4999999999999929
 21
167.3999999999999773
 31
0.0
  0
LINE
  5
30E
100
AcDbEntity
  8
0
 62
256
370
13
 48
1.0
  6
BYLAYER
100
AcDbLine
 10
64.0
 20
135.4000000000000057
 30
0.0
 11
66.4999999999999716
 21
135.4000000000000057
 31
0.0
  0
LINE
  5
30F
100
AcDbEntity
  8
0
 62
256
370
13
 48
1.0
  6
BYLAYER
100
AcDbLine
 10
96.0
 20
135.4000000000000057
 30
0.0
 11
98.5
 21
135.4000000000000057
 31
0.0
  0
LINE
  5
310
100
AcDbEntity
  8
0
 62
256
370
13
 48
1.0
  6
BYLAYER
100
AcDbLine
 10
64.0
 20
167.3999999999999773
 30
0.0
 11
66.4999999999999716
 21
167.3999999999999773
 31
0.0
  0
LINE
  5
311
100
AcDbEntity
  8
0
 62
256
370
13
 48
1.0
  6
BYLAYER
100
AcDbLine
 10
96.0
 20
167.3999999999999773
 30
0.0
 11
98.5
 21
167.3999999999999773
 31
0.0
  0
LINE
  5
312
100
AcDbEntity
  8
0
 62
256
370
13
 48
1.0
  6
BYLAYER
100
AcDbLine
 10
0.0000000000000071
 20
199.4000000000000057
 30
0.0
 11
2.4999999999999929
 21
199.4000000000000057
 31
0.0
  0
LINE
  5
313
100
AcDbEntity
  8
0
 62
256
370
13
 48
1.0
  6
BYLAYER
100
AcDbLine
 10
32.0000000000000142
 20
199.4000000000000057
 30
0.0
 11
34.5
 21
199.4000000000000057
 31
0.0
  0
LINE
  5
314
100
AcDbEntity
  8
0
 62
256
370
13
 48
1.0
  6
BYLAYER
100
AcDbLine
 10
0.0000000000000071
 20
231.3999999999999773
 30
0.0
 11
2.4999999999999929
 21
231.3999999999999773
 31
0.0
  0
LINE
  5
315
100
AcDbEntity
  8
0
 62
256
370
13
 48
1.0
  6
BYLAYER
100
AcDbLine
 10
32.0000000000000142
 20
231.3999999999999773
 30
0.0
 11
34.5
 21
231.3999999999999773
 31
0.0
  0
LINE
  5
316
100
AcDbEntity
  8
0
 62
256
370
13
 48
1.0
  6
BYLAYER
100
AcDbLine
 10
64.0
 20
199.4000000000000057
 30
0.0
 11
66.4999999999999716
 21
199.4000000000000057
 31
0.0
  0
LINE
  5
317
100
AcDbEntity
  8
0
 62
256
370
13
 48
1.0
  6
BYLAYER
100
AcDbLine
 10
96.0
 20
199.4000000000000057
 30
0.0
 11
98.5
 21
199.4000000000000057
 31
0.0
  0
LINE
  5
318
100
AcDbEntity
  8
0
 62
256
370
13
 48
1.0
  6
BYLAYER
100
AcDbLine
 10
64.0
 20
231.3999999999999773
 30
0.0
 11
66.4999999999999716
 21
231.3999999999999773
 31
0.0
  0
LINE
  5
319
100
AcDbEntity
  8
0
 62
256
370
13
 48
1.0
  6
BYLAYER
100
AcDbLine
 10
96.0
 20
231.3999999999999773
 30
0.0
 11
98.5
 21
231.3999999999999773
 31
0.0
  0
LINE
  5
31A
100
AcDbEntity
  8
0
 62
256
370
13
 48
1.0
  6
BYLAYER
100
AcDbLine
 10
27.5
 20
22.4000000000000057
 30
0.0
 11
30.0
 21
22.4000000000000057
 31
0.0
  0
LINE
  5
31B
100
AcDbEntity
  8
0
 62
256
370
13
 48
1.0
  6
BYLAYER
100
AcDbLine
 10
59.5000000000000071
 20
22.4000000000000057
 30
0.0
 11
62.0000000000000071
 21
22.4000000000000057
 31
0.0
  0
LINE
  5
31C
100
AcDbEntity
  8
0
 62
256
370
13
 48
1.0
  6
BYLAYER
100
AcDbLine
 10
27.5
 20
54.4000000000000057
 30
0.0
 11
30.0
 21
54.4000000000000057
 31
0.0
  0
LINE
  5
31D
100
AcDbEntity
  8
0
 62
256
370
13
 48
1.0
  6
BYLAYER
100
AcDbLine
 10
59.5000000000000071
 20
54.4000000000000057
 30
0.0
 11
62.0000000000000071
 21
54.4000000000000057
 31
0.0
  0
LINE
  5
31E
100
AcDbEntity
  8
0
 62
256
370
13
 48
1.0
  6
BYLAYER
100
AcDbLine
 10
91.5
 20
22.4000000000000057
 30
0.0
 11
94.0
 21
22.4000000000000057
 31
0.0
  0
LINE
  5
31F
100
AcDbEntity
  8
0
 62
256
370
13
 48
1.0
  6
BYLAYER
100
AcDbLine
 10
123.5
 20
22.4000000000000057
 30
0.0
 11
126.0
 21
22.4000000000000057
 31
0.0
  0
LINE
  5
320
100
AcDbEntity
  8
0
 62
256
370
13
 48
1.0
  6
BYLAYER
100
AcDbLine
 10
91.5
 20
54.4000000000000057
 30
0.0
 11
94.0
 21
54.4000000000000057
 31
0.0
  0
LINE
  5
321
100
AcDbEntity
  8
0
 62
256
370
13
 48
1.0
  6
BYLAYER
100
AcDbLine
 10
123.5
 20
54.4000000000000057
 30
0.0
 11
126.0
 21
54.4000000000000057
 31
0.0
  0
LINE
  5
322
100
AcDbEntity
  8
0
 62
256
370
13
 48
1.0
  6
BYLAYER
100
AcDbLine
 10
27.5000000000000071
 20
86.4000000000000057
 30
0.0
 11
30.0000000000000071
 21
86.4000000000000057
 31
0.0
  0
LINE
  5
323
100
AcDbEntity
  8
0
 62
256
370
13
 48
1.0
  6
BYLAYER
100
AcDbLine
 10
59.5000000000000142
 20
86.4000000000000057
 30
0.0
 11
62.0000000000000142
 21
86.4000000000000057
 31
0.0
  0
LINE
  5
324
100
AcDbEntity
  8
0
 62
256
370
13
 48
1.0
  6
BYLAYER
100
AcDbLine
 10
27.5000000000000071
 20
118.4000000000000057
 30
0.0
 11
30.0000000000000071
 21
118.4000000000000057
 31
0.0
  0
LINE
  5
325
100
AcDbEntity
  8
0
 62
256
370
13
 48
1.0
  6
BYLAYER
100
AcDbLine
 10
59.5000000000000142
 20
118.4000000000000057
 30
0.0
 11
62.0000000000000142
 21
118.4000000000000057
 31
0.0
  0
LINE
  5
326
100
AcDbEntity
  8
0
 62
256
370
13
 48
1.0
  6
BYLAYER
100
AcDbLine
 10
91.5
 20
86.4000000000000057
 30
0.0
 11
94.0
 21
86.4000000000000057
 31
0.0
  0
LINE
  5
327
100
AcDbEntity
  8
0
 62
256
370
13
 48
1.0
  6
BYLAYER
100
AcDbLine
 10
123.5
 20
86.4000000000000057
 30
0.0
 11
126.0
 21
86.4000000000000057
 31
0.0
  0
LINE
  5
328
100
AcDbEntity
  8
0
 62
256
370
13
 48
1.0
  6
BYLAYER
100
AcDbLine
 10
91.5
 20
118.4000000000000057
 30
0.0
 11
94.0
 21
118.4000000000000057
 31
0.0
  0
LINE
  5
329
100
AcDbEntity
  8
0
 62
256
370
13
 48
1.0
  6
BYLAYER
100
AcDbLine
 10
123.5
 20
118.4000000000000057
 30
0.0
 11
126.0
 21
118.4000000000000057
 31
0.0
  0
LINE
  5
32A
100
AcDbEntity
  8
0
 62
256
370
13
 48
1.0
  6
BYLAYER
100
AcDbLine
 10
27.5000000000000071
 20
150.4000000000000057
 30
0.0
 11
30.0000000000000071
 21
150.4000000000000057
 31
0.0
  0
LINE
  5
32B
100
AcDbEntity
  8
0
 62
256
370
13
 48
1.0
  6
BYLAYER
100
AcDbLine
 10
59.5000000000000142
 20
150.4000000000000057
 30
0.0
 11
62.0000000000000142
 21
150.4000000000000057
 31
0.0
  0
LINE
  5
32C
100
AcDbEntity
  8
0
 62
256
370
13
 48
1.0
  6
BYLAYER
100
AcDbLine
 10
27.5000000000000071
 20
182.4000000000000057
 30
0.0
 11
30.0000000000000071
 21
182.4000000000000057
 31
0.0
  0
LINE
  5
32D
100
AcDbEntity
  8
0
 62
256
370
13
 48
1.0
  6
BYLAYER
100
AcDbLine
 10
59.5000000000000142
 20
182.4000000000000057
 30
0.0
 11
62.0000000000000142
 21
182.4000000000000057
 31
0.0
  0
LINE
  5
32E
100
AcDbEntity
  8
0
 62
256
370
13
 48
1.0
  6
BYLAYER
100
AcDbLine
 10
91.5
 20
150.4000000000000057
 30
0.0
 11
94.0
 21
150.4000000000000057
 31
0.0
  0
LINE
  5
32F
100
AcDbEntity
  8
0
 62
256
370
13
 48
1.0
  6
BYLAYER
100
AcDbLine
 10
123.5
 20
150.4000000000000057
 30
0.0
 11
126.0
 21
150.4000000000000057
 31
0.0
  0
LINE
  5
330
100
AcDbEntity
  8
0
 62
256
370
13
 48
1.0
  6
BYLAYER
100
AcDbLine
 10
91.5
 20
182.4000000000000057
 30
0.0
 11
94.0
 21
182.4000000000000057
 31
0.0
  0
LINE
  5
331
100
AcDbEntity
  8
0
 62
256
370
13
 48
1.0
  6
BYLAYER
100
AcDbLine
 10
123.5
 20
182.4000000000000057
 30
0.0
 11
126.0
 21
182.4000000000000057
 31
0.0
  0
LINE
  5
332
100
AcDbEntity
  8
0
 62
256
370
13
 48
1.0
  6
BYLAYER
100
AcDbLine
 10
27.5000000000000142
 20
214.4000000000000057
 30
0.0
 11
30.0000000000000142
 21
214.4000000000000057
 31
0.0
  0
LINE
  5
333
100
AcDbEntity
  8
0
 62
256
370
13
 48
1.0
  6
BYLAYER
100
AcDbLine
 10
59.5000000000000213
 20
214.4000000000000057
 30
0.0
 11
62.0000000000000213
 21
214.4000000000000057
 31
0.0
  0
LINE
  5
334
100
AcDbEntity
  8
0
 62
256
370
13
 48
1.0
  6
BYLAYER
100
AcDbLine
 10
27.5000000000000142
 20
246.4000000000000057
 30
0.0
 11
30.0000000000000142
 21
246.4000000000000057
 31
0.0
  0
LINE
  5
335
100
AcDbEntity
  8
0
 62
256
370
13
 48
1.0
  6
BYLAYER
100
AcDbLine
 10
59.5000000000000213
 20
246.4000000000000057
 30
0.0
 11
62.0000000000000213
 21
246.4000000000000057
 31
0.0
  0
LINE
  5
336
100
AcDbEntity
  8
0
 62
256
370
13
 48
1.0
  6
BYLAYER
100
AcDbLine
 10
91.5
 20
214.4000000000000057
 30
0.0
 11
94.0
 21
214.4000000000000057
 31
0.0
  0
LINE
  5
337
100
AcDbEntity
  8
0
 62
256
370
13
 48
1.0
  6
BYLAYER
100
AcDbLine
 10
123.5
 20
214.4000000000000057
 30
0.0
 11
126.0
 21
214.4000000000000057
 31
0.0
  0
LINE
  5
338
100
AcDbEntity
  8
0
 62
256
370
13
 48
1.0
  6
BYLAYER
100
AcDbLine
 10
91.5
 20
246.4000000000000057
 30
0.0
 11
94.0
 21
246.4000000000000057
 31
0.0
  0
LINE
  5
339
100
AcDbEntity
  8
0
 62
256
370
13
 48
1.0
  6
BYLAYER
100
AcDbLine
 10
123.5
 20
246.4000000000000057
 30
0.0
 11
126.0
 21
246.4000000000000057
 31
0.0
  0
LINE
  5
33A
100
AcDbEntity
  8
0
 62
256
370
13
 48
1.0
  6
BYLAYER
100
AcDbLine
 10
7.6000000000000085
 20
2.5
 30
0.0
 11
7.5999999999999872
 21
0.0
 31
0.0
  0
LINE
  5
33B
100
AcDbEntity
  8
0
 62
256
370
13
 48
1.0
  6
BYLAYER
100
AcDbLine
 10
39.6000000000000156
 20
2.5
 30
0.0
 11
39.5999999999999943
 21
-0.0000000000000071
 31
0.0
  0
LINE
  5
33C
100
AcDbEntity
  8
0
 62
256
370
13
 48
1.0
  6
BYLAYER
100
AcDbLine
 10
7.6000000000000085
 20
34.5
 30
0.0
 11
7.5999999999999872
 21
32.0
 31
0.0
  0
LINE
  5
33D
100
AcDbEntity
  8
0
 62
256
370
13
 48
1.0
  6
BYLAYER
100
AcDbLine
 10
39.6000000000000156
 20
34.5
 30
0.0
 11
39.5999999999999943
 21
31.9999999999999858
 31
0.0
  0
LINE
  5
33E
100
AcDbEntity
  8
0
 62
256
370
13
 48
1.0
  6
BYLAYER
100
AcDbLine
 10
71.6000000000000085
 20
2.5
 30
0.0
 11
71.5999999999999943
 21
0.0
 31
0.0
  0
LINE
  5
33F
100
AcDbEntity
  8
0
 62
256
370
13
 48
1.0
  6
BYLAYER
100
AcDbLine
 10
103.6000000000000227
 20
2.5
 30
0.0
 11
103.5999999999999943
 21
-0.0000000000000071
 31
0.0
  0
LINE
  5
340
100
AcDbEntity
  8
0
 62
256
370
13
 48
1.0
  6
BYLAYER
100
AcDbLine
 10
71.6000000000000085
 20
34.5
 30
0.0
 11
71.5999999999999943
 21
32.0
 31
0.0
  0
LINE
  5
341
100
AcDbEntity
  8
0
 62
256
370
13
 48
1.0
  6
BYLAYER
100
AcDbLine
 10
103.6000000000000227
 20
34.5
 30
0.0
 11
103.5999999999999943
 21
31.9999999999999858
 31
0.0
  0
LINE
  5
342
100
AcDbEntity
  8
0
 62
256
370
13
 48
1.0
  6
BYLAYER
100
AcDbLine
 10
7.6000000000000156
 20
66.5
 30
0.0
 11
7.5999999999999943
 21
64.0
 31
0.0
  0
LINE
  5
343
100
AcDbEntity
  8
0
 62
256
370
13
 48
1.0
  6
BYLAYER
100
AcDbLine
 10
39.6000000000000227
 20
66.5
 30
0.0
 11
39.6000000000000014
 21
63.9999999999999929
 31
0.0
  0
LINE
  5
344
100
AcDbEntity
  8
0
 62
256
370
13
 48
1.0
  6
BYLAYER
100
AcDbLine
 10
7.6000000000000156
 20
98.5
 30
0.0
 11
7.5999999999999943
 21
96.0
 31
0.0
  0
LINE
  5
345
100
AcDbEntity
  8
0
 62
256
370
13
 48
1.0
  6
BYLAYER
100
AcDbLine
 10
39.6000000000000227
 20
98.5
 30
0.0
 11
39.6000000000000014
 21
95.9999999999999858
 31
0.0
  0
LINE
  5
346
100
AcDbEntity
  8
0
 62
256
370
13
 48
1.0
  6
BYLAYER
100
AcDbLine
 10
71.6000000000000227
 20
66.5
 30
0.0
 11
71.5999999999999943
 21
64.0
 31
0.0
  0
LINE
  5
347
100
AcDbEntity
  8
0
 62
256
370
13
 48
1.0
  6
BYLAYER
100
AcDbLine
 10
103.6000000000000227
 20
66.5
 30
0.0
 11
103.5999999999999943
 21
63.9999999999999929
 31
0.0
  0
LINE
  5
348
100
AcDbEntity
  8
0
 62
256
370
13
 48
1.0
  6
BYLAYER
100
AcDbLine
 10
71.6000000000000227
 20
98.5
 30
0.0
 11
71.5999999999999943
 21
96.0
 31
0.0
  0
LINE
  5
349
100
AcDbEntity
  8
0
 62
256
370
13
 48
1.0
  6
BYLAYER
100
AcDbLine
 10
103.6000000000000227
 20
98.5
 30
0.0
 11
103.5999999999999943
 21
95.9999999999999858
 31
0.0
  0
LINE
  5
34A
100
AcDbEntity
  8
0
 62
256
370
13
 48
1.0
  6
BYLAYER
100
AcDbLine
 10
7.6000000000000156
 20
130.5
 30
0.0
 11
7.5999999999999943
 21
128.0
 31
0.0
  0
LINE
  5
34B
100
AcDbEntity
  8
0
 62
256
370
13
 48
1.0
  6
BYLAYER
100
AcDbLine
 10
39.6000000000000227
 20
130.5
 30
0.0
 11
39.6000000000000014
 21
128.0
 31
0.0
  0
LINE
  5
34C
100
AcDbEntity
  8
0
 62
256
370
13
 48
1.0
  6
BYLAYER
100
AcDbLine
 10
7.6000000000000156
 20
162.5
 30
0.0
 11
7.5999999999999943
 21
160.0
 31
0.0
  0
LINE
  5
34D
100
AcDbEntity
  8
0
 62
256
370
13
 48
1.0
  6
BYLAYER
100
AcDbLine
 10
39.6000000000000227
 20
162.5
 30
0.0
 11
39.6000000000000014
 21
160.0
 31
0.0
  0
LINE
  5
34E
100
AcDbEntity
  8
0
 62
256
370
13
 48
1.0
  6
BYLAYER
100
AcDbLine
 10
71.6000000000000227
 20
130.5
 30
0.0
 11
71.5999999999999943
 21
128.0
 31
0.0
  0
LINE
  5
34F
100
AcDbEntity
  8
0
 62
256
370
13
 48
1.0
  6
BYLAYER
100
AcDbLine
 10
103.6000000000000227
 20
130.5
 30
0.0
 11
103.5999999999999943
 21
128.0
 31
0.0
  0
LINE
  5
350
100
AcDbEntity
  8
0
 62
256
370
13
 48
1.0
  6
BYLAYER
100
AcDbLine
 10
71.6000000000000227
 20
162.5
 30
0.0
 11
71.5999999999999943
 21
160.0
 31
0.0
  0
LINE
  5
351
100
AcDbEntity
  8
0
 62
256
370
13
 48
1.0
  6
BYLAYER
100
AcDbLine
 10
103.6000000000000227
 20
162.5
 30
0.0
 11
103.5999999999999943
 21
160.0
 31
0.0
  0
LINE
  5
352
100
AcDbEntity
  8
0
 62
256
370
13
 48
1.0
  6
BYLAYER
100
AcDbLine
 10
7.6000000000000227
 20
194.5
 30
0.0
 11
7.6000000000000014
 21
192.0
 31
0.0
  0
LINE
  5
353
100
AcDbEntity
  8
0
 62
256
370
13
 48
1.0
  6
BYLAYER
100
AcDbLine
 10
39.6000000000000298
 20
194.5
 30
0.0
 11
39.6000000000000085
 21
192.0
 31
0.0
  0
LINE
  5
354
100
AcDbEntity
  8
0
 62
256
370
13
 48
1.0
  6
BYLAYER
100
AcDbLine
 10
7.6000000000000227
 20
226.5
 30
0.0
 11
7.6000000000000014
 21
224.0
 31
0.0
  0
LINE
  5
355
100
AcDbEntity
  8
0
 62
256
370
13
 48
1.0
  6
BYLAYER
100
AcDbLine
 10
39.6000000000000298
 20
226.5
 30
0.0
 11
39.6000000000000085
 21
224.0
 31
0.0
  0
LINE
  5
356
100
AcDbEntity
  8
0
 62
256
370
13
 48
1.0
  6
BYLAYER
100
AcDbLine
 10
71.6000000000000227
 20
194.5
 30
0.0
 11
71.5999999999999943
 21
192.0
 31
0.0
  0
LINE
  5
357
100
AcDbEntity
  8
0
 62
256
370
13
 48
1.0
  6
BYLAYER
100
AcDbLine
 10
103.6000000000000227
 20
194.5
 30
0.0
 11
103.5999999999999943
 21
192.0
 31
0.0
  0
LINE
  5
358
100
AcDbEntity
  8
0
 62
256
370
13
 48
1.0
  6
BYLAYER
100
AcDbLine
 10
71.6000000000000227
 20
226.5
 30
0.0
 11
71.5999999999999943
 21
224.0
 31
0.0
  0
LINE
  5
359
100
AcDbEntity
  8
0
 62
256
370
13
 48
1.0
  6
BYLAYER
100
AcDbLine
 10
103.6000000000000227
 20
226.5
 30
0.0
 11
103.5999999999999943
 21
224.0
 31
0.0
  0
LINE
  5
35A
100
AcDbEntity
  8
0
 62
256
370
13
 48
1.0
  6
BYLAYER
100
AcDbLine
 10
27.5
 20
15.1000000000000014
 30
0.0
 11
30.0
 21
15.1000000000000014
 31
0.0
  0
LINE
  5
35B
100
AcDbEntity
  8
0
 62
256
370
13
 48
1.0
  6
BYLAYER
100
AcDbLine
 10
59.5000000000000071
 20
15.1000000000000014
 30
0.0
 11
62.0000000000000071
 21
15.1000000000000014
 31
0.0
  0
LINE
  5
35C
100
AcDbEntity
  8
0
 62
256
370
13
 48
1.0
  6
BYLAYER
100
AcDbLine
 10
27.5
 20
47.0999999999999943
 30
0.0
 11
30.0
 21
47.0999999999999943
 31
0.0
  0
LINE
  5
35D
100
AcDbEntity
  8
0
 62
256
370
13
 48
1.0
  6
BYLAYER
100
AcDbLine
 10
59.5000000000000071
 20
47.0999999999999943
 30
0.0
 11
62.0000000000000071
 21
47.0999999999999943
 31
0.0
  0
LINE
  5
35E
100
AcDbEntity
  8
0
 62
256
370
13
 48
1.0
  6
BYLAYER
100
AcDbLine
 10
91.5
 20
15.1000000000000014
 30
0.0
 11
94.0
 21
15.1000000000000014
 31
0.0
  0
LINE
  5
35F
100
AcDbEntity
  8
0
 62
256
370
13
 48
1.0
  6
BYLAYER
100
AcDbLine
 10
123.5
 20
15.1000000000000014
 30
0.0
 11
126.0
 21
15.1000000000000014
 31
0.0
  0
LINE
  5
360
100
AcDbEntity
  8
0
 62
256
370
13
 48
1.0
  6
BYLAYER
100
AcDbLine
 10
91.5
 20
47.0999999999999943
 30
0.0
 11
94.0
 21
47.0999999999999943
 31
0.0
  0
LINE
  5
361
100
AcDbEntity
  8
0
 62
256
370
13
 48
1.0
  6
BYLAYER
100
AcDbLine
 10
123.5
 20
47.0999999999999943
 30
0.0
 11
126.0
 21
47.0999999999999943
 31
0.0
  0
LINE
  5
362
100
AcDbEntity
  8
0
 62
256
370
13
 48
1.0
  6
BYLAYER
100
AcDbLine
 10
27.5000000000000071
 20
79.0999999999999943
 30
0.0
 11
30.0000000000000071
 21
79.0999999999999943
 31
0.0
  0
LINE
  5
363
100
AcDbEntity
  8
0
 62
256
370
13
 48
1.0
  6
BYLAYER
100
AcDbLine
 10
59.5000000000000142
 20
79.0999999999999943
 30
0.0
 11
62.0000000000000142
 21
79.0999999999999943
 31
0.0
  0
LINE
  5
364
100
AcDbEntity
  8
0
 62
256
370
13
 48
1.0
  6
BYLAYER
100
AcDbLine
 10
27.5000000000000071
 20
111.0999999999999943
 30
0.0
 11
30.0000000000000071
 21
111.0999999999999943
 31
0.0
  0
LINE
  5
365
100
AcDbEntity
  8
0
 62
256
370
13
 48
1.0
  6
BYLAYER
100
AcDbLine
 10
59.5000000000000142
 20
111.0999999999999943
 30
0.0
 11
62.0000000000000142
 21
111.0999999999999943
 31
0.0
  0
LINE
  5
366
100
AcDbEntity
  8
0
 62
256
370
13
 48
1.0
  6
BYLAYER
100
AcDbLine
 10
91.5
 20
79.0999999999999943
 30
0.0
 11
94.0
 21
79.0999999999999943
 31
0.0
  0
LINE
  5
367
100
AcDbEntity
  8
0
 62
256
370
13
 48
1.0
  6
BYLAYER
100
AcDbLine
 10
123.5
 20
79.0999999999999943
 30
0.0
 11
126.0
 21
79.0999999999999943
 31
0.0
  0
LINE
  5
368
100
AcDbEntity
  8
0
 62
256
370
13
 48
1.0
  6
BYLAYER
100
AcDbLine
 10
91.5
 20
111.0999999999999943
 30
0.0
 11
94.0
 21
111.0999999999999943
 31
0.0
  0
LINE
  5
369
100
AcDbEntity
  8
0
 62
256
370
13
 48
1.0
  6
BYLAYER
100
AcDbLine
 10
123.5
 20
111.0999999999999943
 30
0.0
 11
126.0
 21
111.0999999999999943
 31
0.0
  0
LINE
  5
36A
100
AcDbEntity
  8
0
 62
256
370
13
 48
1.0
  6
BYLAYER
100
AcDbLine
 10
27.5000000000000071
 20
143.0999999999999943
 30
0.0
 11
30.0000000000000071
 21
143.0999999999999943
 31
0.0
  0
LINE
  5
36B
100
AcDbEntity
  8
0
 62
256
370
13
 48
1.0
  6
BYLAYER
100
AcDbLine
 10
59.5000000000000142
 20
143.0999999999999943
 30
0.0
 11
62.0000000000000142
 21
143.0999999999999943
 31
0.0
  0
LINE
  5
36C
100
AcDbEntity
  8
0
 62
256
370
13
 48
1.0
  6
BYLAYER
100
AcDbLine
 10
27.5000000000000071
 20
175.0999999999999943
 30
0.0
 11
30.0000000000000071
 21
175.0999999999999943
 31
0.0
  0
LINE
  5
36D
100
AcDbEntity
  8
0
 62
256
370
13
 48
1.0
  6
BYLAYER
100
AcDbLine
 10
59.5000000000000142
 20
175.0999999999999943
 30
0.0
 11
62.0000000000000142
 21
175.0999999999999943
 31
0.0
  0
LINE
  5
36E
100
AcDbEntity
  8
0
 62
256
370
13
 48
1.0
  6
BYLAYER
100
AcDbLine
 10
91.5
 20
143.0999999999999943
 30
0.0
 11
94.0
 21
143.0999999999999943
 31
0.0
  0
LINE
  5
36F
100
AcDbEntity
  8
0
 62
256
370
13
 48
1.0
  6
BYLAYER
100
AcDbLine
 10
123.5
 20
143.0999999999999943
 30
0.0
 11
126.0
 21
143.0999999999999943
 31
0.0
  0
LINE
  5
370
100
AcDbEntity
  8
0
 62
256
370
13
 48
1.0
  6
BYLAYER
100
AcDbLine
 10
91.5
 20
175.0999999999999943
 30
0.0
 11
94.0
 21
175.0999999999999943
 31
0.0
  0
LINE
  5
371
100
AcDbEntity
  8
0
 62
256
370
13
 48
1.0
  6
BYLAYER
100
AcDbLine
 10
123.5
 20
175.0999999999999943
 30
0.0
 11
126.0
 21
175.0999999999999943
 31
0.0
  0
LINE
  5
372
100
AcDbEntity
  8
0
 62
256
370
13
 48
1.0
  6
BYLAYER
100
AcDbLine
 10
27.5000000000000142
 20
207.0999999999999943
 30
0.0
 11
30.0000000000000142
 21
207.0999999999999943
 31
0.0
  0
LINE
  5
373
100
AcDbEntity
  8
0
 62
256
370
13
 48
1.0
  6
BYLAYER
100
AcDbLine
 10
59.5000000000000213
 20
207.0999999999999943
 30
0.0
 11
62.0000000000000213
 21
207.0999999999999943
 31
0.0
  0
LINE
  5
374
100
AcDbEntity
  8
0
 62
256
370
13
 48
1.0
  6
BYLAYER
100
AcDbLine
 10
27.5000000000000142
 20
239.0999999999999943
 30
0.0
 11
30.0000000000000142
 21
239.0999999999999943
 31
0.0
  0
LINE
  5
375
100
AcDbEntity
  8
0
 62
256
370
13
 48
1.0
  6
BYLAYER
100
AcDbLine
 10
59.5000000000000213
 20
239.0999999999999943
 30
0.0
 11
62.0000000000000213
 21
239.0999999999999943
 31
0.0
  0
LINE
  5
376
100
AcDbEntity
  8
0
 62
256
370
13
 48
1.0
  6
BYLAYER
100
AcDbLine
 10
91.5
 20
207.0999999999999943
 30
0.0
 11
94.0
 21
207.0999999999999943
 31
0.0
  0
LINE
  5
377
100
AcDbEntity
  8
0
 62
256
370
13
 48
1.0
  6
BYLAYER
100
AcDbLine
 10
123.5
 20
207.0999999999999943
 30
0.0
 11
126.0
 21
207.0999999999999943
 31
0.0
  0
LINE
  5
378
100
AcDbEntity
  8
0
 62
256
370
13
 48
1.0
  6
BYLAYER
100
AcDbLine
 10
91.5
 20
239.0999999999999943
 30
0.0
 11
94.0
 21
239.0999999999999943
 31
0.0
  0
LINE
  5
379
100
AcDbEntity
  8
0
 62
256
370
13
 48
1.0
  6
BYLAYER
100
AcDbLine
 10
123.5
 20
239.0999999999999943
 30
0.0
 11
126.0
 21
239.0999999999999943
 31
0.0
  0
LINE
  5
37A
100
AcDbEntity
  8
0
 62
256
370
13
 48
1.0
  6
BYLAYER
100
AcDbLine
 10
14.8999999999999915
 20
2.5
 30
0.0
 11
14.8999999999999915
 21
0.0
 31
0.0
  0
LINE
  5
37B
100
AcDbEntity
  8
0
 62
256
370
13
 48
1.0
  6
BYLAYER
100
AcDbLine
 10
46.8999999999999986
 20
2.4999999999999929
 30
0.0
 11
46.8999999999999986
 21
0.0
 31
0.0
  0
LINE
  5
37C
100
AcDbEntity
  8
0
 62
256
370
13
 48
1.0
  6
BYLAYER
100
AcDbLine
 10
14.8999999999999915
 20
34.5
 30
0.0
 11
14.8999999999999915
 21
32.0
 31
0.0
  0
LINE
  5
37D
100
AcDbEntity
  8
0
 62
256
370
13
 48
1.0
  6
BYLAYER
100
AcDbLine
 10
46.8999999999999986
 20
34.4999999999999858
 30
0.0
 11
46.8999999999999986
 21
32.0
 31
0.0
  0
LINE
  5
37E
100
AcDbEntity
  8
0
 62
256
370
13
 48
1.0
  6
BYLAYER
100
AcDbLine
 10
78.8999999999999915
 20
2.5
 30
0.0
 11
78.8999999999999915
 21
0.0
 31
0.0
  0
LINE
  5
37F
100
AcDbEntity
  8
0
 62
256
370
13
 48
1.0
  6
BYLAYER
100
AcDbLine
 10
110.9000000000000057
 20
2.4999999999999929
 30
0.0
 11
110.9000000000000057
 21
0.0
 31
0.0
  0
LINE
  5
380
100
AcDbEntity
  8
0
 62
256
370
13
 48
1.0
  6
BYLAYER
100
AcDbLine
 10
78.8999999999999915
 20
34.5
 30
0.0
 11
78.8999999999999915
 21
32.0
 31
0.0
  0
LINE
  5
381
100
AcDbEntity
  8
0
 62
256
370
13
 48
1.0
  6
BYLAYER
100
AcDbLine
 10
110.9000000000000057
 20
34.4999999999999858
 30
0.0
 11
110.9000000000000057
 21
32.0
 31
0.0
  0
LINE
  5
382
100
AcDbEntity
  8
0
 62
256
370
13
 48
1.0
  6
BYLAYER
100
AcDbLine
 10
14.8999999999999986
 20
66.5
 30
0.0
 11
14.8999999999999986
 21
64.0
 31
0.0
  0
LINE
  5
383
100
AcDbEntity
  8
0
 62
256
370
13
 48
1.0
  6
BYLAYER
100
AcDbLine
 10
46.9000000000000057
 20
66.5
 30
0.0
 11
46.9000000000000057
 21
64.0
 31
0.0
  0
LINE
  5
384
100
AcDbEntity
  8
0
 62
256
370
13
 48
1.0
  6
BYLAYER
100
AcDbLine
 10
14.8999999999999986
 20
98.5
 30
0.0
 11
14.8999999999999986
 21
96.0
 31
0.0
  0
LINE
  5
385
100
AcDbEntity
  8
0
 62
256
370
13
 48
1.0
  6
BYLAYER
100
AcDbLine
 10
46.9000000000000057
 20
98.4999999999999858
 30
0.0
 11
46.9000000000000057
 21
96.0
 31
0.0
  0
LINE
  5
386
100
AcDbEntity
  8
0
 62
256
370
13
 48
1.0
  6
BYLAYER
100
AcDbLine
 10
78.9000000000000057
 20
66.5
 30
0.0
 11
78.9000000000000057
 21
64.0
 31
0.0
  0
LINE
  5
387
100
AcDbEntity
  8
0
 62
256
370
13
 48
1.0
  6
BYLAYER
100
AcDbLine
 10
110.9000000000000057
 20
66.5
 30
0.0
 11
110.9000000000000057
 21
64.0
 31
0.0
  0
LINE
  5
388
100
AcDbEntity
  8
0
 62
256
370
13
 48
1.0
  6
BYLAYER
100
AcDbLine
 10
78.9000000000000057
 20
98.5
 30
0.0
 11
78.9000000000000057
 21
96.0
 31
0.0
  0
LINE
  5
389
100
AcDbEntity
  8
0
 62
256
370
13
 48
1.0
  6
BYLAYER
100
AcDbLine
 10
110.9000000000000057
 20
98.4999999999999858
 30
0.0
 11
110.9000000000000057
 21
96.0
 31
0.0
  0
LINE
  5
38A
100
AcDbEntity
  8
0
 62
256
370
13
 48
1.0
  6
BYLAYER
100
AcDbLine
 10
14.8999999999999986
 20
130.5
 30
0.0
 11
14.8999999999999986
 21
128.0
 31
0.0
  0
LINE
  5
38B
100
AcDbEntity
  8
0
 62
256
370
13
 48
1.0
  6
BYLAYER
100
AcDbLine
 10
46.9000000000000057
 20
130.5
 30
0.0
 11
46.9000000000000057
 21
128.0
 31
0.0
  0
LINE
  5
38C
100
AcDbEntity
  8
0
 62
256
370
13
 48
1.0
  6
BYLAYER
100
AcDbLine
 10
14.8999999999999986
 20
162.5
 30
0.0
 11
14.8999999999999986
 21
160.0
 31
0.0
  0
LINE
  5
38D
100
AcDbEntity
  8
0
 62
256
370
13
 48
1.0
  6
BYLAYER
100
AcDbLine
 10
46.9000000000000057
 20
162.5
 30
0.0
 11
46.9000000000000057
 21
160.0
 31
0.0
  0
LINE
  5
38E
100
AcDbEntity
  8
0
 62
256
370
13
 48
1.0
  6
BYLAYER
100
AcDbLine
 10
78.9000000000000057
 20
130.5
 30
0.0
 11
78.9000000000000057
 21
128.0
 31
0.0
  0
LINE
  5
38F
100
AcDbEntity
  8
0
 62
256
370
13
 48
1.0
  6
BYLAYER
100
AcDbLine
 10
110.9000000000000057
 20
130.5
 30
0.0
 11
110.9000000000000057
 21
128.0
 31
0.0
  0
LINE
  5
390
100
AcDbEntity
  8
0
 62
256
370
13
 48
1.0
  6
BYLAYER
100
AcDbLine
 10
78.9000000000000057
 20
162.5
 30
0.0
 11
78.9000000000000057
 21
160.0
 31
0.0
  0
LINE
  5
391
100
AcDbEntity
  8
0
 62
256
370
13
 48
1.0
  6
BYLAYER
100
AcDbLine
 10
110.9000000000000057
 20
162.5
 30
0.0
 11
110.9000000000000057
 21
160.0
 31
0.0
  0
LINE
  5
392
100
AcDbEntity
  8
0
 62
256
370
13
 48
1.0
  6
BYLAYER
100
AcDbLine
 10
14.9000000000000057
 20
194.5
 30
0.0
 11
14.9000000000000057
 21
192.0
 31
0.0
  0
LINE
  5
393
100
AcDbEntity
  8
0
 62
256
370
13
 48
1.0
  6
BYLAYER
100
AcDbLine
 10
46.9000000000000128
 20
194.5
 30
0.0
 11
46.9000000000000128
 21
192.0
 31
0.0
  0
LINE
  5
394
100
AcDbEntity
  8
0
 62
256
370
13
 48
1.0
  6
BYLAYER
100
AcDbLine
 10
14.9000000000000057
 20
226.5
 30
0.0
 11
14.9000000000000057
 21
224.0
 31
0.0
  0
LINE
  5
395
100
AcDbEntity
  8
0
 62
256
370
13
 48
1.0
  6
BYLAYER
100
AcDbLine
 10
46.9000000000000128
 20
226.5
 30
0.0
 11
46.9000000000000128
 21
224.0
 31
0.0
  0
LINE
  5
396
100
AcDbEntity
  8
0
 62
256
370
13
 48
1.0
  6
BYLAYER
100
AcDbLine
 10
78.9000000000000057
 20
194.5
 30
0.0
 11
78.9000000000000057
 21
192.0
 31
0.0
  0
LINE
  5
397
100
AcDbEntity
  8
0
 62
256
370
13
 48
1.0
  6
BYLAYER
100
AcDbLine
 10
110.9000000000000057
 20
194.5
 30
0.0
 11
110.9000000000000057
 21
192.0
 31
0.0
  0
LINE
  5
398
100
AcDbEntity
  8
0
 62
256
370
13
 48
1.0
  6
BYLAYER
100
AcDbLine
 10
78.9000000000000057
 20
226.5
 30
0.0
 11
78.9000000000000057
 21
224.0
 31
0.0
  0
LINE
  5
399
100
AcDbEntity
  8
0
 62
256
370
13
 48
1.0
  6
BYLAYER
100
AcDbLine
 10
110.9000000000000057
 20
226.5
 30
0.0
 11
110.9000000000000057
 21
224.0
 31
0.0
  0
LINE
  5
39A
100
AcDbEntity
  8
0
 62
256
370
13
 48
1.0
  6
BYLAYER
100
AcDbLine
 10
27.5
 20
7.3999999999999986
 30
0.0
 11
30.0
 21
7.3999999999999986
 31
0.0
  0
LINE
  5
39B
100
AcDbEntity
  8
0
 62
256
370
13
 48
1.0
  6
BYLAYER
100
AcDbLine
 10
59.5000000000000071
 20
7.3999999999999986
 30
0.0
 11
62.0000000000000071
 21
7.3999999999999986
 31
0.0
  0
LINE
  5
39C
100
AcDbEntity
  8
0
 62
256
370
13
 48
1.0
  6
BYLAYER
100
AcDbLine
 10
27.5
 20
39.3999999999999915
 30
0.0
 11
30.0
 21
39.3999999999999915
 31
0.0
  0
LINE
  5
39D
100
AcDbEntity
  8
0
 62
256
370
13
 48
1.0
  6
BYLAYER
100
AcDbLine
 10
59.5000000000000071
 20
39.3999999999999915
 30
0.0
 11
62.0000000000000071
 21
39.3999999999999915
 31
0.0
  0
LINE
  5
39E
100
AcDbEntity
  8
0
 62
256
370
13
 48
1.0
  6
BYLAYER
100
AcDbLine
 10
91.5
 20
7.3999999999999986
 30
0.0
 11
94.0
 21
7.3999999999999986
 31
0.0
  0
LINE
  5
39F
100
AcDbEntity
  8
0
 62
256
370
13
 48
1.0
  6
BYLAYER
100
AcDbLine
 10
123.5
 20
7.3999999999999986
 30
0.0
 11
126.0
 21
7.3999999999999986
 31
0.0
  0
LINE
  5
3A0
100
AcDbEntity
  8
0
 62
256
370
13
 48
1.0
  6
BYLAYER
100
AcDbLine
 10
91.5
 20
39.3999999999999915
 30
0.0
 11
94.0
 21
39.3999999999999915
 31
0.0
  0
LINE
  5
3A1
100
AcDbEntity
  8
0
 62
256
370
13
 48
1.0
  6
BYLAYER
100
AcDbLine
 10
123.5
 20
39.3999999999999915
 30
0.0
 11
126.0
 21
39.3999999999999915
 31
0.0
  0
LINE
  5
3A2
100
AcDbEntity
  8
0
 62
256
370
13
 48
1.0
  6
BYLAYER
100
AcDbLine
 10
27.5000000000000071
 20
71.4000000000000057
 30
0.0
 11
30.0000000000000071
 21
71.4000000000000057
 31
0.0
  0
LINE
  5
3A3
100
AcDbEntity
  8
0
 62
256
370
13
 48
1.0
  6
BYLAYER
100
AcDbLine
 10
59.5000000000000142
 20
71.4000000000000057
 30
0.0
 11
62.0000000000000142
 21
71.4000000000000057
 31
0.0
  0
LINE
  5
3A4
100
AcDbEntity
  8
0
 62
256
370
13
 48
1.0
  6
BYLAYER
100
AcDbLine
 10
27.5000000000000071
 20
103.3999999999999915
 30
0.0
 11
30.0000000000000071
 21
103.3999999999999915
 31
0.0
  0
LINE
  5
3A5
100
AcDbEntity
  8
0
 62
256
370
13
 48
1.0
  6
BYLAYER
100
AcDbLine
 10
59.5000000000000142
 20
103.3999999999999915
 30
0.0
 11
62.0000000000000142
 21
103.3999999999999915
 31
0.0
  0
LINE
  5
3A6
100
AcDbEntity
  8
0
 62
256
370
13
 48
1.0
  6
BYLAYER
100
AcDbLine
 10
91.5
 20
71.4000000000000057
 30
0.0
 11
94.0
 21
71.4000000000000057
 31
0.0
  0
LINE
  5
3A7
100
AcDbEntity
  8
0
 62
256
370
13
 48
1.0
  6
BYLAYER
100
AcDbLine
 10
123.5
 20
71.4000000000000057
 30
0.0
 11
126.0
 21
71.4000000000000057
 31
0.0
  0
LINE
  5
3A8
100
AcDbEntity
  8
0
 62
256
370
13
 48
1.0
  6
BYLAYER
100
AcDbLine
 10
91.5
 20
103.3999999999999915
 30
0.0
 11
94.0
 21
103.3999999999999915
 31
0.0
  0
LINE
  5
3A9
100
AcDbEntity
  8
0
 62
256
370
13
 48
1.0
  6
BYLAYER
100
AcDbLine
 10
123.5
 20
103.3999999999999915
 30
0.0
 11
126.0
 21
103.3999999999999915
 31
0.0
  0
LINE
  5
3AA
100
AcDbEntity
  8
0
 62
256
370
13
 48
1.0
  6
BYLAYER
100
AcDbLine
 10
27.5000000000000071
 20
135.4000000000000057
 30
0.0
 11
30.0000000000000071
 21
135.4000000000000057
 31
0.0
  0
LINE
  5
3AB
100
AcDbEntity
  8
0
 62
256
370
13
 48
1.0
  6
BYLAYER
100
AcDbLine
 10
59.5000000000000142
 20
135.4000000000000057
 30
0.0
 11
62.0000000000000142
 21
135.4000000000000057
 31
0.0
  0
LINE
  5
3AC
100
AcDbEntity
  8
0
 62
256
370
13
 48
1.0
  6
BYLAYER
100
AcDbLine
 10
27.5000000000000071
 20
167.3999999999999773
 30
0.0
 11
30.0000000000000071
 21
167.3999999999999773
 31
0.0
  0
LINE
  5
3AD
100
AcDbEntity
  8
0
 62
256
370
13
 48
1.0
  6
BYLAYER
100
AcDbLine
 10
59.5000000000000142
 20
167.3999999999999773
 30
0.0
 11
62.0000000000000142
 21
167.3999999999999773
 31
0.0
  0
LINE
  5
3AE
100
AcDbEntity
  8
0
 62
256
370
13
 48
1.0
  6
BYLAYER
100
AcDbLine
 10
91.5
 20
135.4000000000000057
 30
0.0
 11
94.0
 21
135.4000000000000057
 31
0.0
  0
LINE
  5
3AF
100
AcDbEntity
  8
0
 62
256
370
13
 48
1.0
  6
BYLAYER
100
AcDbLine
 10
123.5
 20
135.4000000000000057
 30
0.0
 11
126.0
 21
135.4000000000000057
 31
0.0
  0
LINE
  5
3B0
100
AcDbEntity
  8
0
 62
256
370
13
 48
1.0
  6
BYLAYER
100
AcDbLine
 10
91.5
 20
167.3999999999999773
 30
0.0
 11
94.0
 21
167.3999999999999773
 31
0.0
  0
LINE
  5
3B1
100
AcDbEntity
  8
0
 62
256
370
13
 48
1.0
  6
BYLAYER
100
AcDbLine
 10
123.5
 20
167.3999999999999773
 30
0.0
 11
126.0
 21
167.3999999999999773
 31
0.0
  0
LINE
  5
3B2
100
AcDbEntity
  8
0
 62
256
370
13
 48
1.0
  6
BYLAYER
100
AcDbLine
 10
27.5000000000000142
 20
199.4000000000000057
 30
0.0
 11
30.0000000000000142
 21
199.4000000000000057
 31
0.0
  0
LINE
  5
3B3
100
AcDbEntity
  8
0
 62
256
370
13
 48
1.0
  6
BYLAYER
100
AcDbLine
 10
59.5000000000000213
 20
199.4000000000000057
 30
0.0
 11
62.0000000000000213
 21
199.4000000000000057
 31
0.0
  0
LINE
  5
3B4
100
AcDbEntity
  8
0
 62
256
370
13
 48
1.0
  6
BYLAYER
100
AcDbLine
 10
27.5000000000000142
 20
231.3999999999999773
 30
0.0
 11
30.0000000000000142
 21
231.3999999999999773
 31
0.0
  0
LINE
  5
3B5
100
AcDbEntity
  8
0
 62
256
370
13
 48
1.0
  6
BYLAYER
100
AcDbLine
 10
59.5000000000000213
 20
231.3999999999999773
 30
0.0
 11
62.0000000000000213
 21
231.3999999999999773
 31
0.0
  0
LINE
  5
3B6
100
AcDbEntity
  8
0
 62
256
370
13
 48
1.0
  6
BYLAYER
100
AcDbLine
 10
91.5
 20
199.4000000000000057
 30
0.0
 11
94.0
 21
199.4000000000000057
 31
0.0
  0
LINE
  5
3B7
100
AcDbEntity
  8
0
 62
256
370
13
 48
1.0
  6
BYLAYER
100
AcDbLine
 10
123.5
 20
199.4000000000000057
 30
0.0
 11
126.0
 21
199.4000000000000057
 31
0.0
  0
LINE
  5
3B8
100
AcDbEntity
  8
0
 62
256
370
13
 48
1.0
  6
BYLAYER
100
AcDbLine
 10
91.5
 20
231.3999999999999773
 30
0.0
 11
94.0
 21
231.3999999999999773
 31
0.0
  0
LINE
  5
3B9
100
AcDbEntity
  8
0
 62
256
370
13
 48
1.0
  6
BYLAYER
100
AcDbLine
 10
123.5
 20
231.3999999999999773
 30
0.0
 11
126.0
 21
231.3999999999999773
 31
0.0
  0
LINE
  5
3BA
100
AcDbEntity
  8
0
 62
256
370
13
 48
1.0
  6
BYLAYER
100
AcDbLine
 10
22.6000000000000014
 20
2.5
 30
0.0
 11
22.6000000000000085
 21
0.0000000000000071
 31
0.0
  0
LINE
  5
3BB
100
AcDbEntity
  8
0
 62
256
370
13
 48
1.0
  6
BYLAYER
100
AcDbLine
 10
54.6000000000000156
 20
2.5
 30
0.0
 11
54.6000000000000298
 21
0.0000000000000071
 31
0.0
  0
LINE
  5
3BC
100
AcDbEntity
  8
0
 62
256
370
13
 48
1.0
  6
BYLAYER
100
AcDbLine
 10
22.6000000000000014
 20
34.5
 30
0.0
 11
22.6000000000000085
 21
32.0
 31
0.0
  0
LINE
  5
3BD
100
AcDbEntity
  8
0
 62
256
370
13
 48
1.0
  6
BYLAYER
100
AcDbLine
 10
54.6000000000000156
 20
34.5
 30
0.0
 11
54.6000000000000298
 21
32.0
 31
0.0
  0
LINE
  5
3BE
100
AcDbEntity
  8
0
 62
256
370
13
 48
1.0
  6
BYLAYER
100
AcDbLine
 10
86.5999999999999943
 20
2.5
 30
0.0
 11
86.6000000000000085
 21
0.0000000000000071
 31
0.0
  0
LINE
  5
3BF
100
AcDbEntity
  8
0
 62
256
370
13
 48
1.0
  6
BYLAYER
100
AcDbLine
 10
118.6000000000000227
 20
2.5
 30
0.0
 11
118.6000000000000227
 21
0.0000000000000071
 31
0.0
  0
LINE
  5
3C0
100
AcDbEntity
  8
0
 62
256
370
13
 48
1.0
  6
BYLAYER
100
AcDbLine
 10
86.5999999999999943
 20
34.5
 30
0.0
 11
86.6000000000000085
 21
32.0
 31
0.0
  0
LINE
  5
3C1
100
AcDbEntity
  8
0
 62
256
370
13
 48
1.0
  6
BYLAYER
100
AcDbLine
 10
118.6000000000000227
 20
34.5
 30
0.0
 11
118.6000000000000227
 21
32.0
 31
0.0
  0
LINE
  5
3C2
100
AcDbEntity
  8
0
 62
256
370
13
 48
1.0
  6
BYLAYER
100
AcDbLine
 10
22.6000000000000085
 20
66.5
 30
0.0
 11
22.6000000000000156
 21
64.0
 31
0.0
  0
LINE
  5
3C3
100
AcDbEntity
  8
0
 62
256
370
13
 48
1.0
  6
BYLAYER
100
AcDbLine
 10
54.6000000000000227
 20
66.5
 30
0.0
 11
54.6000000000000369
 21
64.0
 31
0.0
  0
LINE
  5
3C4
100
AcDbEntity
  8
0
 62
256
370
13
 48
1.0
  6
BYLAYER
100
AcDbLine
 10
22.6000000000000085
 20
98.5
 30
0.0
 11
22.6000000000000156
 21
96.0
 31
0.0
  0
LINE
  5
3C5
100
AcDbEntity
  8
0
 62
256
370
13
 48
1.0
  6
BYLAYER
100
AcDbLine
 10
54.6000000000000227
 20
98.5
 30
0.0
 11
54.6000000000000369
 21
96.0
 31
0.0
  0
LINE
  5
3C6
100
AcDbEntity
  8
0
 62
256
370
13
 48
1.0
  6
BYLAYER
100
AcDbLine
 10
86.5999999999999943
 20
66.5
 30
0.0
 11
86.6000000000000227
 21
64.0
 31
0.0
  0
LINE
  5
3C7
100
AcDbEntity
  8
0
 62
256
370
13
 48
1.0
  6
BYLAYER
100
AcDbLine
 10
118.6000000000000227
 20
66.5
 30
0.0
 11
118.6000000000000227
 21
64.0
 31
0.0
  0
LINE
  5
3C8
100
AcDbEntity
  8
0
 62
256
370
13
 48
1.0
  6
BYLAYER
100
AcDbLine
 10
86.5999999999999943
 20
98.5
 30
0.0
 11
86.6000000000000227
 21
96.0
 31
0.0
  0
LINE
  5
3C9
100
AcDbEntity
  8
0
 62
256
370
13
 48
1.0
  6
BYLAYER
100
AcDbLine
 10
118.6000000000000227
 20
98.5
 30
0.0
 11
118.6000000000000227
 21
96.0
 31
0.0
  0
LINE
  5
3CA
100
AcDbEntity
  8
0
 62
256
370
13
 48
1.0
  6
BYLAYER
100
AcDbLine
 10
22.6000000000000085
 20
130.5
 30
0.0
 11
22.6000000000000156
 21
128.0
 31
0.0
  0
LINE
  5
3CB
100
AcDbEntity
  8
0
 62
256
370
13
 48
1.0
  6
BYLAYER
100
AcDbLine
 10
54.6000000000000227
 20
130.5
 30
0.0
 11
54.6000000000000369
 21
128.0
 31
0.0
  0
LINE
  5
3CC
100
AcDbEntity
  8
0
 62
256
370
13
 48
1.0
  6
BYLAYER
100
AcDbLine
 10
22.6000000000000085
 20
162.5
 30
0.0
 11
22.6000000000000156
 21
160.0
 31
0.0
  0
LINE
  5
3CD
100
AcDbEntity
  8
0
 62
256
370
13
 48
1.0
  6
BYLAYER
100
AcDbLine
 10
54.6000000000000227
 20
162.5
 30
0.0
 11
54.6000000000000369
 21
160.0
 31
0.0
  0
LINE
  5
3CE
100
AcDbEntity
  8
0
 62
256
370
13
 48
1.0
  6
BYLAYER
100
AcDbLine
 10
86.5999999999999943
 20
130.5
 30
0.0
 11
86.6000000000000227
 21
128.0
 31
0.0
  0
LINE
  5
3CF
100
AcDbEntity
  8
0
 62
256
370
13
 48
1.0
  6
BYLAYER
100
AcDbLine
 10
118.6000000000000227
 20
130.5
 30
0.0
 11
118.6000000000000227
 21
128.0
 31
0.0
  0
LINE
  5
3D0
100
AcDbEntity
  8
0
 62
256
370
13
 48
1.0
  6
BYLAYER
100
AcDbLine
 10
86.5999999999999943
 20
162.5
 30
0.0
 11
86.6000000000000227
 21
160.0
 31
0.0
  0
LINE
  5
3D1
100
AcDbEntity
  8
0
 62
256
370
13
 48
1.0
  6
BYLAYER
100
AcDbLine
 10
118.6000000000000227
 20
162.5
 30
0.0
 11
118.6000000000000227
 21
160.0
 31
0.0
  0
LINE
  5
3D2
100
AcDbEntity
  8
0
 62
256
370
13
 48
1.0
  6
BYLAYER
100
AcDbLine
 10
22.6000000000000156
 20
194.5
 30
0.0
 11
22.6000000000000227
 21
192.0
 31
0.0
  0
LINE
  5
3D3
100
AcDbEntity
  8
0
 62
256
370
13
 48
1.0
  6
BYLAYER
100
AcDbLine
 10
54.6000000000000298
 20
194.5
 30
0.0
 11
54.6000000000000441
 21
192.0
 31
0.0
  0
LINE
  5
3D4
100
AcDbEntity
  8
0
 62
256
370
13
 48
1.0
  6
BYLAYER
100
AcDbLine
 10
22.6000000000000156
 20
226.5
 30
0.0
 11
22.6000000000000227
 21
224.0
 31
0.0
  0
LINE
  5
3D5
100
AcDbEntity
  8
0
 62
256
370
13
 48
1.0
  6
BYLAYER
100
AcDbLine
 10
54.6000000000000298
 20
226.5
 30
0.0
 11
54.6000000000000441
 21
224.0
 31
0.0
  0
LINE
  5
3D6
100
AcDbEntity
  8
0
 62
256
370
13
 48
1.0
  6
BYLAYER
100
AcDbLine
 10
86.5999999999999943
 20
194.5
 30
0.0
 11
86.6000000000000227
 21
192.0
 31
0.0
  0
LINE
  5
3D7
100
AcDbEntity
  8
0
 62
256
370
13
 48
1.0
  6
BYLAYER
100
AcDbLine
 10
118.6000000000000227
 20
194.5
 30
0.0
 11
118.6000000000000227
 21
192.0
 31
0.0
  0
LINE
  5
3D8
100
AcDbEntity
  8
0
 62
256
370
13
 48
1.0
  6
BYLAYER
100
AcDbLine
 10
86.5999999999999943
 20
226.5
 30
0.0
 11
86.6000000000000227
 21
224.0
 31
0.0
  0
LINE
  5
3D9
100
AcDbEntity
  8
0
 62
256
370
13
 48
1.0
  6
BYLAYER
100
AcDbLine
 10
118.6000000000000227
 20
226.5
 30
0.0
 11
118.6000000000000227
 21
224.0
 31
0.0
  0
LINE
  5
3DA
100
AcDbEntity
  8
layer 1
 62
256
370
9
 48
1.0
  6
BYLAYER
100
AcDbLine
 10
12.4599999999999937
 20
9.9199999999999946
 30
0.0
 11
12.4599999999999937
 21
15.0
 31
0.0
  0
LINE
  5
3DB
100
AcDbEntity
  8
layer 1
 62
256
370
9
 48
1.0
  6
BYLAYER
100
AcDbLine
 10
76.4599999999999937
 20
9.9199999999999946
 30
0.0
 11
76.4599999999999937
 21
15.0
 31
0.0
  0
LINE
  5
3DC
100
AcDbEntity
  8
layer 1
 62
256
370
9
 48
1.0
  6
BYLAYER
100
AcDbLine
 10
12.4600000000000009
 20
73.9199999999999875
 30
0.0
 11
12.4600000000000009
 21
79.0
 31
0.0
  0
LINE
  5
3DD
100
AcDbEntity
  8
layer 1
 62
256
370
9
 48
1.0
  6
BYLAYER
100
AcDbLine
 10
76.460000000000008
 20
73.9199999999999875
 30
0.0
 11
76.460000000000008
 21
79.0
 31
0.0
  0
LINE
  5
3DE
100
AcDbEntity
  8
layer 1
 62
256
370
9
 48
1.0
  6
BYLAYER
100
AcDbLine
 10
12.4600000000000009
 20
137.9199999999999875
 30
0.0
 11
12.4600000000000009
 21
143.0
 31
0.0
  0
LINE
  5
3DF
100
AcDbEntity
  8
layer 1
 62
256
370
9
 48
1.0
  6
BYLAYER
100
AcDbLine
 10
76.460000000000008
 20
137.9199999999999875
 30
0.0
 11
76.460000000000008
 21
143.0
 31
0.0
  0
LINE
  5
3E0
100
AcDbEntity
  8
layer 1
 62
256
370
9
 48
1.0
  6
BYLAYER
100
AcDbLine
 10
12.460000000000008
 20
201.9199999999999875
 30
0.0
 11
12.460000000000008
 21
207.0
 31
0.0
  0
LINE
  5
3E1
100
AcDbEntity
  8
layer 1
 62
256
370
9
 48
1.0
  6
BYLAYER
100
AcDbLine
 10
76.460000000000008
 20
201.9199999999999875
 30
0.0
 11
76.460000000000008
 21
207.0
 31
0.0
  0
LINE
  5
3E2
100
AcDbEntity
  8
layer 1
 62
256
370
9
 48
1.0
  6
BYLAYER
100
AcDbLine
 10
12.4599999999999937
 20
15.0
 30
0.0
 11
14.1533333333333253
 21
15.0
 31
0.0
  0
LINE
  5
3E3
100
AcDbEntity
  8
layer 1
 62
256
370
9
 48
1.0
  6
BYLAYER
100
AcDbLine
 10
76.4599999999999937
 20
15.0
 30
0.0
 11
78.1533333333333218
 21
15.0
 31
0.0
  0
LINE
  5
3E4
100
AcDbEntity
  8
layer 1
 62
256
370
9
 48
1.0
  6
BYLAYER
100
AcDbLine
 10
12.4600000000000009
 20
79.0
 30
0.0
 11
14.1533333333333324
 21
79.0
 31
0.0
  0
LINE
  5
3E5
100
AcDbEntity
  8
layer 1
 62
256
370
9
 48
1.0
  6
BYLAYER
100
AcDbLine
 10
76.460000000000008
 20
79.0
 30
0.0
 11
78.153333333333336
 21
79.0
 31
0.0
  0
LINE
  5
3E6
100
AcDbEntity
  8
layer 1
 62
256
370
9
 48
1.0
  6
BYLAYER
100
AcDbLine
 10
12.4600000000000009
 20
143.0
 30
0.0
 11
14.1533333333333324
 21
143.0
 31
0.0
  0
LINE
  5
3E7
100
AcDbEntity
  8
layer 1
 62
256
370
9
 48
1.0
  6
BYLAYER
100
AcDbLine
 10
76.460000000000008
 20
143.0
 30
0.0
 11
78.153333333333336
 21
143.0
 31
0.0
  0
LINE
  5
3E8
100
AcDbEntity
  8
layer 1
 62
256
370
9
 48
1.0
  6
BYLAYER
100
AcDbLine
 10
12.460000000000008
 20
207.0
 30
0.0
 11
14.1533333333333395
 21
207.0
 31
0.0
  0
LINE
  5
3E9
100
AcDbEntity
  8
layer 1
 62
256
370
9
 48
1.0
  6
BYLAYER
100
AcDbLine
 10
76.460000000000008
 20
207.0
 30
0.0
 11
78.153333333333336
 21
207.0
 31
0.0
  0
LINE
  5
3EA
100
AcDbEntity
  8
layer 1
 62
256
370
9
 48
1.0
  6
BYLAYER
100
AcDbLine
 10
14.1533333333333253
 20
15.0
 30
0.0
 11
15.8466666666666569
 21
15.0
 31
0.0
  0
LINE
  5
3EB
100
AcDbEntity
  8
layer 1
 62
256
370
9
 48
1.0
  6
BYLAYER
100
AcDbLine
 10
78.1533333333333218
 20
15.0
 30
0.0
 11
79.846666666666664
 21
15.0
 31
0.0
  0
LINE
  5
3EC
100
AcDbEntity
  8
layer 1
 62
256
370
9
 48
1.0
  6
BYLAYER
100
AcDbLine
 10
14.1533333333333324
 20
79.0
 30
0.0
 11
15.846666666666664
 21
79.0
 31
0.0
  0
LINE
  5
3ED
100
AcDbEntity
  8
layer 1
 62
256
370
9
 48
1.0
  6
BYLAYER
100
AcDbLine
 10
78.153333333333336
 20
79.0
 30
0.0
 11
79.846666666666664
 21
79.0
 31
0.0
  0
LINE
  5
3EE
100
AcDbEntity
  8
layer 1
 62
256
370
9
 48
1.0
  6
BYLAYER
100
AcDbLine
 10
14.1533333333333324
 20
143.0
 30
0.0
 11
15.846666666666664
 21
143.0
 31
0.0
  0
LINE
  5
3EF
100
AcDbEntity
  8
layer 1
 62
256
370
9
 48
1.0
  6
BYLAYER
100
AcDbLine
 10
78.153333333333336
 20
143.0
 30
0.0
 11
79.846666666666664
 21
143.0
 31
0.0
  0
LINE
  5
3F0
100
AcDbEntity
  8
layer 1
 62
256
370
9
 48
1.0
  6
BYLAYER
100
AcDbLine
 10
14.1533333333333395
 20
207.0
 30
0.0
 11
15.8466666666666711
 21
207.0
 31
0.0
  0
LINE
  5
3F1
100
AcDbEntity
  8
layer 1
 62
256
370
9
 48
1.0
  6
BYLAYER
100
AcDbLine
 10
78.153333333333336
 20
207.0
 30
0.0
 11
79.846666666666664
 21
207.0
 31
0.0
  0
LINE
  5
3F2
100
AcDbEntity
  8
layer 1
 62
256
370
9
 48
1.0
  6
BYLAYER
100
AcDbLine
 10
15.8466666666666569
 20
15.0
 30
0.0
 11
17.5399999999999991
 21
15.0
 31
0.0
  0
LINE
  5
3F3
100
AcDbEntity
  8
layer 1
 62
256
370
9
 48
1.0
  6
BYLAYER
100
AcDbLine
 10
79.846666666666664
 20
15.0
 30
0.0
 11
81.539999999999992
 21
15.0
 31
0.0
  0
LINE
  5
3F4
100
AcDbEntity
  8
layer 1
 62
256
370
9
 48
1.0
  6
BYLAYER
100
AcDbLine
 10
15.846666666666664
 20
79.0
 30
0.0
 11
17.5400000000000063
 21
79.0
 31
0.0
  0
LINE
  5
3F5
100
AcDbEntity
  8
layer 1
 62
256
370
9
 48
1.0
  6
BYLAYER
100
AcDbLine
 10
79.846666666666664
 20
79.0
 30
0.0
 11
81.539999999999992
 21
79.0
 31
0.0
  0
LINE
  5
3F6
100
AcDbEntity
  8
layer 1
 62
256
370
9
 48
1.0
  6
BYLAYER
100
AcDbLine
 10
15.846666666666664
 20
143.0
 30
0.0
 11
17.5400000000000063
 21
143.0
 31
0.0
  0
LINE
  5
3F7
100
AcDbEntity
  8
layer 1
 62
256
370
9
 48
1.0
  6
BYLAYER
100
AcDbLine
 10
79.846666666666664
 20
143.0
 30
0.0
 11
81.539999999999992
 21
143.0
 31
0.0
  0
LINE
  5
3F8
100
AcDbEntity
  8
layer 1
 62
256
370
9
 48
1.0
  6
BYLAYER
100
AcDbLine
 10
15.8466666666666711
 20
207.0
 30
0.0
 11
17.5400000000000134
 21
207.0
 31
0.0
  0
LINE
  5
3F9
100
AcDbEntity
  8
layer 1
 62
256
370
9
 48
1.0
  6
BYLAYER
100
AcDbLine
 10
79.846666666666664
 20
207.0
 30
0.0
 11
81.539999999999992
 21
207.0
 31
0.0
  0
LINE
  5
3FA
100
AcDbEntity
  8
layer 1
 62
256
370
9
 48
1.0
  6
BYLAYER
100
AcDbLine
 10
17.5399999999999991
 20
15.0
 30
0.0
 11
17.5399999999999991
 21
9.9199999999999946
 31
0.0
  0
LINE
  5
3FB
100
AcDbEntity
  8
layer 1
 62
256
370
9
 48
1.0
  6
BYLAYER
100
AcDbLine
 10
81.539999999999992
 20
15.0
 30
0.0
 11
81.539999999999992
 21
9.9199999999999946
 31
0.0
  0
LINE
  5
3FC
100
AcDbEntity
  8
layer 1
 62
256
370
9
 48
1.0
  6
BYLAYER
100
AcDbLine
 10
17.5400000000000063
 20
79.0
 30
0.0
 11
17.5400000000000063
 21
73.9199999999999875
 31
0.0
  0
LINE
  5
3FD
100
AcDbEntity
  8
layer 1
 62
256
370
9
 48
1.0
  6
BYLAYER
100
AcDbLine
 10
81.539999999999992
 20
79.0
 30
0.0
 11
81.539999999999992
 21
73.9199999999999875
 31
0.0
  0
LINE
  5
3FE
100
AcDbEntity
  8
layer 1
 62
256
370
9
 48
1.0
  6
BYLAYER
100
AcDbLine
 10
17.5400000000000063
 20
143.0
 30
0.0
 11
17.5400000000000063
 21
137.9199999999999875
 31
0.0
  0
LINE
  5
3FF
100
AcDbEntity
  8
layer 1
 62
256
370
9
 48
1.0
  6
BYLAYER
100
AcDbLine
 10
81.539999999999992
 20
143.0
 30
0.0
 11
81.539999999999992
 21
137.9199999999999875
 31
0.0
  0
LINE
  5
400
100
AcDbEntity
  8
layer 1
 62
256
370
9
 48
1.0
  6
BYLAYER
100
AcDbLine
 10
17.5400000000000134
 20
207.0
 30
0.0
 11
17.5400000000000134
 21
201.9199999999999875
 31
0.0
  0
LINE
  5
401
100
AcDbEntity
  8
layer 1
 62
256
370
9
 48
1.0
  6
BYLAYER
100
AcDbLine
 10
81.539999999999992
 20
207.0
 30
0.0
 11
81.539999999999992
 21
201.9199999999999875
 31
0.0
  0
LINE
  5
402
100
AcDbEntity
  8
layer 1
 62
256
370
9
 48
1.0
  6
BYLAYER
100
AcDbLine
 10
17.5399999999999991
 20
9.9199999999999946
 30
0.0
 11
20.0799999999999912
 21
9.9199999999999946
 31
0.0
  0
LINE
  5
403
100
AcDbEntity
  8
layer 1
 62
256
370
9
 48
1.0
  6
BYLAYER
100
AcDbLine
 10
81.539999999999992
 20
9.9199999999999946
 30
0.0
 11
84.0799999999999841
 21
9.9199999999999946
 31
0.0
  0
LINE
  5
404
100
AcDbEntity
  8
layer 1
 62
256
370
9
 48
1.0
  6
BYLAYER
100
AcDbLine
 10
17.5400000000000063
 20
73.9199999999999875
 30
0.0
 11
20.0799999999999983
 21
73.9199999999999875
 31
0.0
  0
LINE
  5
405
100
AcDbEntity
  8
layer 1
 62
256
370
9
 48
1.0
  6
BYLAYER
100
AcDbLine
 10
81.539999999999992
 20
73.9199999999999875
 30
0.0
 11
84.0799999999999841
 21
73.9199999999999875
 31
0.0
  0
LINE
  5
406
100
AcDbEntity
  8
layer 1
 62
256
370
9
 48
1.0
  6
BYLAYER
100
AcDbLine
 10
17.5400000000000063
 20
137.9199999999999875
 30
0.0
 11
20.0799999999999983
 21
137.9199999999999875
 31
0.0
  0
LINE
  5
407
100
AcDbEntity
  8
layer 1
 62
256
370
9
 48
1.0
  6
BYLAYER
100
AcDbLine
 10
81.539999999999992
 20
137.9199999999999875
 30
0.0
 11
84.0799999999999841
 21
137.9199999999999875
 31
0.0
  0
LINE
  5
408
100
AcDbEntity
  8
layer 1
 62
256
370
9
 48
1.0
  6
BYLAYER
100
AcDbLine
 10
17.5400000000000134
 20
201.9199999999999875
 30
0.0
 11
20.0800000000000054
 21
201.9199999999999875
 31
0.0
  0
LINE
  5
409
100
AcDbEntity
  8
layer 1
 62
256
370
9
 48
1.0
  6
BYLAYER
100
AcDbLine
 10
81.539999999999992
 20
201.9199999999999875
 30
0.0
 11
84.0799999999999841
 21
201.9199999999999875
 31
0.0
  0
LINE
  5
40A
100
AcDbEntity
  8
layer 1
 62
256
370
9
 48
1.0
  6
BYLAYER
100
AcDbLine
 10
20.0799999999999912
 20
9.9199999999999946
 30
0.0
 11
20.0799999999999912
 21
16.7695333333333352
 31
0.0
  0
LINE
  5
40B
100
AcDbEntity
  8
layer 1
 62
256
370
9
 48
1.0
  6
BYLAYER
100
AcDbLine
 10
84.0799999999999841
 20
9.9199999999999946
 30
0.0
 11
84.0799999999999841
 21
16.7695333333333352
 31
0.0
  0
LINE
  5
40C
100
AcDbEntity
  8
layer 1
 62
256
370
9
 48
1.0
  6
BYLAYER
100
AcDbLine
 10
20.0799999999999983
 20
73.9199999999999875
 30
0.0
 11
20.0799999999999983
 21
80.7695333333333281
 31
0.0
  0
LINE
  5
40D
100
AcDbEntity
  8
layer 1
 62
256
370
9
 48
1.0
  6
BYLAYER
100
AcDbLine
 10
84.0799999999999841
 20
73.9199999999999875
 30
0.0
 11
84.0799999999999841
 21
80.7695333333333281
 31
0.0
  0
LINE
  5
40E
100
AcDbEntity
  8
layer 1
 62
256
370
9
 48
1.0
  6
BYLAYER
100
AcDbLine
 10
20.0799999999999983
 20
137.9199999999999875
 30
0.0
 11
20.0799999999999983
 21
144.7695333333333281
 31
0.0
  0
LINE
  5
40F
100
AcDbEntity
  8
layer 1
 62
256
370
9
 48
1.0
  6
BYLAYER
100
AcDbLine
 10
84.0799999999999841
 20
137.9199999999999875
 30
0.0
 11
84.0799999999999841
 21
144.7695333333333281
 31
0.0
  0
LINE
  5
410
100
AcDbEntity
  8
layer 1
 62
256
370
9
 48
1.0
  6
BYLAYER
100
AcDbLine
 10
20.0800000000000054
 20
201.9199999999999875
 30
0.0
 11
20.0800000000000054
 21
208.7695333333333281
 31
0.0
  0
LINE
  5
411
100
AcDbEntity
  8
layer 1
 62
256
370
9
 48
1.0
  6
BYLAYER
100
AcDbLine
 10
84.0799999999999841
 20
201.9199999999999875
 30
0.0
 11
84.0799999999999841
 21
208.7695333333333281
 31
0.0
  0
LINE
  5
412
100
AcDbEntity
  8
layer 1
 62
256
370
9
 48
1.0
  6
BYLAYER
100
AcDbLine
 10
20.0799999999999912
 20
16.7695333333333352
 30
0.0
 11
14.9999999999999964
 21
21.8495333333333193
 31
0.0
  0
LINE
  5
413
100
AcDbEntity
  8
layer 1
 62
256
370
9
 48
1.0
  6
BYLAYER
100
AcDbLine
 10
84.0799999999999841
 20
16.7695333333333352
 30
0.0
 11
79.0
 21
21.8495333333333193
 31
0.0
  0
LINE
  5
414
100
AcDbEntity
  8
layer 1
 62
256
370
9
 48
1.0
  6
BYLAYER
100
AcDbLine
 10
20.0799999999999983
 20
80.7695333333333281
 30
0.0
 11
15.0000000000000036
 21
85.8495333333333122
 31
0.0
  0
LINE
  5
415
100
AcDbEntity
  8
layer 1
 62
256
370
9
 48
1.0
  6
BYLAYER
100
AcDbLine
 10
84.0799999999999841
 20
80.7695333333333281
 30
0.0
 11
79.0
 21
85.8495333333333122
 31
0.0
  0
LINE
  5
416
100
AcDbEntity
  8
layer 1
 62
256
370
9
 48
1.0
  6
BYLAYER
100
AcDbLine
 10
20.0799999999999983
 20
144.7695333333333281
 30
0.0
 11
15.0000000000000036
 21
149.8495333333333122
 31
0.0
  0
LINE
  5
417
100
AcDbEntity
  8
layer 1
 62
256
370
9
 48
1.0
  6
BYLAYER
100
AcDbLine
 10
84.0799999999999841
 20
144.7695333333333281
 30
0.0
 11
79.0
 21
149.8495333333333122
 31
0.0
  0
LINE
  5
418
100
AcDbEntity
  8
layer 1
 62
256
370
9
 48
1.0
  6
BYLAYER
100
AcDbLine
 10
20.0800000000000054
 20
208.7695333333333281
 30
0.0
 11
15.0000000000000107
 21
213.8495333333333122
 31
0.0
  0
LINE
  5
419
100
AcDbEntity
  8
layer 1
 62
256
370
9
 48
1.0
  6
BYLAYER
100
AcDbLine
 10
84.0799999999999841
 20
208.7695333333333281
 30
0.0
 11
79.0
 21
213.8495333333333122
 31
0.0
  0
LINE
  5
41A
100
AcDbEntity
  8
layer 1
 62
256
370
9
 48
1.0
  6
BYLAYER
100
AcDbLine
 10
14.9999999999999964
 20
21.8495333333333193
 30
0.0
 11
9.9200000000000017
 21
16.7695333333333352
 31
0.0
  0
LINE
  5
41B
100
AcDbEntity
  8
layer 1
 62
256
370
9
 48
1.0
  6
BYLAYER
100
AcDbLine
 10
79.0
 20
21.8495333333333193
 30
0.0
 11
73.9200000000000017
 21
16.7695333333333352
 31
0.0
  0
LINE
  5
41C
100
AcDbEntity
  8
layer 1
 62
256
370
9
 48
1.0
  6
BYLAYER
100
AcDbLine
 10
15.0000000000000036
 20
85.8495333333333122
 30
0.0
 11
9.9200000000000088
 21
80.7695333333333281
 31
0.0
  0
LINE
  5
41D
100
AcDbEntity
  8
layer 1
 62
256
370
9
 48
1.0
  6
BYLAYER
100
AcDbLine
 10
79.0
 20
85.8495333333333122
 30
0.0
 11
73.9200000000000159
 21
80.7695333333333281
 31
0.0
  0
LINE
  5
41E
100
AcDbEntity
  8
layer 1
 62
256
370
9
 48
1.0
  6
BYLAYER
100
AcDbLine
 10
15.0000000000000036
 20
149.8495333333333122
 30
0.0
 11
9.9200000000000088
 21
144.7695333333333281
 31
0.0
  0
LINE
  5
41F
100
AcDbEntity
  8
layer 1
 62
256
370
9
 48
1.0
  6
BYLAYER
100
AcDbLine
 10
79.0
 20
149.8495333333333122
 30
0.0
 11
73.9200000000000159
 21
144.7695333333333281
 31
0.0
  0
LINE
  5
420
100
AcDbEntity
  8
layer 1
 62
256
370
9
 48
1.0
  6
BYLAYER
100
AcDbLine
 10
15.0000000000000107
 20
213.8495333333333122
 30
0.0
 11
9.9200000000000159
 21
208.7695333333333281
 31
0.0
  0
LINE
  5
421
100
AcDbEntity
  8
layer 1
 62
256
370
9
 48
1.0
  6
BYLAYER
100
AcDbLine
 10
79.0
 20
213.8495333333333122
 30
0.0
 11
73.9200000000000159
 21
208.7695333333333281
 31
0.0
  0
LINE
  5
422
100
AcDbEntity
  8
layer 1
 62
256
370
9
 48
1.0
  6
BYLAYER
100
AcDbLine
 10
9.9200000000000017
 20
16.7695333333333352
 30
0.0
 11
9.9200000000000017
 21
9.9199999999999946
 31
0.0
  0
LINE
  5
423
100
AcDbEntity
  8
layer 1
 62
256
370
9
 48
1.0
  6
BYLAYER
100
AcDbLine
 10
73.9200000000000017
 20
16.7695333333333352
 30
0.0
 11
73.9200000000000017
 21
9.9199999999999946
 31
0.0
  0
LINE
  5
424
100
AcDbEntity
  8
layer 1
 62
256
370
9
 48
1.0
  6
BYLAYER
100
AcDbLine
 10
9.9200000000000088
 20
80.7695333333333281
 30
0.0
 11
9.9200000000000088
 21
73.9199999999999875
 31
0.0
  0
LINE
  5
425
100
AcDbEntity
  8
layer 1
 62
256
370
9
 48
1.0
  6
BYLAYER
100
AcDbLine
 10
73.9200000000000159
 20
80.7695333333333281
 30
0.0
 11
73.9200000000000159
 21
73.9199999999999875
 31
0.0
  0
LINE
  5
426
100
AcDbEntity
  8
layer 1
 62
256
370
9
 48
1.0
  6
BYLAYER
100
AcDbLine
 10
9.9200000000000088
 20
144.7695333333333281
 30
0.0
 11
9.9200000000000088
 21
137.9199999999999875
 31
0.0
  0
LINE
  5
427
100
AcDbEntity
  8
layer 1
 62
256
370
9
 48
1.0
  6
BYLAYER
100
AcDbLine
 10
73.9200000000000159
 20
144.7695333333333281
 30
0.0
 11
73.9200000000000159
 21
137.9199999999999875
 31
0.0
  0
LINE
  5
428
100
AcDbEntity
  8
layer 1
 62
256
370
9
 48
1.0
  6
BYLAYER
100
AcDbLine
 10
9.9200000000000159
 20
208.7695333333333281
 30
0.0
 11
9.9200000000000159
 21
201.9199999999999875
 31
0.0
  0
LINE
  5
429
100
AcDbEntity
  8
layer 1
 62
256
370
9
 48
1.0
  6
BYLAYER
100
AcDbLine
 10
73.9200000000000159
 20
208.7695333333333281
 30
0.0
 11
73.9200000000000159
 21
201.9199999999999875
 31
0.0
  0
LINE
  5
42A
100
AcDbEntity
  8
layer 1
 62
256
370
9
 48
1.0
  6
BYLAYER
100
AcDbLine
 10
9.9200000000000017
 20
9.9199999999999946
 30
0.0
 11
12.4599999999999937
 21
9.9199999999999946
 31
0.0
  0
LINE
  5
42B
100
AcDbEntity
  8
layer 1
 62
256
370
9
 48
1.0
  6
BYLAYER
100
AcDbLine
 10
73.9200000000000017
 20
9.9199999999999946
 30
0.0
 11
76.4599999999999937
 21
9.9199999999999946
 31
0.0
  0
LINE
  5
42C
100
AcDbEntity
  8
layer 1
 62
256
370
9
 48
1.0
  6
BYLAYER
100
AcDbLine
 10
9.9200000000000088
 20
73.9199999999999875
 30
0.0
 11
12.4600000000000009
 21
73.9199999999999875
 31
0.0
  0
LINE
  5
42D
100
AcDbEntity
  8
layer 1
 62
256
370
9
 48
1.0
  6
BYLAYER
100
AcDbLine
 10
73.9200000000000159
 20
73.9199999999999875
 30
0.0
 11
76.460000000000008
 21
73.9199999999999875
 31
0.0
  0
LINE
  5
42E
100
AcDbEntity
  8
layer 1
 62
256
370
9
 48
1.0
  6
BYLAYER
100
AcDbLine
 10
9.9200000000000088
 20
137.9199999999999875
 30
0.0
 11
12.4600000000000009
 21
137.9199999999999875
 31
0.0
  0
LINE
  5
42F
100
AcDbEntity
  8
layer 1
 62
256
370
9
 48
1.0
  6
BYLAYER
100
AcDbLine
 10
73.9200000000000159
 20
137.9199999999999875
 30
0.0
 11
76.460000000000008
 21
137.9199999999999875
 31
0.0
  0
LINE
  5
430
100
AcDbEntity
  8
layer 1
 62
256
370
9
 48
1.0
  6
BYLAYER
100
AcDbLine
 10
9.9200000000000159
 20
201.9199999999999875
 30
0.0
 11
12.460000000000008
 21
201.9199999999999875
 31
0.0
  0
LINE
  5
431
100
AcDbEntity
  8
layer 1
 62
256
370
9
 48
1.0
  6
BYLAYER
100
AcDbLine
 10
73.9200000000000159
 20
201.9199999999999875
 30
0.0
 11
76.460000000000008
 21
201.9199999999999875
 31
0.0
  0
LINE
  5
432
100
AcDbEntity
  8
layer 1
 62
256
370
9
 48
1.0
  6
BYLAYER
100
AcDbLine
 10
14.9999999999999964
 20
24.2371333333333325
 30
0.0
 11
23.3904666666666614
 21
15.8466666666666711
 31
0.0
  0
LINE
  5
433
100
AcDbEntity
  8
layer 1
 62
256
370
9
 48
1.0
  6
BYLAYER
100
AcDbLine
 10
79.0
 20
24.2371333333333325
 30
0.0
 11
87.3904666666666685
 21
15.8466666666666711
 31
0.0
  0
LINE
  5
434
100
AcDbEntity
  8
layer 1
 62
256
370
9
 48
1.0
  6
BYLAYER
100
AcDbLine
 10
15.0000000000000036
 20
88.2371333333333325
 30
0.0
 11
23.3904666666666685
 21
79.846666666666664
 31
0.0
  0
LINE
  5
435
100
AcDbEntity
  8
layer 1
 62
256
370
9
 48
1.0
  6
BYLAYER
100
AcDbLine
 10
79.0
 20
88.2371333333333325
 30
0.0
 11
87.3904666666666685
 21
79.846666666666664
 31
0.0
  0
LINE
  5
436
100
AcDbEntity
  8
layer 1
 62
256
370
9
 48
1.0
  6
BYLAYER
100
AcDbLine
 10
15.0000000000000036
 20
152.2371333333333325
 30
0.0
 11
23.3904666666666685
 21
143.846666666666664
 31
0.0
  0
LINE
  5
437
100
AcDbEntity
  8
layer 1
 62
256
370
9
 48
1.0
  6
BYLAYER
100
AcDbLine
 10
79.0
 20
152.2371333333333325
 30
0.0
 11
87.3904666666666685
 21
143.846666666666664
 31
0.0
  0
LINE
  5
438
100
AcDbEntity
  8
layer 1
 62
256
370
9
 48
1.0
  6
BYLAYER
100
AcDbLine
 10
15.0000000000000107
 20
216.2371333333333325
 30
0.0
 11
23.3904666666666756
 21
207.846666666666664
 31
0.0
  0
LINE
  5
439
100
AcDbEntity
  8
layer 1
 62
256
370
9
 48
1.0
  6
BYLAYER
100
AcDbLine
 10
79.0
 20
216.2371333333333325
 30
0.0
 11
87.3904666666666685
 21
207.846666666666664
 31
0.0
  0
LINE
  5
43A
100
AcDbEntity
  8
layer 1
 62
256
370
9
 48
1.0
  6
BYLAYER
100
AcDbLine
 10
23.3904666666666614
 20
15.8466666666666711
 30
0.0
 11
21.7733333333333334
 21
15.8466666666666711
 31
0.0
  0
LINE
  5
43B
100
AcDbEntity
  8
layer 1
 62
256
370
9
 48
1.0
  6
BYLAYER
100
AcDbLine
 10
87.3904666666666685
 20
15.8466666666666711
 30
0.0
 11
85.7733333333333405
 21
15.8466666666666711
 31
0.0
  0
LINE
  5
43C
100
AcDbEntity
  8
layer 1
 62
256
370
9
 48
1.0
  6
BYLAYER
100
AcDbLine
 10
23.3904666666666685
 20
79.846666666666664
 30
0.0
 11
21.7733333333333405
 21
79.846666666666664
 31
0.0
  0
LINE
  5
43D
100
AcDbEntity
  8
layer 1
 62
256
370
9
 48
1.0
  6
BYLAYER
100
AcDbLine
 10
87.3904666666666685
 20
79.846666666666664
 30
0.0
 11
85.7733333333333405
 21
79.846666666666664
 31
0.0
  0
LINE
  5
43E
100
AcDbEntity
  8
layer 1
 62
256
370
9
 48
1.0
  6
BYLAYER
100
AcDbLine
 10
23.3904666666666685
 20
143.846666666666664
 30
0.0
 11
21.7733333333333405
 21
143.846666666666664
 31
0.0
  0
LINE
  5
43F
100
AcDbEntity
  8
layer 1
 62
256
370
9
 48
1.0
  6
BYLAYER
100
AcDbLine
 10
87.3904666666666685
 20
143.846666666666664
 30
0.0
 11
85.7733333333333405
 21
143.846666666666664
 31
0.0
  0
LINE
  5
440
100
AcDbEntity
  8
layer 1
 62
256
370
9
 48
1.0
  6
BYLAYER
100
AcDbLine
 10
23.3904666666666756
 20
207.846666666666664
 30
0.0
 11
21.7733333333333476
 21
207.846666666666664
 31
0.0
  0
LINE
  5
441
100
AcDbEntity
  8
layer 1
 62
256
370
9
 48
1.0
  6
BYLAYER
100
AcDbLine
 10
87.3904666666666685
 20
207.846666666666664
 30
0.0
 11
85.7733333333333405
 21
207.846666666666664
 31
0.0
  0
LINE
  5
442
100
AcDbEntity
  8
layer 1
 62
256
370
9
 48
1.0
  6
BYLAYER
100
AcDbLine
 10
21.7733333333333334
 20
15.8466666666666711
 30
0.0
 11
21.7733333333333334
 21
8.2266666666666524
 31
0.0
  0
LINE
  5
443
100
AcDbEntity
  8
layer 1
 62
256
370
9
 48
1.0
  6
BYLAYER
100
AcDbLine
 10
85.7733333333333405
 20
15.8466666666666711
 30
0.0
 11
85.7733333333333405
 21
8.2266666666666524
 31
0.0
  0
LINE
  5
444
100
AcDbEntity
  8
layer 1
 62
256
370
9
 48
1.0
  6
BYLAYER
100
AcDbLine
 10
21.7733333333333405
 20
79.846666666666664
 30
0.0
 11
21.7733333333333405
 21
72.2266666666666595
 31
0.0
  0
LINE
  5
445
100
AcDbEntity
  8
layer 1
 62
256
370
9
 48
1.0
  6
BYLAYER
100
AcDbLine
 10
85.7733333333333405
 20
79.846666666666664
 30
0.0
 11
85.7733333333333405
 21
72.2266666666666595
 31
0.0
  0
LINE
  5
446
100
AcDbEntity
  8
layer 1
 62
256
370
9
 48
1.0
  6
BYLAYER
100
AcDbLine
 10
21.7733333333333405
 20
143.846666666666664
 30
0.0
 11
21.7733333333333405
 21
136.2266666666666595
 31
0.0
  0
LINE
  5
447
100
AcDbEntity
  8
layer 1
 62
256
370
9
 48
1.0
  6
BYLAYER
100
AcDbLine
 10
85.7733333333333405
 20
143.846666666666664
 30
0.0
 11
85.7733333333333405
 21
136.2266666666666595
 31
0.0
  0
LINE
  5
448
100
AcDbEntity
  8
layer 1
 62
256
370
9
 48
1.0
  6
BYLAYER
100
AcDbLine
 10
21.7733333333333476
 20
207.846666666666664
 30
0.0
 11
21.7733333333333476
 21
200.2266666666666595
 31
0.0
  0
LINE
  5
449
100
AcDbEntity
  8
layer 1
 62
256
370
9
 48
1.0
  6
BYLAYER
100
AcDbLine
 10
85.7733333333333405
 20
207.846666666666664
 30
0.0
 11
85.7733333333333405
 21
200.2266666666666595
 31
0.0
  0
LINE
  5
44A
100
AcDbEntity
  8
layer 1
 62
256
370
9
 48
1.0
  6
BYLAYER
100
AcDbLine
 10
21.7733333333333334
 20
8.2266666666666524
 30
0.0
 11
15.8466666666666569
 21
8.2266666666666524
 31
0.0
  0
LINE
  5
44B
100
AcDbEntity
  8
layer 1
 62
256
370
9
 48
1.0
  6
BYLAYER
100
AcDbLine
 10
85.7733333333333405
 20
8.2266666666666524
 30
0.0
 11
79.846666666666664
 21
8.2266666666666524
 31
0.0
  0
LINE
  5
44C
100
AcDbEntity
  8
layer 1
 62
256
370
9
 48
1.0
  6
BYLAYER
100
AcDbLine
 10
21.7733333333333405
 20
72.2266666666666595
 30
0.0
 11
15.846666666666664
 21
72.2266666666666595
 31
0.0
  0
LINE
  5
44D
100
AcDbEntity
  8
layer 1
 62
256
370
9
 48
1.0
  6
BYLAYER
100
AcDbLine
 10
85.7733333333333405
 20
72.2266666666666595
 30
0.0
 11
79.846666666666664
 21
72.2266666666666595
 31
0.0
  0
LINE
  5
44E
100
AcDbEntity
  8
layer 1
 62
256
370
9
 48
1.0
  6
BYLAYER
100
AcDbLine
 10
21.7733333333333405
 20
136.2266666666666595
 30
0.0
 11
15.846666666666664
 21
136.2266666666666595
 31
0.0
  0
LINE
  5
44F
100
AcDbEntity
  8
layer 1
 62
256
370
9
 48
1.0
  6
BYLAYER
100
AcDbLine
 10
85.7733333333333405
 20
136.2266666666666595
 30
0.0
 11
79.846666666666664
 21
136.2266666666666595
 31
0.0
  0
LINE
  5
450
100
AcDbEntity
  8
layer 1
 62
256
370
9
 48
1.0
  6
BYLAYER
100
AcDbLine
 10
21.7733333333333476
 20
200.2266666666666595
 30
0.0
 11
15.8466666666666711
 21
200.2266666666666595
 31
0.0
  0
LINE
  5
451
100
AcDbEntity
  8
layer 1
 62
256
370
9
 48
1.0
  6
BYLAYER
100
AcDbLine
 10
85.7733333333333405
 20
200.2266666666666595
 30
0.0
 11
79.846666666666664
 21
200.2266666666666595
 31
0.0
  0
LINE
  5
452
100
AcDbEntity
  8
layer 1
 62
256
370
9
 48
1.0
  6
BYLAYER
100
AcDbLine
 10
15.8466666666666569
 20
8.2266666666666524
 30
0.0
 11
15.8466666666666569
 21
13.3066666666666578
 31
0.0
  0
LINE
  5
453
100
AcDbEntity
  8
layer 1
 62
256
370
9
 48
1.0
  6
BYLAYER
100
AcDbLine
 10
79.846666666666664
 20
8.2266666666666524
 30
0.0
 11
79.846666666666664
 21
13.3066666666666578
 31
0.0
  0
LINE
  5
454
100
AcDbEntity
  8
layer 1
 62
256
370
9
 48
1.0
  6
BYLAYER
100
AcDbLine
 10
15.846666666666664
 20
72.2266666666666595
 30
0.0
 11
15.846666666666664
 21
77.3066666666666578
 31
0.0
  0
LINE
  5
455
100
AcDbEntity
  8
layer 1
 62
256
370
9
 48
1.0
  6
BYLAYER
100
AcDbLine
 10
79.846666666666664
 20
72.2266666666666595
 30
0.0
 11
79.846666666666664
 21
77.3066666666666578
 31
0.0
  0
LINE
  5
456
100
AcDbEntity
  8
layer 1
 62
256
370
9
 48
1.0
  6
BYLAYER
100
AcDbLine
 10
15.846666666666664
 20
136.2266666666666595
 30
0.0
 11
15.846666666666664
 21
141.306666666666672
 31
0.0
  0
LINE
  5
457
100
AcDbEntity
  8
layer 1
 62
256
370
9
 48
1.0
  6
BYLAYER
100
AcDbLine
 10
79.846666666666664
 20
136.2266666666666595
 30
0.0
 11
79.846666666666664
 21
141.306666666666672
 31
0.0
  0
LINE
  5
458
100
AcDbEntity
  8
layer 1
 62
256
370
9
 48
1.0
  6
BYLAYER
100
AcDbLine
 10
15.8466666666666711
 20
200.2266666666666595
 30
0.0
 11
15.8466666666666711
 21
205.306666666666672
 31
0.0
  0
LINE
  5
459
100
AcDbEntity
  8
layer 1
 62
256
370
9
 48
1.0
  6
BYLAYER
100
AcDbLine
 10
79.846666666666664
 20
200.2266666666666595
 30
0.0
 11
79.846666666666664
 21
205.306666666666672
 31
0.0
  0
LINE
  5
45A
100
AcDbEntity
  8
layer 1
 62
256
370
9
 48
1.0
  6
BYLAYER
100
AcDbLine
 10
15.8466666666666569
 20
13.3066666666666578
 30
0.0
 11
14.1533333333333253
 21
13.3066666666666578
 31
0.0
  0
LINE
  5
45B
100
AcDbEntity
  8
layer 1
 62
256
370
9
 48
1.0
  6
BYLAYER
100
AcDbLine
 10
79.846666666666664
 20
13.3066666666666578
 30
0.0
 11
78.1533333333333218
 21
13.3066666666666578
 31
0.0
  0
LINE
  5
45C
100
AcDbEntity
  8
layer 1
 62
256
370
9
 48
1.0
  6
BYLAYER
100
AcDbLine
 10
15.846666666666664
 20
77.3066666666666578
 30
0.0
 11
14.1533333333333324
 21
77.3066666666666578
 31
0.0
  0
LINE
  5
45D
100
AcDbEntity
  8
layer 1
 62
256
370
9
 48
1.0
  6
BYLAYER
100
AcDbLine
 10
79.846666666666664
 20
77.3066666666666578
 30
0.0
 11
78.153333333333336
 21
77.3066666666666578
 31
0.0
  0
LINE
  5
45E
100
AcDbEntity
  8
layer 1
 62
256
370
9
 48
1.0
  6
BYLAYER
100
AcDbLine
 10
15.846666666666664
 20
141.306666666666672
 30
0.0
 11
14.1533333333333324
 21
141.306666666666672
 31
0.0
  0
LINE
  5
45F
100
AcDbEntity
  8
layer 1
 62
256
370
9
 48
1.0
  6
BYLAYER
100
AcDbLine
 10
79.846666666666664
 20
141.306666666666672
 30
0.0
 11
78.153333333333336
 21
141.306666666666672
 31
0.0
  0
LINE
  5
460
100
AcDbEntity
  8
layer 1
 62
256
370
9
 48
1.0
  6
BYLAYER
100
AcDbLine
 10
15.8466666666666711
 20
205.306666666666672
 30
0.0
 11
14.1533333333333395
 21
205.306666666666672
 31
0.0
  0
LINE
  5
461
100
AcDbEntity
  8
layer 1
 62
256
370
9
 48
1.0
  6
BYLAYER
100
AcDbLine
 10
79.846666666666664
 20
205.306666666666672
 30
0.0
 11
78.153333333333336
 21
205.306666666666672
 31
0.0
  0
LINE
  5
462
100
AcDbEntity
  8
layer 1
 62
256
370
9
 48
1.0
  6
BYLAYER
100
AcDbLine
 10
14.1533333333333253
 20
13.3066666666666578
 30
0.0
 11
14.1533333333333253
 21
8.2266666666666524
 31
0.0
  0
LINE
  5
463
100
AcDbEntity
  8
layer 1
 62
256
370
9
 48
1.0
  6
BYLAYER
100
AcDbLine
 10
78.1533333333333218
 20
13.3066666666666578
 30
0.0
 11
78.1533333333333218
 21
8.2266666666666524
 31
0.0
  0
LINE
  5
464
100
AcDbEntity
  8
layer 1
 62
256
370
9
 48
1.0
  6
BYLAYER
100
AcDbLine
 10
14.1533333333333324
 20
77.3066666666666578
 30
0.0
 11
14.1533333333333324
 21
72.2266666666666595
 31
0.0
  0
LINE
  5
465
100
AcDbEntity
  8
layer 1
 62
256
370
9
 48
1.0
  6
BYLAYER
100
AcDbLine
 10
78.153333333333336
 20
77.3066666666666578
 30
0.0
 11
78.153333333333336
 21
72.2266666666666595
 31
0.0
  0
LINE
  5
466
100
AcDbEntity
  8
layer 1
 62
256
370
9
 48
1.0
  6
BYLAYER
100
AcDbLine
 10
14.1533333333333324
 20
141.306666666666672
 30
0.0
 11
14.1533333333333324
 21
136.2266666666666595
 31
0.0
  0
LINE
  5
467
100
AcDbEntity
  8
layer 1
 62
256
370
9
 48
1.0
  6
BYLAYER
100
AcDbLine
 10
78.153333333333336
 20
141.306666666666672
 30
0.0
 11
78.153333333333336
 21
136.2266666666666595
 31
0.0
  0
LINE
  5
468
100
AcDbEntity
  8
layer 1
 62
256
370
9
 48
1.0
  6
BYLAYER
100
AcDbLine
 10
14.1533333333333395
 20
205.306666666666672
 30
0.0
 11
14.1533333333333395
 21
200.2266666666666595
 31
0.0
  0
LINE
  5
469
100
AcDbEntity
  8
layer 1
 62
256
370
9
 48
1.0
  6
BYLAYER
100
AcDbLine
 10
78.153333333333336
 20
205.306666666666672
 30
0.0
 11
78.153333333333336
 21
200.2266666666666595
 31
0.0
  0
LINE
  5
46A
100
AcDbEntity
  8
layer 1
 62
256
370
9
 48
1.0
  6
BYLAYER
100
AcDbLine
 10
14.1533333333333253
 20
8.2266666666666524
 30
0.0
 11
8.2266666666666595
 21
8.2266666666666524
 31
0.0
  0
LINE
  5
46B
100
AcDbEntity
  8
layer 1
 62
256
370
9
 48
1.0
  6
BYLAYER
100
AcDbLine
 10
78.1533333333333218
 20
8.2266666666666524
 30
0.0
 11
72.2266666666666595
 21
8.2266666666666524
 31
0.0
  0
LINE
  5
46C
100
AcDbEntity
  8
layer 1
 62
256
370
9
 48
1.0
  6
BYLAYER
100
AcDbLine
 10
14.1533333333333324
 20
72.2266666666666595
 30
0.0
 11
8.2266666666666666
 21
72.2266666666666595
 31
0.0
  0
LINE
  5
46D
100
AcDbEntity
  8
layer 1
 62
256
370
9
 48
1.0
  6
BYLAYER
100
AcDbLine
 10
78.153333333333336
 20
72.2266666666666595
 30
0.0
 11
72.2266666666666595
 21
72.2266666666666595
 31
0.0
  0
LINE
  5
46E
100
AcDbEntity
  8
layer 1
 62
256
370
9
 48
1.0
  6
BYLAYER
100
AcDbLine
 10
14.1533333333333324
 20
136.2266666666666595
 30
0.0
 11
8.2266666666666666
 21
136.2266666666666595
 31
0.0
  0
LINE
  5
46F
100
AcDbEntity
  8
layer 1
 62
256
370
9
 48
1.0
  6
BYLAYER
100
AcDbLine
 10
78.153333333333336
 20
136.2266666666666595
 30
0.0
 11
72.2266666666666595
 21
136.2266666666666595
 31
0.0
  0
LINE
  5
470
100
AcDbEntity
  8
layer 1
 62
256
370
9
 48
1.0
  6
BYLAYER
100
AcDbLine
 10
14.1533333333333395
 20
200.2266666666666595
 30
0.0
 11
8.2266666666666737
 21
200.2266666666666595
 31
0.0
  0
LINE
  5
471
100
AcDbEntity
  8
layer 1
 62
256
370
9
 48
1.0
  6
BYLAYER
100
AcDbLine
 10
78.153333333333336
 20
200.2266666666666595
 30
0.0
 11
72.2266666666666595
 21
200.2266666666666595
 31
0.0
  0
LINE
  5
472
100
AcDbEntity
  8
layer 1
 62
256
370
9
 48
1.0
  6
BYLAYER
100
AcDbLine
 10
8.2266666666666595
 20
8.2266666666666524
 30
0.0
 11
8.2266666666666595
 21
15.8466666666666711
 31
0.0
  0
LINE
  5
473
100
AcDbEntity
  8
layer 1
 62
256
370
9
 48
1.0
  6
BYLAYER
100
AcDbLine
 10
72.2266666666666595
 20
8.2266666666666524
 30
0.0
 11
72.2266666666666595
 21
15.8466666666666711
 31
0.0
  0
LINE
  5
474
100
AcDbEntity
  8
layer 1
 62
256
370
9
 48
1.0
  6
BYLAYER
100
AcDbLine
 10
8.2266666666666666
 20
72.2266666666666595
 30
0.0
 11
8.2266666666666666
 21
79.846666666666664
 31
0.0
  0
LINE
  5
475
100
AcDbEntity
  8
layer 1
 62
256
370
9
 48
1.0
  6
BYLAYER
100
AcDbLine
 10
72.2266666666666595
 20
72.2266666666666595
 30
0.0
 11
72.2266666666666595
 21
79.846666666666664
 31
0.0
  0
LINE
  5
476
100
AcDbEntity
  8
layer 1
 62
256
370
9
 48
1.0
  6
BYLAYER
100
AcDbLine
 10
8.2266666666666666
 20
136.2266666666666595
 30
0.0
 11
8.2266666666666666
 21
143.846666666666664
 31
0.0
  0
LINE
  5
477
100
AcDbEntity
  8
layer 1
 62
256
370
9
 48
1.0
  6
BYLAYER
100
AcDbLine
 10
72.2266666666666595
 20
136.2266666666666595
 30
0.0
 11
72.2266666666666595
 21
143.846666666666664
 31
0.0
  0
LINE
  5
478
100
AcDbEntity
  8
layer 1
 62
256
370
9
 48
1.0
  6
BYLAYER
100
AcDbLine
 10
8.2266666666666737
 20
200.2266666666666595
 30
0.0
 11
8.2266666666666737
 21
207.846666666666664
 31
0.0
  0
LINE
  5
479
100
AcDbEntity
  8
layer 1
 62
256
370
9
 48
1.0
  6
BYLAYER
100
AcDbLine
 10
72.2266666666666595
 20
200.2266666666666595
 30
0.0
 11
72.2266666666666595
 21
207.846666666666664
 31
0.0
  0
LINE
  5
47A
100
AcDbEntity
  8
layer 1
 62
256
370
9
 48
1.0
  6
BYLAYER
100
AcDbLine
 10
8.2266666666666595
 20
15.8466666666666711
 30
0.0
 11
6.6095333333333315
 21
15.8466666666666711
 31
0.0
  0
LINE
  5
47B
100
AcDbEntity
  8
layer 1
 62
256
370
9
 48
1.0
  6
BYLAYER
100
AcDbLine
 10
72.2266666666666595
 20
15.8466666666666711
 30
0.0
 11
70.6095333333333315
 21
15.8466666666666711
 31
0.0
  0
LINE
  5
47C
100
AcDbEntity
  8
layer 1
 62
256
370
9
 48
1.0
  6
BYLAYER
100
AcDbLine
 10
8.2266666666666666
 20
79.846666666666664
 30
0.0
 11
6.6095333333333386
 21
79.846666666666664
 31
0.0
  0
LINE
  5
47D
100
AcDbEntity
  8
layer 1
 62
256
370
9
 48
1.0
  6
BYLAYER
100
AcDbLine
 10
72.2266666666666595
 20
79.846666666666664
 30
0.0
 11
70.6095333333333315
 21
79.846666666666664
 31
0.0
  0
LINE
  5
47E
100
AcDbEntity
  8
layer 1
 62
256
370
9
 48
1.0
  6
BYLAYER
100
AcDbLine
 10
8.2266666666666666
 20
143.846666666666664
 30
0.0
 11
6.6095333333333386
 21
143.846666666666664
 31
0.0
  0
LINE
  5
47F
100
AcDbEntity
  8
layer 1
 62
256
370
9
 48
1.0
  6
BYLAYER
100
AcDbLine
 10
72.2266666666666595
 20
143.846666666666664
 30
0.0
 11
70.6095333333333315
 21
143.846666666666664
 31
0.0
  0
LINE
  5
480
100
AcDbEntity
  8
layer 1
 62
256
370
9
 48
1.0
  6
BYLAYER
100
AcDbLine
 10
8.2266666666666737
 20
207.846666666666664
 30
0.0
 11
6.6095333333333457
 21
207.846666666666664
 31
0.0
  0
LINE
  5
481
100
AcDbEntity
  8
layer 1
 62
256
370
9
 48
1.0
  6
BYLAYER
100
AcDbLine
 10
72.2266666666666595
 20
207.846666666666664
 30
0.0
 11
70.6095333333333315
 21
207.846666666666664
 31
0.0
  0
LINE
  5
482
100
AcDbEntity
  8
layer 1
 62
256
370
9
 48
1.0
  6
BYLAYER
100
AcDbLine
 10
6.6095333333333315
 20
15.8466666666666711
 30
0.0
 11
14.9999999999999964
 21
24.2371333333333325
 31
0.0
  0
LINE
  5
483
100
AcDbEntity
  8
layer 1
 62
256
370
9
 48
1.0
  6
BYLAYER
100
AcDbLine
 10
70.6095333333333315
 20
15.8466666666666711
 30
0.0
 11
79.0
 21
24.2371333333333325
 31
0.0
  0
LINE
  5
484
100
AcDbEntity
  8
layer 1
 62
256
370
9
 48
1.0
  6
BYLAYER
100
AcDbLine
 10
6.6095333333333386
 20
79.846666666666664
 30
0.0
 11
15.0000000000000036
 21
88.2371333333333325
 31
0.0
  0
LINE
  5
485
100
AcDbEntity
  8
layer 1
 62
256
370
9
 48
1.0
  6
BYLAYER
100
AcDbLine
 10
70.6095333333333315
 20
79.846666666666664
 30
0.0
 11
79.0
 21
88.2371333333333325
 31
0.0
  0
LINE
  5
486
100
AcDbEntity
  8
layer 1
 62
256
370
9
 48
1.0
  6
BYLAYER
100
AcDbLine
 10
6.6095333333333386
 20
143.846666666666664
 30
0.0
 11
15.0000000000000036
 21
152.2371333333333325
 31
0.0
  0
LINE
  5
487
100
AcDbEntity
  8
layer 1
 62
256
370
9
 48
1.0
  6
BYLAYER
100
AcDbLine
 10
70.6095333333333315
 20
143.846666666666664
 30
0.0
 11
79.0
 21
152.2371333333333325
 31
0.0
  0
LINE
  5
488
100
AcDbEntity
  8
layer 1
 62
256
370
9
 48
1.0
  6
BYLAYER
100
AcDbLine
 10
6.6095333333333457
 20
207.846666666666664
 30
0.0
 11
15.0000000000000107
 21
216.2371333333333325
 31
0.0
  0
LINE
  5
489
100
AcDbEntity
  8
layer 1
 62
256
370
9
 48
1.0
  6
BYLAYER
100
AcDbLine
 10
70.6095333333333315
 20
207.846666666666664
 30
0.0
 11
79.0
 21
216.2371333333333325
 31
0.0
  0
ARC
  5
48A
100
AcDbEntity
  8
layer 1
 62
256
370
9
 48
1.0
  6
BYLAYER
100
AcDbCircle
 10
40.7506666666666604
 20
11.6133333333333439
 30
0.0
 40
2.9633333333333329
100
AcDbArc
 50
180.0
 51
270.0
  0
ARC
  5
48B
100
AcDbEntity
  8
layer 1
 62
256
370
9
 48
1.0
  6
BYLAYER
100
AcDbCircle
 10
104.7506666666666604
 20
11.6133333333333439
 30
0.0
 40
2.9633333333333329
100
AcDbArc
 50
180.0
 51
270.0
  0
ARC
  5
48C
100
AcDbEntity
  8
layer 1
 62
256
370
9
 48
1.0
  6
BYLAYER
100
AcDbCircle
 10
40.7506666666666675
 20
75.6133333333333439
 30
0.0
 40
2.9633333333333329
100
AcDbArc
 50
180.0
 51
270.0
  0
ARC
  5
48D
100
AcDbEntity
  8
layer 1
 62
256
370
9
 48
1.0
  6
BYLAYER
100
AcDbCircle
 10
104.7506666666666604
 20
75.6133333333333439
 30
0.0
 40
2.9633333333333329
100
AcDbArc
 50
180.0
 51
270.0
  0
ARC
  5
48E
100
AcDbEntity
  8
layer 1
 62
256
370
9
 48
1.0
  6
BYLAYER
100
AcDbCircle
 10
40.7506666666666675
 20
139.6133333333333439
 30
0.0
 40
2.9633333333333329
100
AcDbArc
 50
180.0
 51
270.0
  0
ARC
  5
48F
100
AcDbEntity
  8
layer 1
 62
256
370
9
 48
1.0
  6
BYLAYER
100
AcDbCircle
 10
104.7506666666666604
 20
139.6133333333333439
 30
0.0
 40
2.9633333333333329
100
AcDbArc
 50
180.0
 51
270.0
  0
ARC
  5
490
100
AcDbEntity
  8
layer 1
 62
256
370
9
 48
1.0
  6
BYLAYER
100
AcDbCircle
 10
40.7506666666666746
 20
203.6133333333333439
 30
0.0
 40
2.9633333333333329
100
AcDbArc
 50
180.0
 51
270.0
  0
ARC
  5
491
100
AcDbEntity
  8
layer 1
 62
256
370
9
 48
1.0
  6
BYLAYER
100
AcDbCircle
 10
104.7506666666666604
 20
203.6133333333333439
 30
0.0
 40
2.9633333333333329
100
AcDbArc
 50
180.0
 51
270.0
  0
ARC
  5
492
100
AcDbEntity
  8
layer 1
 62
256
370
9
 48
1.0
  6
BYLAYER
100
AcDbCircle
 10
40.7506666666666604
 20
11.6133333333333439
 30
0.0
 40
2.9633333333333329
100
AcDbArc
 50
90.0000000000000142
 51
180.0
  0
ARC
  5
493
100
AcDbEntity
  8
layer 1
 62
256
370
9
 48
1.0
  6
BYLAYER
100
AcDbCircle
 10
104.7506666666666604
 20
11.6133333333333439
 30
0.0
 40
2.9633333333333329
100
AcDbArc
 50
90.0000000000000142
 51
180.0
  0
ARC
  5
494
100
AcDbEntity
  8
layer 1
 62
256
370
9
 48
1.0
  6
BYLAYER
100
AcDbCircle
 10
40.7506666666666675
 20
75.6133333333333439
 30
0.0
 40
2.9633333333333329
100
AcDbArc
 50
90.0000000000000142
 51
180.0
  0
ARC
  5
495
100
AcDbEntity
  8
layer 1
 62
256
370
9
 48
1.0
  6
BYLAYER
100
AcDbCircle
 10
104.7506666666666604
 20
75.6133333333333439
 30
0.0
 40
2.9633333333333329
100
AcDbArc
 50
90.0000000000000142
 51
180.0
  0
ARC
  5
496
100
AcDbEntity
  8
layer 1
 62
256
370
9
 48
1.0
  6
BYLAYER
100
AcDbCircle
 10
40.7506666666666675
 20
139.6133333333333439
 30
0.0
 40
2.9633333333333329
100
AcDbArc
 50
90.0000000000000142
 51
180.0
  0
ARC
  5
497
100
AcDbEntity
  8
layer 1
 62
256
370
9
 48
1.0
  6
BYLAYER
100
AcDbCircle
 10
104.7506666666666604
 20
139.6133333333333439
 30
0.0
 40
2.9633333333333329
100
AcDbArc
 50
90.0000000000000142
 51
180.0
  0
ARC
  5
498
100
AcDbEntity
  8
layer 1
 62
256
370
9
 48
1.0
  6
BYLAYER
100
AcDbCircle
 10
40.7506666666666746
 20
203.6133333333333439
 30
0.0
 40
2.9633333333333329
100
AcDbArc
 50
90.0000000000000142
 51
180.0
  0
ARC
  5
499
100
AcDbEntity
  8
layer 1
 62
256
370
9
 48
1.0
  6
BYLAYER
100
AcDbCircle
 10
104.7506666666666604
 20
203.6133333333333439
 30
0.0
 40
2.9633333333333329
100
AcDbArc
 50
90.0000000000000142
 51
180.0
  0
ARC
  5
49A
100
AcDbEntity
  8
layer 1
 62
256
370
9
 48
1.0
  6
BYLAYER
100
AcDbCircle
 10
40.7506666666666604
 20
11.6133333333333439
 30
0.0
 40
2.9633333333333329
100
AcDbArc
 50
0.0
 51
90.0000000000000142
  0
ARC
  5
49B
100
AcDbEntity
  8
layer 1
 62
256
370
9
 48
1.0
  6
BYLAYER
100
AcDbCircle
 10
104.7506666666666604
 20
11.6133333333333439
 30
0.0
 40
2.9633333333333329
100
AcDbArc
 50
0.0
 51
90.0000000000000142
  0
ARC
  5
49C
100
AcDbEntity
  8
layer 1
 62
256
370
9
 48
1.0
  6
BYLAYER
100
AcDbCircle
 10
40.7506666666666675
 20
75.6133333333333439
 30
0.0
 40
2.9633333333333329
100
AcDbArc
 50
0.0
 51
90.0000000000000142
  0
ARC
  5
49D
100
AcDbEntity
  8
layer 1
 62
256
370
9
 48
1.0
  6
BYLAYER
100
AcDbCircle
 10
104.7506666666666604
 20
75.6133333333333439
 30
0.0
 40
2.9633333333333329
100
AcDbArc
 50
0.0
 51
90.0000000000000142
  0
ARC
  5
49E
100
AcDbEntity
  8
layer 1
 62
256
370
9
 48
1.0
  6
BYLAYER
100
AcDbCircle
 10
40.7506666666666675
 20
139.6133333333333439
 30
0.0
 40
2.9633333333333329
100
AcDbArc
 50
0.0
 51
90.0000000000000142
  0
ARC
  5
49F
100
AcDbEntity
  8
layer 1
 62
256
370
9
 48
1.0
  6
BYLAYER
100
AcDbCircle
 10
104.7506666666666604
 20
139.6133333333333439
 30
0.0
 40
2.9633333333333329
100
AcDbArc
 50
0.0
 51
90.0000000000000142
  0
ARC
  5
4A0
100
AcDbEntity
  8
layer 1
 62
256
370
9
 48
1.0
  6
BYLAYER
100
AcDbCircle
 10
40.7506666666666746
 20
203.6133333333333439
 30
0.0
 40
2.9633333333333329
100
AcDbArc
 50
0.0
 51
90.0000000000000142
  0
ARC
  5
4A1
100
AcDbEntity
  8
layer 1
 62
256
370
9
 48
1.0
  6
BYLAYER
100
AcDbCircle
 10
104.7506666666666604
 20
203.6133333333333439
 30
0.0
 40
2.9633333333333329
100
AcDbArc
 50
0.0
 51
90.0000000000000142
  0
ARC
  5
4A2
100
AcDbEntity
  8
layer 1
 62
256
370
9
 48
1.0
  6
BYLAYER
100
AcDbCircle
 10
40.7506666666666604
 20
11.6133333333333439
 30
0.0
 40
2.9633333333333329
100
AcDbArc
 50
270.0
 51
0.0
  0
ARC
  5
4A3
100
AcDbEntity
  8
layer 1
 62
256
370
9
 48
1.0
  6
BYLAYER
100
AcDbCircle
 10
104.7506666666666604
 20
11.6133333333333439
 30
0.0
 40
2.9633333333333329
100
AcDbArc
 50
270.0
 51
0.0
  0
ARC
  5
4A4
100
AcDbEntity
  8
layer 1
 62
256
370
9
 48
1.0
  6
BYLAYER
100
AcDbCircle
 10
40.7506666666666675
 20
75.6133333333333439
 30
0.0
 40
2.9633333333333329
100
AcDbArc
 50
270.0
 51
0.0
  0
ARC
  5
4A5
100
AcDbEntity
  8
layer 1
 62
256
370
9
 48
1.0
  6
BYLAYER
100
AcDbCircle
 10
104.7506666666666604
 20
75.6133333333333439
 30
0.0
 40
2.9633333333333329
100
AcDbArc
 50
270.0
 51
0.0
  0
ARC
  5
4A6
100
AcDbEntity
  8
layer 1
 62
256
370
9
 48
1.0
  6
BYLAYER
100
AcDbCircle
 10
40.7506666666666675
 20
139.6133333333333439
 30
0.0
 40
2.9633333333333329
100
AcDbArc
 50
270.0
 51
0.0
  0
ARC
  5
4A7
100
AcDbEntity
  8
layer 1
 62
256
370
9
 48
1.0
  6
BYLAYER
100
AcDbCircle
 10
104.7506666666666604
 20
139.6133333333333439
 30
0.0
 40
2.9633333333333329
100
AcDbArc
 50
270.0
 51
0.0
  0
ARC
  5
4A8
100
AcDbEntity
  8
layer 1
 62
256
370
9
 48
1.0
  6
BYLAYER
100
AcDbCircle
 10
40.7506666666666746
 20
203.6133333333333439
 30
0.0
 40
2.9633333333333329
100
AcDbArc
 50
270.0
 51
0.0
  0
ARC
  5
4A9
100
AcDbEntity
  8
layer 1
 62
256
370
9
 48
1.0
  6
BYLAYER
100
AcDbCircle
 10
104.7506666666666604
 20
203.6133333333333439
 30
0.0
 40
2.9633333333333329
100
AcDbArc
 50
270.0
 51
0.0
  0
ARC
  5
4AA
100
AcDbEntity
  8
layer 1
 62
256
370
9
 48
1.0
  6
BYLAYER
100
AcDbCircle
 10
40.7506666666666604
 20
11.6133333333333439
 30
0.0
 40
4.2333333333333325
100
AcDbArc
 50
90.0000000000000142
 51
180.0
  0
ARC
  5
4AB
100
AcDbEntity
  8
layer 1
 62
256
370
9
 48
1.0
  6
BYLAYER
100
AcDbCircle
 10
104.7506666666666604
 20
11.6133333333333439
 30
0.0
 40
4.2333333333333325
100
AcDbArc
 50
90.0000000000000142
 51
180.0
  0
ARC
  5
4AC
100
AcDbEntity
  8
layer 1
 62
256
370
9
 48
1.0
  6
BYLAYER
100
AcDbCircle
 10
40.7506666666666675
 20
75.6133333333333439
 30
0.0
 40
4.2333333333333325
100
AcDbArc
 50
90.0000000000000142
 51
180.0
  0
ARC
  5
4AD
100
AcDbEntity
  8
layer 1
 62
256
370
9
 48
1.0
  6
BYLAYER
100
AcDbCircle
 10
104.7506666666666604
 20
75.6133333333333439
 30
0.0
 40
4.2333333333333325
100
AcDbArc
 50
90.0000000000000142
 51
180.0
  0
ARC
  5
4AE
100
AcDbEntity
  8
layer 1
 62
256
370
9
 48
1.0
  6
BYLAYER
100
AcDbCircle
 10
40.7506666666666675
 20
139.6133333333333439
 30
0.0
 40
4.2333333333333325
100
AcDbArc
 50
90.0000000000000142
 51
180.0
  0
ARC
  5
4AF
100
AcDbEntity
  8
layer 1
 62
256
370
9
 48
1.0
  6
BYLAYER
100
AcDbCircle
 10
104.7506666666666604
 20
139.6133333333333439
 30
0.0
 40
4.2333333333333325
100
AcDbArc
 50
90.0000000000000142
 51
180.0
  0
ARC
  5
4B0
100
AcDbEntity
  8
layer 1
 62
256
370
9
 48
1.0
  6
BYLAYER
100
AcDbCircle
 10
40.7506666666666746
 20
203.6133333333333439
 30
0.0
 40
4.2333333333333325
100
AcDbArc
 50
90.0000000000000142
 51
180.0
  0
ARC
  5
4B1
100
AcDbEntity
  8
layer 1
 62
256
370
9
 48
1.0
  6
BYLAYER
100
AcDbCircle
 10
104.7506666666666604
 20
203.6133333333333439
 30
0.0
 40
4.2333333333333325
100
AcDbArc
 50
90.0000000000000142
 51
180.0
  0
ARC
  5
4B2
100
AcDbEntity
  8
layer 1
 62
256
370
9
 48
1.0
  6
BYLAYER
100
AcDbCircle
 10
40.7506666666666604
 20
11.6133333333333439
 30
0.0
 40
4.2333333333333325
100
AcDbArc
 50
180.0
 51
270.0
  0
ARC
  5
4B3
100
AcDbEntity
  8
layer 1
 62
256
370
9
 48
1.0
  6
BYLAYER
100
AcDbCircle
 10
104.7506666666666604
 20
11.6133333333333439
 30
0.0
 40
4.2333333333333325
100
AcDbArc
 50
180.0
 51
270.0
  0
ARC
  5
4B4
100
AcDbEntity
  8
layer 1
 62
256
370
9
 48
1.0
  6
BYLAYER
100
AcDbCircle
 10
40.7506666666666675
 20
75.6133333333333439
 30
0.0
 40
4.2333333333333325
100
AcDbArc
 50
180.0
 51
270.0
  0
ARC
  5
4B5
100
AcDbEntity
  8
layer 1
 62
256
370
9
 48
1.0
  6
BYLAYER
100
AcDbCircle
 10
104.7506666666666604
 20
75.6133333333333439
 30
0.0
 40
4.2333333333333325
100
AcDbArc
 50
180.0
 51
270.0
  0
ARC
  5
4B6
100
AcDbEntity
  8
layer 1
 62
256
370
9
 48
1.0
  6
BYLAYER
100
AcDbCircle
 10
40.7506666666666675
 20
139.6133333333333439
 30
0.0
 40
4.2333333333333325
100
AcDbArc
 50
180.0
 51
270.0
  0
ARC
  5
4B7
100
AcDbEntity
  8
layer 1
 62
256
370
9
 48
1.0
  6
BYLAYER
100
AcDbCircle
 10
104.7506666666666604
 20
139.6133333333333439
 30
0.0
 40
4.2333333333333325
100
AcDbArc
 50
180.0
 51
270.0
  0
ARC
  5
4B8
100
AcDbEntity
  8
layer 1
 62
256
370
9
 48
1.0
  6
BYLAYER
100
AcDbCircle
 10
40.7506666666666746
 20
203.6133333333333439
 30
0.0
 40
4.2333333333333325
100
AcDbArc
 50
180.0
 51
270.0
  0
ARC
  5
4B9
100
AcDbEntity
  8
layer 1
 62
256
370
9
 48
1.0
  6
BYLAYER
100
AcDbCircle
 10
104.7506666666666604
 20
203.6133333333333439
 30
0.0
 40
4.2333333333333325
100
AcDbArc
 50
180.0
 51
270.0
  0
ARC
  5
4BA
100
AcDbEntity
  8
layer 1
 62
256
370
9
 48
1.0
  6
BYLAYER
100
AcDbCircle
 10
40.7506666666666604
 20
11.6133333333333439
 30
0.0
 40
4.2333333333333325
100
AcDbArc
 50
270.0
 51
0.0
  0
ARC
  5
4BB
100
AcDbEntity
  8
layer 1
 62
256
370
9
 48
1.0
  6
BYLAYER
100
AcDbCircle
 10
104.7506666666666604
 20
11.6133333333333439
 30
0.0
 40
4.2333333333333325
100
AcDbArc
 50
270.0
 51
0.0
  0
ARC
  5
4BC
100
AcDbEntity
  8
layer 1
 62
256
370
9
 48
1.0
  6
BYLAYER
100
AcDbCircle
 10
40.7506666666666675
 20
75.6133333333333439
 30
0.0
 40
4.2333333333333325
100
AcDbArc
 50
270.0
 51
0.0
  0
ARC
  5
4BD
100
AcDbEntity
  8
layer 1
 62
256
370
9
 48
1.0
  6
BYLAYER
100
AcDbCircle
 10
104.7506666666666604
 20
75.6133333333333439
 30
0.0
 40
4.2333333333333325
100
AcDbArc
 50
270.0
 51
0.0
  0
ARC
  5
4BE
100
AcDbEntity
  8
layer 1
 62
256
370
9
 48
1.0
  6
BYLAYER
100
AcDbCircle
 10
40.7506666666666675
 20
139.6133333333333439
 30
0.0
 40
4.2333333333333325
100
AcDbArc
 50
270.0
 51
0.0
  0
ARC
  5
4BF
100
AcDbEntity
  8
layer 1
 62
256
370
9
 48
1.0
  6
BYLAYER
100
AcDbCircle
 10
104.7506666666666604
 20
139.6133333333333439
 30
0.0
 40
4.2333333333333325
100
AcDbArc
 50
270.0
 51
0.0
  0
ARC
  5
4C0
100
AcDbEntity
  8
layer 1
 62
256
370
9
 48
1.0
  6
BYLAYER
100
AcDbCircle
 10
40.7506666666666746
 20
203.6133333333333439
 30
0.0
 40
4.2333333333333325
100
AcDbArc
 50
270.0
 51
0.0
  0
ARC
  5
4C1
100
AcDbEntity
  8
layer 1
 62
256
370
9
 48
1.0
  6
BYLAYER
100
AcDbCircle
 10
104.7506666666666604
 20
203.6133333333333439
 30
0.0
 40
4.2333333333333325
100
AcDbArc
 50
270.0
 51
0.0
  0
ARC
  5
4C2
100
AcDbEntity
  8
layer 1
 62
256
370
9
 48
1.0
  6
BYLAYER
100
AcDbCircle
 10
40.7506666666666604
 20
11.6133333333333439
 30
0.0
 40
4.2333333333333325
100
AcDbArc
 50
0.0
 51
90.0000000000000142
  0
ARC
  5
4C3
100
AcDbEntity
  8
layer 1
 62
256
370
9
 48
1.0
  6
BYLAYER
100
AcDbCircle
 10
104.7506666666666604
 20
11.6133333333333439
 30
0.0
 40
4.2333333333333325
100
AcDbArc
 50
0.0
 51
90.0000000000000142
  0
ARC
  5
4C4
100
AcDbEntity
  8
layer 1
 62
256
370
9
 48
1.0
  6
BYLAYER
100
AcDbCircle
 10
40.7506666666666675
 20
75.6133333333333439
 30
0.0
 40
4.2333333333333325
100
AcDbArc
 50
0.0
 51
90.0000000000000142
  0
ARC
  5
4C5
100
AcDbEntity
  8
layer 1
 62
256
370
9
 48
1.0
  6
BYLAYER
100
AcDbCircle
 10
104.7506666666666604
 20
75.6133333333333439
 30
0.0
 40
4.2333333333333325
100
AcDbArc
 50
0.0
 51
90.0000000000000142
  0
ARC
  5
4C6
100
AcDbEntity
  8
layer 1
 62
256
370
9
 48
1.0
  6
BYLAYER
100
AcDbCircle
 10
40.7506666666666675
 20
139.6133333333333439
 30
0.0
 40
4.2333333333333325
100
AcDbArc
 50
0.0
 51
90.0000000000000142
  0
ARC
  5
4C7
100
AcDbEntity
  8
layer 1
 62
256
370
9
 48
1.0
  6
BYLAYER
100
AcDbCircle
 10
104.7506666666666604
 20
139.6133333333333439
 30
0.0
 40
4.2333333333333325
100
AcDbArc
 50
0.0
 51
90.0000000000000142
  0
ARC
  5
4C8
100
AcDbEntity
  8
layer 1
 62
256
370
9
 48
1.0
  6
BYLAYER
100
AcDbCircle
 10
40.7506666666666746
 20
203.6133333333333439
 30
0.0
 40
4.2333333333333325
100
AcDbArc
 50
0.0
 51
90.0000000000000142
  0
ARC
  5
4C9
100
AcDbEntity
  8
layer 1
 62
256
370
9
 48
1.0
  6
BYLAYER
100
AcDbCircle
 10
104.7506666666666604
 20
203.6133333333333439
 30
0.0
 40
4.2333333333333325
100
AcDbArc
 50
0.0
 51
90.0000000000000142
  0
LINE
  5
4CA
100
AcDbEntity
  8
layer 1
 62
256
370
9
 48
1.0
  6
BYLAYER
100
AcDbLine
 10
49.0479999999999947
 20
17.5399999999999991
 30
0.0
 11
52.6039999999999921
 21
17.5399999999999991
 31
0.0
  0
LINE
  5
4CB
100
AcDbEntity
  8
layer 1
 62
256
370
9
 48
1.0
  6
BYLAYER
100
AcDbLine
 10
113.0480000000000018
 20
17.5399999999999991
 30
0.0
 11
116.603999999999985
 21
17.5399999999999991
 31
0.0
  0
LINE
  5
4CC
100
AcDbEntity
  8
layer 1
 62
256
370
9
 48
1.0
  6
BYLAYER
100
AcDbLine
 10
49.0480000000000018
 20
81.539999999999992
 30
0.0
 11
52.6039999999999992
 21
81.539999999999992
 31
0.0
  0
LINE
  5
4CD
100
AcDbEntity
  8
layer 1
 62
256
370
9
 48
1.0
  6
BYLAYER
100
AcDbLine
 10
113.0480000000000018
 20
81.539999999999992
 30
0.0
 11
116.603999999999985
 21
81.539999999999992
 31
0.0
  0
LINE
  5
4CE
100
AcDbEntity
  8
layer 1
 62
256
370
9
 48
1.0
  6
BYLAYER
100
AcDbLine
 10
49.0480000000000018
 20
145.539999999999992
 30
0.0
 11
52.6039999999999992
 21
145.539999999999992
 31
0.0
  0
LINE
  5
4CF
100
AcDbEntity
  8
layer 1
 62
256
370
9
 48
1.0
  6
BYLAYER
100
AcDbLine
 10
113.0480000000000018
 20
145.539999999999992
 30
0.0
 11
116.603999999999985
 21
145.539999999999992
 31
0.0
  0
LINE
  5
4D0
100
AcDbEntity
  8
layer 1
 62
256
370
9
 48
1.0
  6
BYLAYER
100
AcDbLine
 10
49.0480000000000089
 20
209.539999999999992
 30
0.0
 11
52.6040000000000063
 21
209.539999999999992
 31
0.0
  0
LINE
  5
4D1
100
AcDbEntity
  8
layer 1
 62
256
370
9
 48
1.0
  6
BYLAYER
100
AcDbLine
 10
113.0480000000000018
 20
209.539999999999992
 30
0.0
 11
116.603999999999985
 21
209.539999999999992
 31
0.0
  0
LINE
  5
4D2
100
AcDbEntity
  8
layer 1
 62
256
370
9
 48
1.0
  6
BYLAYER
100
AcDbLine
 10
52.6039999999999921
 20
17.5399999999999991
 30
0.0
 11
52.6039999999999921
 21
19.0640000000000072
 31
0.0
  0
LINE
  5
4D3
100
AcDbEntity
  8
layer 1
 62
256
370
9
 48
1.0
  6
BYLAYER
100
AcDbLine
 10
116.603999999999985
 20
17.5399999999999991
 30
0.0
 11
116.603999999999985
 21
19.0640000000000072
 31
0.0
  0
LINE
  5
4D4
100
AcDbEntity
  8
layer 1
 62
256
370
9
 48
1.0
  6
BYLAYER
100
AcDbLine
 10
52.6039999999999992
 20
81.539999999999992
 30
0.0
 11
52.6039999999999992
 21
83.0640000000000072
 31
0.0
  0
LINE
  5
4D5
100
AcDbEntity
  8
layer 1
 62
256
370
9
 48
1.0
  6
BYLAYER
100
AcDbLine
 10
116.603999999999985
 20
81.539999999999992
 30
0.0
 11
116.603999999999985
 21
83.0640000000000072
 31
0.0
  0
LINE
  5
4D6
100
AcDbEntity
  8
layer 1
 62
256
370
9
 48
1.0
  6
BYLAYER
100
AcDbLine
 10
52.6039999999999992
 20
145.539999999999992
 30
0.0
 11
52.6039999999999992
 21
147.0640000000000214
 31
0.0
  0
LINE
  5
4D7
100
AcDbEntity
  8
layer 1
 62
256
370
9
 48
1.0
  6
BYLAYER
100
AcDbLine
 10
116.603999999999985
 20
145.539999999999992
 30
0.0
 11
116.603999999999985
 21
147.0640000000000214
 31
0.0
  0
LINE
  5
4D8
100
AcDbEntity
  8
layer 1
 62
256
370
9
 48
1.0
  6
BYLAYER
100
AcDbLine
 10
52.6040000000000063
 20
209.539999999999992
 30
0.0
 11
52.6040000000000063
 21
211.0640000000000214
 31
0.0
  0
LINE
  5
4D9
100
AcDbEntity
  8
layer 1
 62
256
370
9
 48
1.0
  6
BYLAYER
100
AcDbLine
 10
116.603999999999985
 20
209.539999999999992
 30
0.0
 11
116.603999999999985
 21
211.0640000000000214
 31
0.0
  0
LINE
  5
4DA
100
AcDbEntity
  8
layer 1
 62
256
370
9
 48
1.0
  6
BYLAYER
100
AcDbLine
 10
52.6039999999999921
 20
19.0640000000000072
 30
0.0
 11
49.8946666666666658
 21
19.0640000000000072
 31
0.0
  0
LINE
  5
4DB
100
AcDbEntity
  8
layer 1
 62
256
370
9
 48
1.0
  6
BYLAYER
100
AcDbLine
 10
116.603999999999985
 20
19.0640000000000072
 30
0.0
 11
113.8946666666666658
 21
19.0640000000000072
 31
0.0
  0
LINE
  5
4DC
100
AcDbEntity
  8
layer 1
 62
256
370
9
 48
1.0
  6
BYLAYER
100
AcDbLine
 10
52.6039999999999992
 20
83.0640000000000072
 30
0.0
 11
49.8946666666666729
 21
83.0640000000000072
 31
0.0
  0
LINE
  5
4DD
100
AcDbEntity
  8
layer 1
 62
256
370
9
 48
1.0
  6
BYLAYER
100
AcDbLine
 10
116.603999999999985
 20
83.0640000000000072
 30
0.0
 11
113.8946666666666658
 21
83.0640000000000072
 31
0.0
  0
LINE
  5
4DE
100
AcDbEntity
  8
layer 1
 62
256
370
9
 48
1.0
  6
BYLAYER
100
AcDbLine
 10
52.6039999999999992
 20
147.0640000000000214
 30
0.0
 11
49.8946666666666729
 21
147.0640000000000214
 31
0.0
  0
LINE
  5
4DF
100
AcDbEntity
  8
layer 1
 62
256
370
9
 48
1.0
  6
BYLAYER
100
AcDbLine
 10
116.603999999999985
 20
147.0640000000000214
 30
0.0
 11
113.8946666666666658
 21
147.0640000000000214
 31
0.0
  0
LINE
  5
4E0
100
AcDbEntity
  8
layer 1
 62
256
370
9
 48
1.0
  6
BYLAYER
100
AcDbLine
 10
52.6040000000000063
 20
211.0640000000000214
 30
0.0
 11
49.89466666666668
 21
211.0640000000000214
 31
0.0
  0
LINE
  5
4E1
100
AcDbEntity
  8
layer 1
 62
256
370
9
 48
1.0
  6
BYLAYER
100
AcDbLine
 10
116.603999999999985
 20
211.0640000000000214
 30
0.0
 11
113.8946666666666658
 21
211.0640000000000214
 31
0.0
  0
LINE
  5
4E2
100
AcDbEntity
  8
layer 1
 62
256
370
9
 48
1.0
  6
BYLAYER
100
AcDbLine
 10
49.8946666666666658
 20
19.0640000000000072
 30
0.0
 11
48.252133333333326
 21
21.8326000000000064
 31
0.0
  0
LINE
  5
4E3
100
AcDbEntity
  8
layer 1
 62
256
370
9
 48
1.0
  6
BYLAYER
100
AcDbLine
 10
113.8946666666666658
 20
19.0640000000000072
 30
0.0
 11
112.2521333333333189
 21
21.8326000000000064
 31
0.0
  0
LINE
  5
4E4
100
AcDbEntity
  8
layer 1
 62
256
370
9
 48
1.0
  6
BYLAYER
100
AcDbLine
 10
49.8946666666666729
 20
83.0640000000000072
 30
0.0
 11
48.2521333333333331
 21
85.8326000000000136
 31
0.0
  0
LINE
  5
4E5
100
AcDbEntity
  8
layer 1
 62
256
370
9
 48
1.0
  6
BYLAYER
100
AcDbLine
 10
113.8946666666666658
 20
83.0640000000000072
 30
0.0
 11
112.2521333333333189
 21
85.8326000000000136
 31
0.0
  0
LINE
  5
4E6
100
AcDbEntity
  8
layer 1
 62
256
370
9
 48
1.0
  6
BYLAYER
100
AcDbLine
 10
49.8946666666666729
 20
147.0640000000000214
 30
0.0
 11
48.2521333333333331
 21
149.8326000000000136
 31
0.0
  0
LINE
  5
4E7
100
AcDbEntity
  8
layer 1
 62
256
370
9
 48
1.0
  6
BYLAYER
100
AcDbLine
 10
113.8946666666666658
 20
147.0640000000000214
 30
0.0
 11
112.2521333333333189
 21
149.8326000000000136
 31
0.0
  0
LINE
  5
4E8
100
AcDbEntity
  8
layer 1
 62
256
370
9
 48
1.0
  6
BYLAYER
100
AcDbLine
 10
49.89466666666668
 20
211.0640000000000214
 30
0.0
 11
48.2521333333333402
 21
213.8326000000000136
 31
0.0
  0
LINE
  5
4E9
100
AcDbEntity
  8
layer 1
 62
256
370
9
 48
1.0
  6
BYLAYER
100
AcDbLine
 10
113.8946666666666658
 20
211.0640000000000214
 30
0.0
 11
112.2521333333333189
 21
213.8326000000000136
 31
0.0
  0
ARC
  5
4EA
100
AcDbEntity
  8
layer 1
 62
256
370
9
 48
1.0
  6
BYLAYER
100
AcDbCircle
 10
47.0110711695476837
 20
21.0880950693248721
 30
0.0
 40
1.4472466569938447
100
AcDbArc
 50
30.9592629538533473
 51
89.804869662403604
  0
ARC
  5
4EB
100
AcDbEntity
  8
layer 1
 62
256
370
9
 48
1.0
  6
BYLAYER
100
AcDbCircle
 10
111.0110711695476766
 20
21.0880950693248721
 30
0.0
 40
1.4472466569938447
100
AcDbArc
 50
30.9592629538533473
 51
89.804869662403604
  0
ARC
  5
4EC
100
AcDbEntity
  8
layer 1
 62
256
370
9
 48
1.0
  6
BYLAYER
100
AcDbCircle
 10
47.0110711695476908
 20
85.0880950693248792
 30
0.0
 40
1.4472466569938447
100
AcDbArc
 50
30.9592629538533473
 51
89.804869662403604
  0
ARC
  5
4ED
100
AcDbEntity
  8
layer 1
 62
256
370
9
 48
1.0
  6
BYLAYER
100
AcDbCircle
 10
111.0110711695476766
 20
85.0880950693248792
 30
0.0
 40
1.4472466569938447
100
AcDbArc
 50
30.9592629538533473
 51
89.804869662403604
  0
ARC
  5
4EE
100
AcDbEntity
  8
layer 1
 62
256
370
9
 48
1.0
  6
BYLAYER
100
AcDbCircle
 10
47.0110711695476908
 20
149.0880950693248792
 30
0.0
 40
1.4472466569938447
100
AcDbArc
 50
30.9592629538533473
 51
89.804869662403604
  0
ARC
  5
4EF
100
AcDbEntity
  8
layer 1
 62
256
370
9
 48
1.0
  6
BYLAYER
100
AcDbCircle
 10
111.0110711695476766
 20
149.0880950693248792
 30
0.0
 40
1.4472466569938447
100
AcDbArc
 50
30.9592629538533473
 51
89.804869662403604
  0
ARC
  5
4F0
100
AcDbEntity
  8
layer 1
 62
256
370
9
 48
1.0
  6
BYLAYER
100
AcDbCircle
 10
47.0110711695476979
 20
213.0880950693248792
 30
0.0
 40
1.4472466569938447
100
AcDbArc
 50
30.9592629538533473
 51
89.804869662403604
  0
ARC
  5
4F1
100
AcDbEntity
  8
layer 1
 62
256
370
9
 48
1.0
  6
BYLAYER
100
AcDbCircle
 10
111.0110711695476766
 20
213.0880950693248792
 30
0.0
 40
1.4472466569938447
100
AcDbArc
 50
30.9592629538533473
 51
89.804869662403604
  0
ARC
  5
4F2
100
AcDbEntity
  8
layer 1
 62
256
370
9
 48
1.0
  6
BYLAYER
100
AcDbCircle
 10
47.0081223255531171
 20
21.1233730853391464
 30
0.0
 40
1.411982223567444
100
AcDbArc
 50
89.6803360323860801
 51
135.5593938636947939
  0
ARC
  5
4F3
100
AcDbEntity
  8
layer 1
 62
256
370
9
 48
1.0
  6
BYLAYER
100
AcDbCircle
 10
111.0081223255531171
 20
21.1233730853391464
 30
0.0
 40
1.411982223567444
100
AcDbArc
 50
89.6803360323860801
 51
135.5593938636947939
  0
ARC
  5
4F4
100
AcDbEntity
  8
layer 1
 62
256
370
9
 48
1.0
  6
BYLAYER
100
AcDbCircle
 10
47.0081223255531242
 20
85.1233730853391535
 30
0.0
 40
1.411982223567444
100
AcDbArc
 50
89.6803360323860801
 51
135.5593938636947939
  0
ARC
  5
4F5
100
AcDbEntity
  8
layer 1
 62
256
370
9
 48
1.0
  6
BYLAYER
100
AcDbCircle
 10
111.0081223255531313
 20
85.1233730853391535
 30
0.0
 40
1.411982223567444
100
AcDbArc
 50
89.6803360323860801
 51
135.5593938636947939
  0
ARC
  5
4F6
100
AcDbEntity
  8
layer 1
 62
256
370
9
 48
1.0
  6
BYLAYER
100
AcDbCircle
 10
47.0081223255531242
 20
149.1233730853391535
 30
0.0
 40
1.411982223567444
100
AcDbArc
 50
89.6803360323860801
 51
135.5593938636947939
  0
ARC
  5
4F7
100
AcDbEntity
  8
layer 1
 62
256
370
9
 48
1.0
  6
BYLAYER
100
AcDbCircle
 10
111.0081223255531313
 20
149.1233730853391535
 30
0.0
 40
1.411982223567444
100
AcDbArc
 50
89.6803360323860801
 51
135.5593938636947939
  0
ARC
  5
4F8
100
AcDbEntity
  8
layer 1
 62
256
370
9
 48
1.0
  6
BYLAYER
100
AcDbCircle
 10
47.0081223255531313
 20
213.1233730853391535
 30
0.0
 40
1.411982223567444
100
AcDbArc
 50
89.6803360323860801
 51
135.5593938636947939
  0
ARC
  5
4F9
100
AcDbEntity
  8
layer 1
 62
256
370
9
 48
1.0
  6
BYLAYER
100
AcDbCircle
 10
111.0081223255531313
 20
213.1233730853391535
 30
0.0
 40
1.411982223567444
100
AcDbArc
 50
89.6803360323860801
 51
135.5593938636947939
  0
LINE
  5
4FA
100
AcDbEntity
  8
layer 1
 62
256
370
9
 48
1.0
  6
BYLAYER
100
AcDbLine
 10
46.0
 20
22.1119999999999948
 30
0.0
 11
42.8673333333333275
 21
18.9877999999999929
 31
0.0
  0
LINE
  5
4FB
100
AcDbEntity
  8
layer 1
 62
256
370
9
 48
1.0
  6
BYLAYER
100
AcDbLine
 10
110.0
 20
22.1119999999999948
 30
0.0
 11
106.8673333333333346
 21
18.9877999999999929
 31
0.0
  0
LINE
  5
4FC
100
AcDbEntity
  8
layer 1
 62
256
370
9
 48
1.0
  6
BYLAYER
100
AcDbLine
 10
46.0000000000000071
 20
86.1119999999999948
 30
0.0
 11
42.8673333333333346
 21
82.9877999999999929
 31
0.0
  0
LINE
  5
4FD
100
AcDbEntity
  8
layer 1
 62
256
370
9
 48
1.0
  6
BYLAYER
100
AcDbLine
 10
110.0
 20
86.1119999999999948
 30
0.0
 11
106.8673333333333346
 21
82.9877999999999929
 31
0.0
  0
LINE
  5
4FE
100
AcDbEntity
  8
layer 1
 62
256
370
9
 48
1.0
  6
BYLAYER
100
AcDbLine
 10
46.0000000000000071
 20
150.1119999999999948
 30
0.0
 11
42.8673333333333346
 21
146.9877999999999929
 31
0.0
  0
LINE
  5
4FF
100
AcDbEntity
  8
layer 1
 62
256
370
9
 48
1.0
  6
BYLAYER
100
AcDbLine
 10
110.0
 20
150.1119999999999948
 30
0.0
 11
106.8673333333333346
 21
146.9877999999999929
 31
0.0
  0
LINE
  5
500
100
AcDbEntity
  8
layer 1
 62
256
370
9
 48
1.0
  6
BYLAYER
100
AcDbLine
 10
46.0000000000000142
 20
214.1119999999999948
 30
0.0
 11
42.8673333333333417
 21
210.9877999999999929
 31
0.0
  0
LINE
  5
501
100
AcDbEntity
  8
layer 1
 62
256
370
9
 48
1.0
  6
BYLAYER
100
AcDbLine
 10
110.0
 20
214.1119999999999948
 30
0.0
 11
106.8673333333333346
 21
210.9877999999999929
 31
0.0
  0
ARC
  5
502
100
AcDbEntity
  8
layer 1
 62
256
370
9
 48
1.0
  6
BYLAYER
100
AcDbCircle
 10
43.8468007592947231
 20
17.9833624961592093
 30
0.0
 40
1.4029437400128932
100
AcDbArc
 50
134.2788946108650805
 51
180.8180124771277804
  0
ARC
  5
503
100
AcDbEntity
  8
layer 1
 62
256
370
9
 48
1.0
  6
BYLAYER
100
AcDbCircle
 10
107.8468007592947231
 20
17.9833624961592093
 30
0.0
 40
1.4029437400128932
100
AcDbArc
 50
134.2788946108650805
 51
180.8180124771277804
  0
ARC
  5
504
100
AcDbEntity
  8
layer 1
 62
256
370
9
 48
1.0
  6
BYLAYER
100
AcDbCircle
 10
43.8468007592947302
 20
81.9833624961592022
 30
0.0
 40
1.4029437400128932
100
AcDbArc
 50
134.2788946108650805
 51
180.8180124771277804
  0
ARC
  5
505
100
AcDbEntity
  8
layer 1
 62
256
370
9
 48
1.0
  6
BYLAYER
100
AcDbCircle
 10
107.8468007592947231
 20
81.9833624961592022
 30
0.0
 40
1.4029437400128932
100
AcDbArc
 50
134.2788946108650805
 51
180.8180124771277804
  0
ARC
  5
506
100
AcDbEntity
  8
layer 1
 62
256
370
9
 48
1.0
  6
BYLAYER
100
AcDbCircle
 10
43.8468007592947302
 20
145.9833624961592022
 30
0.0
 40
1.4029437400128932
100
AcDbArc
 50
134.2788946108650805
 51
180.8180124771277804
  0
ARC
  5
507
100
AcDbEntity
  8
layer 1
 62
256
370
9
 48
1.0
  6
BYLAYER
100
AcDbCircle
 10
107.8468007592947231
 20
145.9833624961592022
 30
0.0
 40
1.4029437400128932
100
AcDbArc
 50
134.2788946108650805
 51
180.8180124771277804
  0
ARC
  5
508
100
AcDbEntity
  8
layer 1
 62
256
370
9
 48
1.0
  6
BYLAYER
100
AcDbCircle
 10
43.8468007592947373
 20
209.9833624961592022
 30
0.0
 40
1.4029437400128932
100
AcDbArc
 50
134.2788946108650805
 51
180.8180124771277804
  0
ARC
  5
509
100
AcDbEntity
  8
layer 1
 62
256
370
9
 48
1.0
  6
BYLAYER
100
AcDbCircle
 10
107.8468007592947231
 20
209.9833624961592022
 30
0.0
 40
1.4029437400128932
100
AcDbArc
 50
134.2788946108650805
 51
180.8180124771277804
  0
ARC
  5
50A
100
AcDbEntity
  8
layer 1
 62
256
370
9
 48
1.0
  6
BYLAYER
100
AcDbCircle
 10
43.8741044706033705
 20
17.9598975963806353
 30
0.0
 40
1.4301085976694752
100
AcDbArc
 50
179.8623507217625388
 51
240.2133387695836575
  0
ARC
  5
50B
100
AcDbEntity
  8
layer 1
 62
256
370
9
 48
1.0
  6
BYLAYER
100
AcDbCircle
 10
107.8741044706033705
 20
17.9598975963806353
 30
0.0
 40
1.4301085976694752
100
AcDbArc
 50
179.8623507217625388
 51
240.2133387695836575
  0
ARC
  5
50C
100
AcDbEntity
  8
layer 1
 62
256
370
9
 48
1.0
  6
BYLAYER
100
AcDbCircle
 10
43.8741044706033776
 20
81.9598975963806424
 30
0.0
 40
1.4301085976694752
100
AcDbArc
 50
179.8623507217625388
 51
240.2133387695836575
  0
ARC
  5
50D
100
AcDbEntity
  8
layer 1
 62
256
370
9
 48
1.0
  6
BYLAYER
100
AcDbCircle
 10
107.8741044706033847
 20
81.9598975963806424
 30
0.0
 40
1.4301085976694752
100
AcDbArc
 50
179.8623507217625388
 51
240.2133387695836575
  0
ARC
  5
50E
100
AcDbEntity
  8
layer 1
 62
256
370
9
 48
1.0
  6
BYLAYER
100
AcDbCircle
 10
43.8741044706033776
 20
145.9598975963806424
 30
0.0
 40
1.4301085976694752
100
AcDbArc
 50
179.8623507217625388
 51
240.2133387695836575
  0
ARC
  5
50F
100
AcDbEntity
  8
layer 1
 62
256
370
9
 48
1.0
  6
BYLAYER
100
AcDbCircle
 10
107.8741044706033847
 20
145.9598975963806424
 30
0.0
 40
1.4301085976694752
100
AcDbArc
 50
179.8623507217625388
 51
240.2133387695836575
  0
ARC
  5
510
100
AcDbEntity
  8
layer 1
 62
256
370
9
 48
1.0
  6
BYLAYER
100
AcDbCircle
 10
43.8741044706033847
 20
209.9598975963806424
 30
0.0
 40
1.4301085976694752
100
AcDbArc
 50
179.8623507217625388
 51
240.2133387695836575
  0
ARC
  5
511
100
AcDbEntity
  8
layer 1
 62
256
370
9
 48
1.0
  6
BYLAYER
100
AcDbCircle
 10
107.8741044706033847
 20
209.9598975963806424
 30
0.0
 40
1.4301085976694752
100
AcDbArc
 50
179.8623507217625388
 51
240.2133387695836575
  0
LINE
  5
512
100
AcDbEntity
  8
layer 1
 62
256
370
9
 48
1.0
  6
BYLAYER
100
AcDbLine
 10
43.1636666666666571
 20
16.7187333333333399
 30
0.0
 11
46.0
 21
15.0000000000000071
 31
0.0
  0
LINE
  5
513
100
AcDbEntity
  8
layer 1
 62
256
370
9
 48
1.0
  6
BYLAYER
100
AcDbLine
 10
107.1636666666666571
 20
16.7187333333333399
 30
0.0
 11
110.0
 21
15.0000000000000071
 31
0.0
  0
LINE
  5
514
100
AcDbEntity
  8
layer 1
 62
256
370
9
 48
1.0
  6
BYLAYER
100
AcDbLine
 10
43.1636666666666642
 20
80.718733333333347
 30
0.0
 11
46.0000000000000071
 21
79.0
 31
0.0
  0
LINE
  5
515
100
AcDbEntity
  8
layer 1
 62
256
370
9
 48
1.0
  6
BYLAYER
100
AcDbLine
 10
107.1636666666666713
 20
80.718733333333347
 30
0.0
 11
110.0
 21
79.0
 31
0.0
  0
LINE
  5
516
100
AcDbEntity
  8
layer 1
 62
256
370
9
 48
1.0
  6
BYLAYER
100
AcDbLine
 10
43.1636666666666642
 20
144.718733333333347
 30
0.0
 11
46.0000000000000071
 21
143.0
 31
0.0
  0
LINE
  5
517
100
AcDbEntity
  8
layer 1
 62
256
370
9
 48
1.0
  6
BYLAYER
100
AcDbLine
 10
107.1636666666666713
 20
144.718733333333347
 30
0.0
 11
110.0
 21
143.0
 31
0.0
  0
LINE
  5
518
100
AcDbEntity
  8
layer 1
 62
256
370
9
 48
1.0
  6
BYLAYER
100
AcDbLine
 10
43.1636666666666713
 20
208.718733333333347
 30
0.0
 11
46.0000000000000142
 21
207.0
 31
0.0
  0
LINE
  5
519
100
AcDbEntity
  8
layer 1
 62
256
370
9
 48
1.0
  6
BYLAYER
100
AcDbLine
 10
107.1636666666666713
 20
208.718733333333347
 30
0.0
 11
110.0
 21
207.0
 31
0.0
  0
LINE
  5
51A
100
AcDbEntity
  8
layer 1
 62
256
370
9
 48
1.0
  6
BYLAYER
100
AcDbLine
 10
46.0
 20
15.0000000000000071
 30
0.0
 11
46.0
 21
10.7666666666666728
 31
0.0
  0
LINE
  5
51B
100
AcDbEntity
  8
layer 1
 62
256
370
9
 48
1.0
  6
BYLAYER
100
AcDbLine
 10
110.0
 20
15.0000000000000071
 30
0.0
 11
110.0
 21
10.7666666666666728
 31
0.0
  0
LINE
  5
51C
100
AcDbEntity
  8
layer 1
 62
256
370
9
 48
1.0
  6
BYLAYER
100
AcDbLine
 10
46.0000000000000071
 20
79.0
 30
0.0
 11
46.0000000000000071
 21
74.7666666666666799
 31
0.0
  0
LINE
  5
51D
100
AcDbEntity
  8
layer 1
 62
256
370
9
 48
1.0
  6
BYLAYER
100
AcDbLine
 10
110.0
 20
79.0
 30
0.0
 11
110.0
 21
74.7666666666666799
 31
0.0
  0
LINE
  5
51E
100
AcDbEntity
  8
layer 1
 62
256
370
9
 48
1.0
  6
BYLAYER
100
AcDbLine
 10
46.0000000000000071
 20
143.0
 30
0.0
 11
46.0000000000000071
 21
138.7666666666666799
 31
0.0
  0
LINE
  5
51F
100
AcDbEntity
  8
layer 1
 62
256
370
9
 48
1.0
  6
BYLAYER
100
AcDbLine
 10
110.0
 20
143.0
 30
0.0
 11
110.0
 21
138.7666666666666799
 31
0.0
  0
LINE
  5
520
100
AcDbEntity
  8
layer 1
 62
256
370
9
 48
1.0
  6
BYLAYER
100
AcDbLine
 10
46.0000000000000142
 20
207.0
 30
0.0
 11
46.0000000000000142
 21
202.7666666666666799
 31
0.0
  0
LINE
  5
521
100
AcDbEntity
  8
layer 1
 62
256
370
9
 48
1.0
  6
BYLAYER
100
AcDbLine
 10
110.0
 20
207.0
 30
0.0
 11
110.0
 21
202.7666666666666799
 31
0.0
  0
LINE
  5
522
100
AcDbEntity
  8
layer 1
 62
256
370
9
 48
1.0
  6
BYLAYER
100
AcDbLine
 10
46.0
 20
10.7666666666666728
 30
0.0
 11
47.5239999999999867
 21
10.7666666666666728
 31
0.0
  0
LINE
  5
523
100
AcDbEntity
  8
layer 1
 62
256
370
9
 48
1.0
  6
BYLAYER
100
AcDbLine
 10
110.0
 20
10.7666666666666728
 30
0.0
 11
111.5239999999999867
 21
10.7666666666666728
 31
0.0
  0
LINE
  5
524
100
AcDbEntity
  8
layer 1
 62
256
370
9
 48
1.0
  6
BYLAYER
100
AcDbLine
 10
46.0000000000000071
 20
74.7666666666666799
 30
0.0
 11
47.5239999999999938
 21
74.7666666666666799
 31
0.0
  0
LINE
  5
525
100
AcDbEntity
  8
layer 1
 62
256
370
9
 48
1.0
  6
BYLAYER
100
AcDbLine
 10
110.0
 20
74.7666666666666799
 30
0.0
 11
111.5240000000000009
 21
74.7666666666666799
 31
0.0
  0
LINE
  5
526
100
AcDbEntity
  8
layer 1
 62
256
370
9
 48
1.0
  6
BYLAYER
100
AcDbLine
 10
46.0000000000000071
 20
138.7666666666666799
 30
0.0
 11
47.5239999999999938
 21
138.7666666666666799
 31
0.0
  0
LINE
  5
527
100
AcDbEntity
  8
layer 1
 62
256
370
9
 48
1.0
  6
BYLAYER
100
AcDbLine
 10
110.0
 20
138.7666666666666799
 30
0.0
 11
111.5240000000000009
 21
138.7666666666666799
 31
0.0
  0
LINE
  5
528
100
AcDbEntity
  8
layer 1
 62
256
370
9
 48
1.0
  6
BYLAYER
100
AcDbLine
 10
46.0000000000000142
 20
202.7666666666666799
 30
0.0
 11
47.5240000000000009
 21
202.7666666666666799
 31
0.0
  0
LINE
  5
529
100
AcDbEntity
  8
layer 1
 62
256
370
9
 48
1.0
  6
BYLAYER
100
AcDbLine
 10
110.0
 20
202.7666666666666799
 30
0.0
 11
111.5240000000000009
 21
202.7666666666666799
 31
0.0
  0
LINE
  5
52A
100
AcDbEntity
  8
layer 1
 62
256
370
9
 48
1.0
  6
BYLAYER
100
AcDbLine
 10
47.5239999999999867
 20
10.7666666666666728
 30
0.0
 11
47.5239999999999867
 21
16.2700000000000031
 31
0.0
  0
LINE
  5
52B
100
AcDbEntity
  8
layer 1
 62
256
370
9
 48
1.0
  6
BYLAYER
100
AcDbLine
 10
111.5239999999999867
 20
10.7666666666666728
 30
0.0
 11
111.5239999999999867
 21
16.2700000000000031
 31
0.0
  0
LINE
  5
52C
100
AcDbEntity
  8
layer 1
 62
256
370
9
 48
1.0
  6
BYLAYER
100
AcDbLine
 10
47.5239999999999938
 20
74.7666666666666799
 30
0.0
 11
47.5239999999999938
 21
80.2700000000000102
 31
0.0
  0
LINE
  5
52D
100
AcDbEntity
  8
layer 1
 62
256
370
9
 48
1.0
  6
BYLAYER
100
AcDbLine
 10
111.5240000000000009
 20
74.7666666666666799
 30
0.0
 11
111.5240000000000009
 21
80.2700000000000102
 31
0.0
  0
LINE
  5
52E
100
AcDbEntity
  8
layer 1
 62
256
370
9
 48
1.0
  6
BYLAYER
100
AcDbLine
 10
47.5239999999999938
 20
138.7666666666666799
 30
0.0
 11
47.5239999999999938
 21
144.2700000000000102
 31
0.0
  0
LINE
  5
52F
100
AcDbEntity
  8
layer 1
 62
256
370
9
 48
1.0
  6
BYLAYER
100
AcDbLine
 10
111.5240000000000009
 20
138.7666666666666799
 30
0.0
 11
111.5240000000000009
 21
144.2700000000000102
 31
0.0
  0
LINE
  5
530
100
AcDbEntity
  8
layer 1
 62
256
370
9
 48
1.0
  6
BYLAYER
100
AcDbLine
 10
47.5240000000000009
 20
202.7666666666666799
 30
0.0
 11
47.5240000000000009
 21
208.2700000000000102
 31
0.0
  0
LINE
  5
531
100
AcDbEntity
  8
layer 1
 62
256
370
9
 48
1.0
  6
BYLAYER
100
AcDbLine
 10
111.5240000000000009
 20
202.7666666666666799
 30
0.0
 11
111.5240000000000009
 21
208.2700000000000102
 31
0.0
  0
LINE
  5
532
100
AcDbEntity
  8
layer 1
 62
256
370
9
 48
1.0
  6
BYLAYER
100
AcDbLine
 10
47.5239999999999867
 20
16.2700000000000031
 30
0.0
 11
45.6189999999999927
 21
17.6669999999999945
 31
0.0
  0
LINE
  5
533
100
AcDbEntity
  8
layer 1
 62
256
370
9
 48
1.0
  6
BYLAYER
100
AcDbLine
 10
111.5239999999999867
 20
16.2700000000000031
 30
0.0
 11
109.6189999999999998
 21
17.6669999999999945
 31
0.0
  0
LINE
  5
534
100
AcDbEntity
  8
layer 1
 62
256
370
9
 48
1.0
  6
BYLAYER
100
AcDbLine
 10
47.5239999999999938
 20
80.2700000000000102
 30
0.0
 11
45.6189999999999998
 21
81.6670000000000016
 31
0.0
  0
LINE
  5
535
100
AcDbEntity
  8
layer 1
 62
256
370
9
 48
1.0
  6
BYLAYER
100
AcDbLine
 10
111.5240000000000009
 20
80.2700000000000102
 30
0.0
 11
109.6189999999999998
 21
81.6670000000000016
 31
0.0
  0
LINE
  5
536
100
AcDbEntity
  8
layer 1
 62
256
370
9
 48
1.0
  6
BYLAYER
100
AcDbLine
 10
47.5239999999999938
 20
144.2700000000000102
 30
0.0
 11
45.6189999999999998
 21
145.6670000000000016
 31
0.0
  0
LINE
  5
537
100
AcDbEntity
  8
layer 1
 62
256
370
9
 48
1.0
  6
BYLAYER
100
AcDbLine
 10
111.5240000000000009
 20
144.2700000000000102
 30
0.0
 11
109.6189999999999998
 21
145.6670000000000016
 31
0.0
  0
LINE
  5
538
100
AcDbEntity
  8
layer 1
 62
256
370
9
 48
1.0
  6
BYLAYER
100
AcDbLine
 10
47.5240000000000009
 20
208.2700000000000102
 30
0.0
 11
45.6190000000000069
 21
209.6670000000000016
 31
0.0
  0
LINE
  5
539
100
AcDbEntity
  8
layer 1
 62
256
370
9
 48
1.0
  6
BYLAYER
100
AcDbLine
 10
111.5240000000000009
 20
208.2700000000000102
 30
0.0
 11
109.6189999999999998
 21
209.6670000000000016
 31
0.0
  0
LINE
  5
53A
100
AcDbEntity
  8
layer 1
 62
256
370
9
 48
1.0
  6
BYLAYER
100
AcDbLine
 10
45.6189999999999927
 20
17.6669999999999945
 30
0.0
 11
47.5832666666666526
 21
19.6566666666666592
 31
0.0
  0
LINE
  5
53B
100
AcDbEntity
  8
layer 1
 62
256
370
9
 48
1.0
  6
BYLAYER
100
AcDbLine
 10
109.6189999999999998
 20
17.6669999999999945
 30
0.0
 11
111.5832666666666455
 21
19.6566666666666592
 31
0.0
  0
LINE
  5
53C
100
AcDbEntity
  8
layer 1
 62
256
370
9
 48
1.0
  6
BYLAYER
100
AcDbLine
 10
45.6189999999999998
 20
81.6670000000000016
 30
0.0
 11
47.5832666666666597
 21
83.6566666666666663
 31
0.0
  0
LINE
  5
53D
100
AcDbEntity
  8
layer 1
 62
256
370
9
 48
1.0
  6
BYLAYER
100
AcDbLine
 10
109.6189999999999998
 20
81.6670000000000016
 30
0.0
 11
111.5832666666666455
 21
83.6566666666666663
 31
0.0
  0
LINE
  5
53E
100
AcDbEntity
  8
layer 1
 62
256
370
9
 48
1.0
  6
BYLAYER
100
AcDbLine
 10
45.6189999999999998
 20
145.6670000000000016
 30
0.0
 11
47.5832666666666597
 21
147.6566666666666663
 31
0.0
  0
LINE
  5
53F
100
AcDbEntity
  8
layer 1
 62
256
370
9
 48
1.0
  6
BYLAYER
100
AcDbLine
 10
109.6189999999999998
 20
145.6670000000000016
 30
0.0
 11
111.5832666666666455
 21
147.6566666666666663
 31
0.0
  0
LINE
  5
540
100
AcDbEntity
  8
layer 1
 62
256
370
9
 48
1.0
  6
BYLAYER
100
AcDbLine
 10
45.6190000000000069
 20
209.6670000000000016
 30
0.0
 11
47.5832666666666668
 21
211.6566666666666663
 31
0.0
  0
LINE
  5
541
100
AcDbEntity
  8
layer 1
 62
256
370
9
 48
1.0
  6
BYLAYER
100
AcDbLine
 10
109.6189999999999998
 20
209.6670000000000016
 30
0.0
 11
111.5832666666666455
 21
211.6566666666666663
 31
0.0
  0
ARC
  5
542
100
AcDbEntity
  8
layer 1
 62
256
370
9
 48
1.0
  6
BYLAYER
100
AcDbCircle
 10
52.6039999999999921
 20
11.6133333333333439
 30
0.0
 40
2.9633333333333329
100
AcDbArc
 50
180.0
 51
270.0
  0
ARC
  5
543
100
AcDbEntity
  8
layer 1
 62
256
370
9
 48
1.0
  6
BYLAYER
100
AcDbCircle
 10
116.603999999999985
 20
11.6133333333333439
 30
0.0
 40
2.9633333333333329
100
AcDbArc
 50
180.0
 51
270.0
  0
ARC
  5
544
100
AcDbEntity
  8
layer 1
 62
256
370
9
 48
1.0
  6
BYLAYER
100
AcDbCircle
 10
52.6039999999999992
 20
75.6133333333333439
 30
0.0
 40
2.9633333333333329
100
AcDbArc
 50
180.0
 51
270.0
  0
ARC
  5
545
100
AcDbEntity
  8
layer 1
 62
256
370
9
 48
1.0
  6
BYLAYER
100
AcDbCircle
 10
116.603999999999985
 20
75.6133333333333439
 30
0.0
 40
2.9633333333333329
100
AcDbArc
 50
180.0
 51
270.0
  0
ARC
  5
546
100
AcDbEntity
  8
layer 1
 62
256
370
9
 48
1.0
  6
BYLAYER
100
AcDbCircle
 10
52.6039999999999992
 20
139.6133333333333439
 30
0.0
 40
2.9633333333333329
100
AcDbArc
 50
180.0
 51
270.0
  0
ARC
  5
547
100
AcDbEntity
  8
layer 1
 62
256
370
9
 48
1.0
  6
BYLAYER
100
AcDbCircle
 10
116.603999999999985
 20
139.6133333333333439
 30
0.0
 40
2.9633333333333329
100
AcDbArc
 50
180.0
 51
270.0
  0
ARC
  5
548
100
AcDbEntity
  8
layer 1
 62
256
370
9
 48
1.0
  6
BYLAYER
100
AcDbCircle
 10
52.6040000000000063
 20
203.6133333333333439
 30
0.0
 40
2.9633333333333329
100
AcDbArc
 50
180.0
 51
270.0
  0
ARC
  5
549
100
AcDbEntity
  8
layer 1
 62
256
370
9
 48
1.0
  6
BYLAYER
100
AcDbCircle
 10
116.603999999999985
 20
203.6133333333333439
 30
0.0
 40
2.9633333333333329
100
AcDbArc
 50
180.0
 51
270.0
  0
ARC
  5
54A
100
AcDbEntity
  8
layer 1
 62
256
370
9
 48
1.0
  6
BYLAYER
100
AcDbCircle
 10
52.6039999999999921
 20
11.6133333333333439
 30
0.0
 40
2.9633333333333329
100
AcDbArc
 50
90.0000000000000142
 51
180.0
  0
ARC
  5
54B
100
AcDbEntity
  8
layer 1
 62
256
370
9
 48
1.0
  6
BYLAYER
100
AcDbCircle
 10
116.603999999999985
 20
11.6133333333333439
 30
0.0
 40
2.9633333333333329
100
AcDbArc
 50
90.0000000000000142
 51
180.0
  0
ARC
  5
54C
100
AcDbEntity
  8
layer 1
 62
256
370
9
 48
1.0
  6
BYLAYER
100
AcDbCircle
 10
52.6039999999999992
 20
75.6133333333333439
 30
0.0
 40
2.9633333333333329
100
AcDbArc
 50
90.0000000000000142
 51
180.0
  0
ARC
  5
54D
100
AcDbEntity
  8
layer 1
 62
256
370
9
 48
1.0
  6
BYLAYER
100
AcDbCircle
 10
116.603999999999985
 20
75.6133333333333439
 30
0.0
 40
2.9633333333333329
100
AcDbArc
 50
90.0000000000000142
 51
180.0
  0
ARC
  5
54E
100
AcDbEntity
  8
layer 1
 62
256
370
9
 48
1.0
  6
BYLAYER
100
AcDbCircle
 10
52.6039999999999992
 20
139.6133333333333439
 30
0.0
 40
2.9633333333333329
100
AcDbArc
 50
90.0000000000000142
 51
180.0
  0
ARC
  5
54F
100
AcDbEntity
  8
layer 1
 62
256
370
9
 48
1.0
  6
BYLAYER
100
AcDbCircle
 10
116.603999999999985
 20
139.6133333333333439
 30
0.0
 40
2.9633333333333329
100
AcDbArc
 50
90.0000000000000142
 51
180.0
  0
ARC
  5
550
100
AcDbEntity
  8
layer 1
 62
256
370
9
 48
1.0
  6
BYLAYER
100
AcDbCircle
 10
52.6040000000000063
 20
203.6133333333333439
 30
0.0
 40
2.9633333333333329
100
AcDbArc
 50
90.0000000000000142
 51
180.0
  0
ARC
  5
551
100
AcDbEntity
  8
layer 1
 62
256
370
9
 48
1.0
  6
BYLAYER
100
AcDbCircle
 10
116.603999999999985
 20
203.6133333333333439
 30
0.0
 40
2.9633333333333329
100
AcDbArc
 50
90.0000000000000142
 51
180.0
  0
ARC
  5
552
100
AcDbEntity
  8
layer 1
 62
256
370
9
 48
1.0
  6
BYLAYER
100
AcDbCircle
 10
52.6039999999999921
 20
11.6133333333333439
 30
0.0
 40
2.9633333333333329
100
AcDbArc
 50
0.0
 51
90.0000000000000142
  0
ARC
  5
553
100
AcDbEntity
  8
layer 1
 62
256
370
9
 48
1.0
  6
BYLAYER
100
AcDbCircle
 10
116.603999999999985
 20
11.6133333333333439
 30
0.0
 40
2.9633333333333329
100
AcDbArc
 50
0.0
 51
90.0000000000000142
  0
ARC
  5
554
100
AcDbEntity
  8
layer 1
 62
256
370
9
 48
1.0
  6
BYLAYER
100
AcDbCircle
 10
52.6039999999999992
 20
75.6133333333333439
 30
0.0
 40
2.9633333333333329
100
AcDbArc
 50
0.0
 51
90.0000000000000142
  0
ARC
  5
555
100
AcDbEntity
  8
layer 1
 62
256
370
9
 48
1.0
  6
BYLAYER
100
AcDbCircle
 10
116.603999999999985
 20
75.6133333333333439
 30
0.0
 40
2.9633333333333329
100
AcDbArc
 50
0.0
 51
90.0000000000000142
  0
ARC
  5
556
100
AcDbEntity
  8
layer 1
 62
256
370
9
 48
1.0
  6
BYLAYER
100
AcDbCircle
 10
52.6039999999999992
 20
139.6133333333333439
 30
0.0
 40
2.9633333333333329
100
AcDbArc
 50
0.0
 51
90.0000000000000142
  0
ARC
  5
557
100
AcDbEntity
  8
layer 1
 62
256
370
9
 48
1.0
  6
BYLAYER
100
AcDbCircle
 10
116.603999999999985
 20
139.6133333333333439
 30
0.0
 40
2.9633333333333329
100
AcDbArc
 50
0.0
 51
90.0000000000000142
  0
ARC
  5
558
100
AcDbEntity
  8
layer 1
 62
256
370
9
 48
1.0
  6
BYLAYER
100
AcDbCircle
 10
52.6040000000000063
 20
203.6133333333333439
 30
0.0
 40
2.9633333333333329
100
AcDbArc
 50
0.0
 51
90.0000000000000142
  0
ARC
  5
559
100
AcDbEntity
  8
layer 1
 62
256
370
9
 48
1.0
  6
BYLAYER
100
AcDbCircle
 10
116.603999999999985
 20
203.6133333333333439
 30
0.0
 40
2.9633333333333329
100
AcDbArc
 50
0.0
 51
90.0000000000000142
  0
ARC
  5
55A
100
AcDbEntity
  8
layer 1
 62
256
370
9
 48
1.0
  6
BYLAYER
100
AcDbCircle
 10
52.6039999999999921
 20
11.6133333333333439
 30
0.0
 40
2.9633333333333329
100
AcDbArc
 50
270.0
 51
0.0
  0
ARC
  5
55B
100
AcDbEntity
  8
layer 1
 62
256
370
9
 48
1.0
  6
BYLAYER
100
AcDbCircle
 10
116.603999999999985
 20
11.6133333333333439
 30
0.0
 40
2.9633333333333329
100
AcDbArc
 50
270.0
 51
0.0
  0
ARC
  5
55C
100
AcDbEntity
  8
layer 1
 62
256
370
9
 48
1.0
  6
BYLAYER
100
AcDbCircle
 10
52.6039999999999992
 20
75.6133333333333439
 30
0.0
 40
2.9633333333333329
100
AcDbArc
 50
270.0
 51
0.0
  0
ARC
  5
55D
100
AcDbEntity
  8
layer 1
 62
256
370
9
 48
1.0
  6
BYLAYER
100
AcDbCircle
 10
116.603999999999985
 20
75.6133333333333439
 30
0.0
 40
2.9633333333333329
100
AcDbArc
 50
270.0
 51
0.0
  0
ARC
  5
55E
100
AcDbEntity
  8
layer 1
 62
256
370
9
 48
1.0
  6
BYLAYER
100
AcDbCircle
 10
52.6039999999999992
 20
139.6133333333333439
 30
0.0
 40
2.9633333333333329
100
AcDbArc
 50
270.0
 51
0.0
  0
ARC
  5
55F
100
AcDbEntity
  8
layer 1
 62
256
370
9
 48
1.0
  6
BYLAYER
100
AcDbCircle
 10
116.603999999999985
 20
139.6133333333333439
 30
0.0
 40
2.9633333333333329
100
AcDbArc
 50
270.0
 51
0.0
  0
ARC
  5
560
100
AcDbEntity
  8
layer 1
 62
256
370
9
 48
1.0
  6
BYLAYER
100
AcDbCircle
 10
52.6040000000000063
 20
203.6133333333333439
 30
0.0
 40
2.9633333333333329
100
AcDbArc
 50
270.0
 51
0.0
  0
ARC
  5
561
100
AcDbEntity
  8
layer 1
 62
256
370
9
 48
1.0
  6
BYLAYER
100
AcDbCircle
 10
116.603999999999985
 20
203.6133333333333439
 30
0.0
 40
2.9633333333333329
100
AcDbArc
 50
270.0
 51
0.0
  0
ARC
  5
562
100
AcDbEntity
  8
layer 1
 62
256
370
9
 48
1.0
  6
BYLAYER
100
AcDbCircle
 10
52.6039999999999921
 20
11.6133333333333439
 30
0.0
 40
4.2333333333333325
100
AcDbArc
 50
90.0000000000000142
 51
180.0
  0
ARC
  5
563
100
AcDbEntity
  8
layer 1
 62
256
370
9
 48
1.0
  6
BYLAYER
100
AcDbCircle
 10
116.603999999999985
 20
11.6133333333333439
 30
0.0
 40
4.2333333333333325
100
AcDbArc
 50
90.0000000000000142
 51
180.0
  0
ARC
  5
564
100
AcDbEntity
  8
layer 1
 62
256
370
9
 48
1.0
  6
BYLAYER
100
AcDbCircle
 10
52.6039999999999992
 20
75.6133333333333439
 30
0.0
 40
4.2333333333333325
100
AcDbArc
 50
90.0000000000000142
 51
180.0
  0
ARC
  5
565
100
AcDbEntity
  8
layer 1
 62
256
370
9
 48
1.0
  6
BYLAYER
100
AcDbCircle
 10
116.603999999999985
 20
75.6133333333333439
 30
0.0
 40
4.2333333333333325
100
AcDbArc
 50
90.0000000000000142
 51
180.0
  0
ARC
  5
566
100
AcDbEntity
  8
layer 1
 62
256
370
9
 48
1.0
  6
BYLAYER
100
AcDbCircle
 10
52.6039999999999992
 20
139.6133333333333439
 30
0.0
 40
4.2333333333333325
100
AcDbArc
 50
90.0000000000000142
 51
180.0
  0
ARC
  5
567
100
AcDbEntity
  8
layer 1
 62
256
370
9
 48
1.0
  6
BYLAYER
100
AcDbCircle
 10
116.603999999999985
 20
139.6133333333333439
 30
0.0
 40
4.2333333333333325
100
AcDbArc
 50
90.0000000000000142
 51
180.0
  0
ARC
  5
568
100
AcDbEntity
  8
layer 1
 62
256
370
9
 48
1.0
  6
BYLAYER
100
AcDbCircle
 10
52.6040000000000063
 20
203.6133333333333439
 30
0.0
 40
4.2333333333333325
100
AcDbArc
 50
90.0000000000000142
 51
180.0
  0
ARC
  5
569
100
AcDbEntity
  8
layer 1
 62
256
370
9
 48
1.0
  6
BYLAYER
100
AcDbCircle
 10
116.603999999999985
 20
203.6133333333333439
 30
0.0
 40
4.2333333333333325
100
AcDbArc
 50
90.0000000000000142
 51
180.0
  0
ARC
  5
56A
100
AcDbEntity
  8
layer 1
 62
256
370
9
 48
1.0
  6
BYLAYER
100
AcDbCircle
 10
52.6039999999999921
 20
11.6133333333333439
 30
0.0
 40
4.2333333333333325
100
AcDbArc
 50
180.0
 51
270.0
  0
ARC
  5
56B
100
AcDbEntity
  8
layer 1
 62
256
370
9
 48
1.0
  6
BYLAYER
100
AcDbCircle
 10
116.603999999999985
 20
11.6133333333333439
 30
0.0
 40
4.2333333333333325
100
AcDbArc
 50
180.0
 51
270.0
  0
ARC
  5
56C
100
AcDbEntity
  8
layer 1
 62
256
370
9
 48
1.0
  6
BYLAYER
100
AcDbCircle
 10
52.6039999999999992
 20
75.6133333333333439
 30
0.0
 40
4.2333333333333325
100
AcDbArc
 50
180.0
 51
270.0
  0
ARC
  5
56D
100
AcDbEntity
  8
layer 1
 62
256
370
9
 48
1.0
  6
BYLAYER
100
AcDbCircle
 10
116.603999999999985
 20
75.6133333333333439
 30
0.0
 40
4.2333333333333325
100
AcDbArc
 50
180.0
 51
270.0
  0
ARC
  5
56E
100
AcDbEntity
  8
layer 1
 62
256
370
9
 48
1.0
  6
BYLAYER
100
AcDbCircle
 10
52.6039999999999992
 20
139.6133333333333439
 30
0.0
 40
4.2333333333333325
100
AcDbArc
 50
180.0
 51
270.0
  0
ARC
  5
56F
100
AcDbEntity
  8
layer 1
 62
256
370
9
 48
1.0
  6
BYLAYER
100
AcDbCircle
 10
116.603999999999985
 20
139.6133333333333439
 30
0.0
 40
4.2333333333333325
100
AcDbArc
 50
180.0
 51
270.0
  0
ARC
  5
570
100
AcDbEntity
  8
layer 1
 62
256
370
9
 48
1.0
  6
BYLAYER
100
AcDbCircle
 10
52.6040000000000063
 20
203.6133333333333439
 30
0.0
 40
4.2333333333333325
100
AcDbArc
 50
180.0
 51
270.0
  0
ARC
  5
571
100
AcDbEntity
  8
layer 1
 62
256
370
9
 48
1.0
  6
BYLAYER
100
AcDbCircle
 10
116.603999999999985
 20
203.6133333333333439
 30
0.0
 40
4.2333333333333325
100
AcDbArc
 50
180.0
 51
270.0
  0
ARC
  5
572
100
AcDbEntity
  8
layer 1
 62
256
370
9
 48
1.0
  6
BYLAYER
100
AcDbCircle
 10
52.6039999999999921
 20
11.6133333333333439
 30
0.0
 40
4.2333333333333325
100
AcDbArc
 50
270.0
 51
0.0
  0
ARC
  5
573
100
AcDbEntity
  8
layer 1
 62
256
370
9
 48
1.0
  6
BYLAYER
100
AcDbCircle
 10
116.603999999999985
 20
11.6133333333333439
 30
0.0
 40
4.2333333333333325
100
AcDbArc
 50
270.0
 51
0.0
  0
ARC
  5
574
100
AcDbEntity
  8
layer 1
 62
256
370
9
 48
1.0
  6
BYLAYER
100
AcDbCircle
 10
52.6039999999999992
 20
75.6133333333333439
 30
0.0
 40
4.2333333333333325
100
AcDbArc
 50
270.0
 51
0.0
  0
ARC
  5
575
100
AcDbEntity
  8
layer 1
 62
256
370
9
 48
1.0
  6
BYLAYER
100
AcDbCircle
 10
116.603999999999985
 20
75.6133333333333439
 30
0.0
 40
4.2333333333333325
100
AcDbArc
 50
270.0
 51
0.0
  0
ARC
  5
576
100
AcDbEntity
  8
layer 1
 62
256
370
9
 48
1.0
  6
BYLAYER
100
AcDbCircle
 10
52.6039999999999992
 20
139.6133333333333439
 30
0.0
 40
4.2333333333333325
100
AcDbArc
 50
270.0
 51
0.0
  0
ARC
  5
577
100
AcDbEntity
  8
layer 1
 62
256
370
9
 48
1.0
  6
BYLAYER
100
AcDbCircle
 10
116.603999999999985
 20
139.6133333333333439
 30
0.0
 40
4.2333333333333325
100
AcDbArc
 50
270.0
 51
0.0
  0
ARC
  5
578
100
AcDbEntity
  8
layer 1
 62
256
370
9
 48
1.0
  6
BYLAYER
100
AcDbCircle
 10
52.6040000000000063
 20
203.6133333333333439
 30
0.0
 40
4.2333333333333325
100
AcDbArc
 50
270.0
 51
0.0
  0
ARC
  5
579
100
AcDbEntity
  8
layer 1
 62
256
370
9
 48
1.0
  6
BYLAYER
100
AcDbCircle
 10
116.603999999999985
 20
203.6133333333333439
 30
0.0
 40
4.2333333333333325
100
AcDbArc
 50
270.0
 51
0.0
  0
ARC
  5
57A
100
AcDbEntity
  8
layer 1
 62
256
370
9
 48
1.0
  6
BYLAYER
100
AcDbCircle
 10
52.6039999999999921
 20
11.6133333333333439
 30
0.0
 40
4.2333333333333325
100
AcDbArc
 50
0.0
 51
90.0000000000000142
  0
ARC
  5
57B
100
AcDbEntity
  8
layer 1
 62
256
370
9
 48
1.0
  6
BYLAYER
100
AcDbCircle
 10
116.603999999999985
 20
11.6133333333333439
 30
0.0
 40
4.2333333333333325
100
AcDbArc
 50
0.0
 51
90.0000000000000142
  0
ARC
  5
57C
100
AcDbEntity
  8
layer 1
 62
256
370
9
 48
1.0
  6
BYLAYER
100
AcDbCircle
 10
52.6039999999999992
 20
75.6133333333333439
 30
0.0
 40
4.2333333333333325
100
AcDbArc
 50
0.0
 51
90.0000000000000142
  0
ARC
  5
57D
100
AcDbEntity
  8
layer 1
 62
256
370
9
 48
1.0
  6
BYLAYER
100
AcDbCircle
 10
116.603999999999985
 20
75.6133333333333439
 30
0.0
 40
4.2333333333333325
100
AcDbArc
 50
0.0
 51
90.0000000000000142
  0
ARC
  5
57E
100
AcDbEntity
  8
layer 1
 62
256
370
9
 48
1.0
  6
BYLAYER
100
AcDbCircle
 10
52.6039999999999992
 20
139.6133333333333439
 30
0.0
 40
4.2333333333333325
100
AcDbArc
 50
0.0
 51
90.0000000000000142
  0
ARC
  5
57F
100
AcDbEntity
  8
layer 1
 62
256
370
9
 48
1.0
  6
BYLAYER
100
AcDbCircle
 10
116.603999999999985
 20
139.6133333333333439
 30
0.0
 40
4.2333333333333325
100
AcDbArc
 50
0.0
 51
90.0000000000000142
  0
ARC
  5
580
100
AcDbEntity
  8
layer 1
 62
256
370
9
 48
1.0
  6
BYLAYER
100
AcDbCircle
 10
52.6040000000000063
 20
203.6133333333333439
 30
0.0
 40
4.2333333333333325
100
AcDbArc
 50
0.0
 51
90.0000000000000142
  0
ARC
  5
581
100
AcDbEntity
  8
layer 1
 62
256
370
9
 48
1.0
  6
BYLAYER
100
AcDbCircle
 10
116.603999999999985
 20
203.6133333333333439
 30
0.0
 40
4.2333333333333325
100
AcDbArc
 50
0.0
 51
90.0000000000000142
  0
ARC
  5
582
100
AcDbEntity
  8
layer 1
 62
256
370
9
 48
1.0
  6
BYLAYER
100
AcDbCircle
 10
50.0703499999999977
 20
23.4603166666666709
 30
0.0
 40
1.5176632844606872
100
AcDbArc
 50
269.7602701039189128
 51
0.2397298960808339
  0
ARC
  5
583
100
AcDbEntity
  8
layer 1
 62
256
370
9
 48
1.0
  6
BYLAYER
100
AcDbCircle
 10
114.0703499999999906
 20
23.4603166666666709
 30
0.0
 40
1.5176632844606872
100
AcDbArc
 50
269.7602701039189128
 51
0.2397298960808339
  0
ARC
  5
584
100
AcDbEntity
  8
layer 1
 62
256
370
9
 48
1.0
  6
BYLAYER
100
AcDbCircle
 10
50.0703500000000048
 20
87.4603166666666709
 30
0.0
 40
1.5176632844606872
100
AcDbArc
 50
269.7602701039189128
 51
0.2397298960808339
  0
ARC
  5
585
100
AcDbEntity
  8
layer 1
 62
256
370
9
 48
1.0
  6
BYLAYER
100
AcDbCircle
 10
114.0703499999999906
 20
87.4603166666666709
 30
0.0
 40
1.5176632844606872
100
AcDbArc
 50
269.7602701039189128
 51
0.2397298960808339
  0
ARC
  5
586
100
AcDbEntity
  8
layer 1
 62
256
370
9
 48
1.0
  6
BYLAYER
100
AcDbCircle
 10
50.0703500000000048
 20
151.4603166666666709
 30
0.0
 40
1.5176632844606872
100
AcDbArc
 50
269.7602701039189128
 51
0.2397298960808339
  0
ARC
  5
587
100
AcDbEntity
  8
layer 1
 62
256
370
9
 48
1.0
  6
BYLAYER
100
AcDbCircle
 10
114.0703499999999906
 20
151.4603166666666709
 30
0.0
 40
1.5176632844606872
100
AcDbArc
 50
269.7602701039189128
 51
0.2397298960808339
  0
ARC
  5
588
100
AcDbEntity
  8
layer 1
 62
256
370
9
 48
1.0
  6
BYLAYER
100
AcDbCircle
 10
50.0703500000000119
 20
215.4603166666666709
 30
0.0
 40
1.5176632844606872
100
AcDbArc
 50
269.7602701039189128
 51
0.2397298960808339
  0
ARC
  5
589
100
AcDbEntity
  8
layer 1
 62
256
370
9
 48
1.0
  6
BYLAYER
100
AcDbCircle
 10
114.0703499999999906
 20
215.4603166666666709
 30
0.0
 40
1.5176632844606872
100
AcDbArc
 50
269.7602701039189128
 51
0.2397298960808339
  0
ARC
  5
58A
100
AcDbEntity
  8
layer 1
 62
256
370
9
 48
1.0
  6
BYLAYER
100
AcDbCircle
 10
50.0703499999999977
 20
23.4730166666666662
 30
0.0
 40
1.5176632844606912
100
AcDbArc
 50
359.760270103919197
 51
90.2397298960810019
  0
ARC
  5
58B
100
AcDbEntity
  8
layer 1
 62
256
370
9
 48
1.0
  6
BYLAYER
100
AcDbCircle
 10
114.0703499999999906
 20
23.4730166666666662
 30
0.0
 40
1.5176632844606912
100
AcDbArc
 50
359.760270103919197
 51
90.2397298960810019
  0
ARC
  5
58C
100
AcDbEntity
  8
layer 1
 62
256
370
9
 48
1.0
  6
BYLAYER
100
AcDbCircle
 10
50.0703500000000048
 20
87.4730166666666662
 30
0.0
 40
1.5176632844606912
100
AcDbArc
 50
359.760270103919197
 51
90.2397298960810019
  0
ARC
  5
58D
100
AcDbEntity
  8
layer 1
 62
256
370
9
 48
1.0
  6
BYLAYER
100
AcDbCircle
 10
114.0703499999999906
 20
87.4730166666666662
 30
0.0
 40
1.5176632844606912
100
AcDbArc
 50
359.760270103919197
 51
90.2397298960810019
  0
ARC
  5
58E
100
AcDbEntity
  8
layer 1
 62
256
370
9
 48
1.0
  6
BYLAYER
100
AcDbCircle
 10
50.0703500000000048
 20
151.4730166666666662
 30
0.0
 40
1.5176632844606912
100
AcDbArc
 50
359.760270103919197
 51
90.2397298960810019
  0
ARC
  5
58F
100
AcDbEntity
  8
layer 1
 62
256
370
9
 48
1.0
  6
BYLAYER
100
AcDbCircle
 10
114.0703499999999906
 20
151.4730166666666662
 30
0.0
 40
1.5176632844606912
100
AcDbArc
 50
359.760270103919197
 51
90.2397298960810019
  0
ARC
  5
590
100
AcDbEntity
  8
layer 1
 62
256
370
9
 48
1.0
  6
BYLAYER
100
AcDbCircle
 10
50.0703500000000119
 20
215.4730166666666662
 30
0.0
 40
1.5176632844606912
100
AcDbArc
 50
359.760270103919197
 51
90.2397298960810019
  0
ARC
  5
591
100
AcDbEntity
  8
layer 1
 62
256
370
9
 48
1.0
  6
BYLAYER
100
AcDbCircle
 10
114.0703499999999906
 20
215.4730166666666662
 30
0.0
 40
1.5176632844606912
100
AcDbArc
 50
359.760270103919197
 51
90.2397298960810019
  0
ARC
  5
592
100
AcDbEntity
  8
layer 1
 62
256
370
9
 48
1.0
  6
BYLAYER
100
AcDbCircle
 10
50.0576500000000024
 20
23.4730166666666662
 30
0.0
 40
1.5176632844606885
100
AcDbArc
 50
89.760270103919197
 51
180.2397298960808314
  0
ARC
  5
593
100
AcDbEntity
  8
layer 1
 62
256
370
9
 48
1.0
  6
BYLAYER
100
AcDbCircle
 10
114.0576499999999953
 20
23.4730166666666662
 30
0.0
 40
1.5176632844606885
100
AcDbArc
 50
89.760270103919197
 51
180.2397298960808314
  0
ARC
  5
594
100
AcDbEntity
  8
layer 1
 62
256
370
9
 48
1.0
  6
BYLAYER
100
AcDbCircle
 10
50.0576500000000095
 20
87.4730166666666662
 30
0.0
 40
1.5176632844606885
100
AcDbArc
 50
89.760270103919197
 51
180.2397298960808314
  0
ARC
  5
595
100
AcDbEntity
  8
layer 1
 62
256
370
9
 48
1.0
  6
BYLAYER
100
AcDbCircle
 10
114.0576499999999953
 20
87.4730166666666662
 30
0.0
 40
1.5176632844606885
100
AcDbArc
 50
89.760270103919197
 51
180.2397298960808314
  0
ARC
  5
596
100
AcDbEntity
  8
layer 1
 62
256
370
9
 48
1.0
  6
BYLAYER
100
AcDbCircle
 10
50.0576500000000095
 20
151.4730166666666662
 30
0.0
 40
1.5176632844606885
100
AcDbArc
 50
89.760270103919197
 51
180.2397298960808314
  0
ARC
  5
597
100
AcDbEntity
  8
layer 1
 62
256
370
9
 48
1.0
  6
BYLAYER
100
AcDbCircle
 10
114.0576499999999953
 20
151.4730166666666662
 30
0.0
 40
1.5176632844606885
100
AcDbArc
 50
89.760270103919197
 51
180.2397298960808314
  0
ARC
  5
598
100
AcDbEntity
  8
layer 1
 62
256
370
9
 48
1.0
  6
BYLAYER
100
AcDbCircle
 10
50.0576500000000166
 20
215.4730166666666662
 30
0.0
 40
1.5176632844606885
100
AcDbArc
 50
89.760270103919197
 51
180.2397298960808314
  0
ARC
  5
599
100
AcDbEntity
  8
layer 1
 62
256
370
9
 48
1.0
  6
BYLAYER
100
AcDbCircle
 10
114.0576499999999953
 20
215.4730166666666662
 30
0.0
 40
1.5176632844606885
100
AcDbArc
 50
89.760270103919197
 51
180.2397298960808314
  0
ARC
  5
59A
100
AcDbEntity
  8
layer 1
 62
256
370
9
 48
1.0
  6
BYLAYER
100
AcDbCircle
 10
50.0576500000000024
 20
23.4603166666666709
 30
0.0
 40
1.5176632844606885
100
AcDbArc
 50
179.7602701039191686
 51
270.239729896080803
  0
ARC
  5
59B
100
AcDbEntity
  8
layer 1
 62
256
370
9
 48
1.0
  6
BYLAYER
100
AcDbCircle
 10
114.0576499999999953
 20
23.4603166666666709
 30
0.0
 40
1.5176632844606885
100
AcDbArc
 50
179.7602701039191686
 51
270.239729896080803
  0
ARC
  5
59C
100
AcDbEntity
  8
layer 1
 62
256
370
9
 48
1.0
  6
BYLAYER
100
AcDbCircle
 10
50.0576500000000095
 20
87.4603166666666709
 30
0.0
 40
1.5176632844606885
100
AcDbArc
 50
179.7602701039191686
 51
270.239729896080803
  0
ARC
  5
59D
100
AcDbEntity
  8
layer 1
 62
256
370
9
 48
1.0
  6
BYLAYER
100
AcDbCircle
 10
114.0576499999999953
 20
87.4603166666666709
 30
0.0
 40
1.5176632844606885
100
AcDbArc
 50
179.7602701039191686
 51
270.239729896080803
  0
ARC
  5
59E
100
AcDbEntity
  8
layer 1
 62
256
370
9
 48
1.0
  6
BYLAYER
100
AcDbCircle
 10
50.0576500000000095
 20
151.4603166666666709
 30
0.0
 40
1.5176632844606885
100
AcDbArc
 50
179.7602701039191686
 51
270.239729896080803
  0
ARC
  5
59F
100
AcDbEntity
  8
layer 1
 62
256
370
9
 48
1.0
  6
BYLAYER
100
AcDbCircle
 10
114.0576499999999953
 20
151.4603166666666709
 30
0.0
 40
1.5176632844606885
100
AcDbArc
 50
179.7602701039191686
 51
270.239729896080803
  0
ARC
  5
5A0
100
AcDbEntity
  8
layer 1
 62
256
370
9
 48
1.0
  6
BYLAYER
100
AcDbCircle
 10
50.0576500000000166
 20
215.4603166666666709
 30
0.0
 40
1.5176632844606885
100
AcDbArc
 50
179.7602701039191686
 51
270.239729896080803
  0
ARC
  5
5A1
100
AcDbEntity
  8
layer 1
 62
256
370
9
 48
1.0
  6
BYLAYER
100
AcDbCircle
 10
114.0576499999999953
 20
215.4603166666666709
 30
0.0
 40
1.5176632844606885
100
AcDbArc
 50
179.7602701039191686
 51
270.239729896080803
  0
ARC
  5
5A2
100
AcDbEntity
  8
layer 1
 62
256
370
9
 48
1.0
  6
BYLAYER
100
AcDbCircle
 10
20.740819627047351
 20
45.8374040559981069
 30
0.0
 40
9.9946168936957243
100
AcDbArc
 50
73.2573689529314436
 51
90.4824263387567242
  0
ARC
  5
5A3
100
AcDbEntity
  8
layer 1
 62
256
370
9
 48
1.0
  6
BYLAYER
100
AcDbCircle
 10
84.7408196270473582
 20
45.8374040559981069
 30
0.0
 40
9.9946168936957243
100
AcDbArc
 50
73.2573689529314436
 51
90.4824263387567242
  0
ARC
  5
5A4
100
AcDbEntity
  8
layer 1
 62
256
370
9
 48
1.0
  6
BYLAYER
100
AcDbCircle
 10
20.7408196270473582
 20
109.8374040559981069
 30
0.0
 40
9.9946168936957243
100
AcDbArc
 50
73.2573689529314436
 51
90.4824263387567242
  0
ARC
  5
5A5
100
AcDbEntity
  8
layer 1
 62
256
370
9
 48
1.0
  6
BYLAYER
100
AcDbCircle
 10
84.7408196270473582
 20
109.8374040559981069
 30
0.0
 40
9.9946168936957243
100
AcDbArc
 50
73.2573689529314436
 51
90.4824263387567242
  0
ARC
  5
5A6
100
AcDbEntity
  8
layer 1
 62
256
370
9
 48
1.0
  6
BYLAYER
100
AcDbCircle
 10
20.7408196270473582
 20
173.8374040559980926
 30
0.0
 40
9.9946168936957243
100
AcDbArc
 50
73.2573689529314436
 51
90.4824263387567242
  0
ARC
  5
5A7
100
AcDbEntity
  8
layer 1
 62
256
370
9
 48
1.0
  6
BYLAYER
100
AcDbCircle
 10
84.7408196270473582
 20
173.8374040559980926
 30
0.0
 40
9.9946168936957243
100
AcDbArc
 50
73.2573689529314436
 51
90.4824263387567242
  0
ARC
  5
5A8
100
AcDbEntity
  8
layer 1
 62
256
370
9
 48
1.0
  6
BYLAYER
100
AcDbCircle
 10
20.7408196270473653
 20
237.8374040559980926
 30
0.0
 40
9.9946168936957243
100
AcDbArc
 50
73.2573689529314436
 51
90.4824263387567242
  0
ARC
  5
5A9
100
AcDbEntity
  8
layer 1
 62
256
370
9
 48
1.0
  6
BYLAYER
100
AcDbCircle
 10
84.7408196270473582
 20
237.8374040559980926
 30
0.0
 40
9.9946168936957243
100
AcDbArc
 50
73.2573689529314436
 51
90.4824263387567242
  0
ARC
  5
5AA
100
AcDbEntity
  8
layer 1
 62
256
370
9
 48
1.0
  6
BYLAYER
100
AcDbCircle
 10
20.3004908088235183
 20
47.9654225898692914
 30
0.0
 40
7.8743035957131049
100
AcDbArc
 50
87.407473755083501
 51
123.1027636510321059
  0
ARC
  5
5AB
100
AcDbEntity
  8
layer 1
 62
256
370
9
 48
1.0
  6
BYLAYER
100
AcDbCircle
 10
84.3004908088235254
 20
47.9654225898692914
 30
0.0
 40
7.8743035957131049
100
AcDbArc
 50
87.407473755083501
 51
123.1027636510321059
  0
ARC
  5
5AC
100
AcDbEntity
  8
layer 1
 62
256
370
9
 48
1.0
  6
BYLAYER
100
AcDbCircle
 10
20.3004908088235254
 20
111.9654225898692914
 30
0.0
 40
7.8743035957131049
100
AcDbArc
 50
87.407473755083501
 51
123.1027636510321059
  0
ARC
  5
5AD
100
AcDbEntity
  8
layer 1
 62
256
370
9
 48
1.0
  6
BYLAYER
100
AcDbCircle
 10
84.3004908088235254
 20
111.9654225898692914
 30
0.0
 40
7.8743035957131049
100
AcDbArc
 50
87.407473755083501
 51
123.1027636510321059
  0
ARC
  5
5AE
100
AcDbEntity
  8
layer 1
 62
256
370
9
 48
1.0
  6
BYLAYER
100
AcDbCircle
 10
20.3004908088235254
 20
175.9654225898692914
 30
0.0
 40
7.8743035957131049
100
AcDbArc
 50
87.407473755083501
 51
123.1027636510321059
  0
ARC
  5
5AF
100
AcDbEntity
  8
layer 1
 62
256
370
9
 48
1.0
  6
BYLAYER
100
AcDbCircle
 10
84.3004908088235254
 20
175.9654225898692914
 30
0.0
 40
7.8743035957131049
100
AcDbArc
 50
87.407473755083501
 51
123.1027636510321059
  0
ARC
  5
5B0
100
AcDbEntity
  8
layer 1
 62
256
370
9
 48
1.0
  6
BYLAYER
100
AcDbCircle
 10
20.3004908088235325
 20
239.9654225898692914
 30
0.0
 40
7.8743035957131049
100
AcDbArc
 50
87.407473755083501
 51
123.1027636510321059
  0
ARC
  5
5B1
100
AcDbEntity
  8
layer 1
 62
256
370
9
 48
1.0
  6
BYLAYER
100
AcDbCircle
 10
84.3004908088235254
 20
239.9654225898692914
 30
0.0
 40
7.8743035957131049
100
AcDbArc
 50
87.407473755083501
 51
123.1027636510321059
  0
ARC
  5
5B2
100
AcDbEntity
  8
layer 1
 62
256
370
9
 48
1.0
  6
BYLAYER
100
AcDbCircle
 10
11.6995091911764568
 20
47.9654225898692488
 30
0.0
 40
7.8743035957131404
100
AcDbArc
 50
56.8972363489680717
 51
92.5925262449164848
  0
ARC
  5
5B3
100
AcDbEntity
  8
layer 1
 62
256
370
9
 48
1.0
  6
BYLAYER
100
AcDbCircle
 10
75.6995091911764604
 20
47.9654225898692488
 30
0.0
 40
7.8743035957131404
100
AcDbArc
 50
56.8972363489680717
 51
92.5925262449164848
  0
ARC
  5
5B4
100
AcDbEntity
  8
layer 1
 62
256
370
9
 48
1.0
  6
BYLAYER
100
AcDbCircle
 10
11.6995091911764639
 20
111.9654225898692488
 30
0.0
 40
7.8743035957131404
100
AcDbArc
 50
56.8972363489680717
 51
92.5925262449164848
  0
ARC
  5
5B5
100
AcDbEntity
  8
layer 1
 62
256
370
9
 48
1.0
  6
BYLAYER
100
AcDbCircle
 10
75.6995091911764746
 20
111.9654225898692488
 30
0.0
 40
7.8743035957131404
100
AcDbArc
 50
56.8972363489680717
 51
92.5925262449164848
  0
ARC
  5
5B6
100
AcDbEntity
  8
layer 1
 62
256
370
9
 48
1.0
  6
BYLAYER
100
AcDbCircle
 10
11.6995091911764639
 20
175.965422589869263
 30
0.0
 40
7.8743035957131404
100
AcDbArc
 50
56.8972363489680717
 51
92.5925262449164848
  0
ARC
  5
5B7
100
AcDbEntity
  8
layer 1
 62
256
370
9
 48
1.0
  6
BYLAYER
100
AcDbCircle
 10
75.6995091911764746
 20
175.965422589869263
 30
0.0
 40
7.8743035957131404
100
AcDbArc
 50
56.8972363489680717
 51
92.5925262449164848
  0
ARC
  5
5B8
100
AcDbEntity
  8
layer 1
 62
256
370
9
 48
1.0
  6
BYLAYER
100
AcDbCircle
 10
11.699509191176471
 20
239.965422589869263
 30
0.0
 40
7.8743035957131404
100
AcDbArc
 50
56.8972363489680717
 51
92.5925262449164848
  0
ARC
  5
5B9
100
AcDbEntity
  8
layer 1
 62
256
370
9
 48
1.0
  6
BYLAYER
100
AcDbCircle
 10
75.6995091911764746
 20
239.965422589869263
 30
0.0
 40
7.8743035957131404
100
AcDbArc
 50
56.8972363489680717
 51
92.5925262449164848
  0
ARC
  5
5BA
100
AcDbEntity
  8
layer 1
 62
256
370
9
 48
1.0
  6
BYLAYER
100
AcDbCircle
 10
10.9871574754901893
 20
47.9654225898692488
 30
0.0
 40
7.8743035957131209
100
AcDbArc
 50
87.4074737550835579
 51
123.1027636510320207
  0
ARC
  5
5BB
100
AcDbEntity
  8
layer 1
 62
256
370
9
 48
1.0
  6
BYLAYER
100
AcDbCircle
 10
74.9871574754901928
 20
47.9654225898692488
 30
0.0
 40
7.8743035957131209
100
AcDbArc
 50
87.4074737550835579
 51
123.1027636510320207
  0
ARC
  5
5BC
100
AcDbEntity
  8
layer 1
 62
256
370
9
 48
1.0
  6
BYLAYER
100
AcDbCircle
 10
10.9871574754901964
 20
111.9654225898692488
 30
0.0
 40
7.8743035957131209
100
AcDbArc
 50
87.4074737550835579
 51
123.1027636510320207
  0
ARC
  5
5BD
100
AcDbEntity
  8
layer 1
 62
256
370
9
 48
1.0
  6
BYLAYER
100
AcDbCircle
 10
74.9871574754901928
 20
111.9654225898692488
 30
0.0
 40
7.8743035957131209
100
AcDbArc
 50
87.4074737550835579
 51
123.1027636510320207
  0
ARC
  5
5BE
100
AcDbEntity
  8
layer 1
 62
256
370
9
 48
1.0
  6
BYLAYER
100
AcDbCircle
 10
10.9871574754901964
 20
175.965422589869263
 30
0.0
 40
7.8743035957131209
100
AcDbArc
 50
87.4074737550835579
 51
123.1027636510320207
  0
ARC
  5
5BF
100
AcDbEntity
  8
layer 1
 62
256
370
9
 48
1.0
  6
BYLAYER
100
AcDbCircle
 10
74.9871574754901928
 20
175.965422589869263
 30
0.0
 40
7.8743035957131209
100
AcDbArc
 50
87.4074737550835579
 51
123.1027636510320207
  0
ARC
  5
5C0
100
AcDbEntity
  8
layer 1
 62
256
370
9
 48
1.0
  6
BYLAYER
100
AcDbCircle
 10
10.9871574754902035
 20
239.965422589869263
 30
0.0
 40
7.8743035957131209
100
AcDbArc
 50
87.4074737550835579
 51
123.1027636510320207
  0
ARC
  5
5C1
100
AcDbEntity
  8
layer 1
 62
256
370
9
 48
1.0
  6
BYLAYER
100
AcDbCircle
 10
74.9871574754901928
 20
239.965422589869263
 30
0.0
 40
7.8743035957131209
100
AcDbArc
 50
87.4074737550835579
 51
123.1027636510320207
  0
LINE
  5
5C2
100
AcDbEntity
  8
layer 1
 62
256
370
9
 48
1.0
  6
BYLAYER
100
AcDbLine
 10
6.6866666666666639
 20
54.5616666666666816
 30
0.0
 11
6.6866666666666639
 21
42.157999999999987
 31
0.0
  0
LINE
  5
5C3
100
AcDbEntity
  8
layer 1
 62
256
370
9
 48
1.0
  6
BYLAYER
100
AcDbLine
 10
70.6866666666666674
 20
54.5616666666666816
 30
0.0
 11
70.6866666666666674
 21
42.157999999999987
 31
0.0
  0
LINE
  5
5C4
100
AcDbEntity
  8
layer 1
 62
256
370
9
 48
1.0
  6
BYLAYER
100
AcDbLine
 10
6.686666666666671
 20
118.5616666666666816
 30
0.0
 11
6.686666666666671
 21
106.157999999999987
 31
0.0
  0
LINE
  5
5C5
100
AcDbEntity
  8
layer 1
 62
256
370
9
 48
1.0
  6
BYLAYER
100
AcDbLine
 10
70.6866666666666674
 20
118.5616666666666816
 30
0.0
 11
70.6866666666666674
 21
106.157999999999987
 31
0.0
  0
LINE
  5
5C6
100
AcDbEntity
  8
layer 1
 62
256
370
9
 48
1.0
  6
BYLAYER
100
AcDbLine
 10
6.686666666666671
 20
182.5616666666666674
 30
0.0
 11
6.686666666666671
 21
170.157999999999987
 31
0.0
  0
LINE
  5
5C7
100
AcDbEntity
  8
layer 1
 62
256
370
9
 48
1.0
  6
BYLAYER
100
AcDbLine
 10
70.6866666666666674
 20
182.5616666666666674
 30
0.0
 11
70.6866666666666674
 21
170.157999999999987
 31
0.0
  0
LINE
  5
5C8
100
AcDbEntity
  8
layer 1
 62
256
370
9
 48
1.0
  6
BYLAYER
100
AcDbLine
 10
6.6866666666666781
 20
246.5616666666666674
 30
0.0
 11
6.6866666666666781
 21
234.157999999999987
 31
0.0
  0
LINE
  5
5C9
100
AcDbEntity
  8
layer 1
 62
256
370
9
 48
1.0
  6
BYLAYER
100
AcDbLine
 10
70.6866666666666674
 20
246.5616666666666674
 30
0.0
 11
70.6866666666666674
 21
234.157999999999987
 31
0.0
  0
ARC
  5
5CA
100
AcDbEntity
  8
layer 1
 62
256
370
9
 48
1.0
  6
BYLAYER
100
AcDbCircle
 10
7.140868055555547
 20
42.1888680555555453
 30
0.0
 40
0.4552490950264273
100
AcDbArc
 50
183.8879095608336627
 51
266.1120904391669342
  0
ARC
  5
5CB
100
AcDbEntity
  8
layer 1
 62
256
370
9
 48
1.0
  6
BYLAYER
100
AcDbCircle
 10
71.1408680555555435
 20
42.1888680555555453
 30
0.0
 40
0.4552490950264273
100
AcDbArc
 50
183.8879095608336627
 51
266.1120904391669342
  0
ARC
  5
5CC
100
AcDbEntity
  8
layer 1
 62
256
370
9
 48
1.0
  6
BYLAYER
100
AcDbCircle
 10
7.1408680555555542
 20
106.1888680555555453
 30
0.0
 40
0.4552490950264273
100
AcDbArc
 50
183.8879095608336627
 51
266.1120904391669342
  0
ARC
  5
5CD
100
AcDbEntity
  8
layer 1
 62
256
370
9
 48
1.0
  6
BYLAYER
100
AcDbCircle
 10
71.1408680555555577
 20
106.1888680555555453
 30
0.0
 40
0.4552490950264273
100
AcDbArc
 50
183.8879095608336627
 51
266.1120904391669342
  0
ARC
  5
5CE
100
AcDbEntity
  8
layer 1
 62
256
370
9
 48
1.0
  6
BYLAYER
100
AcDbCircle
 10
7.1408680555555542
 20
170.1888680555555311
 30
0.0
 40
0.4552490950264273
100
AcDbArc
 50
183.8879095608336627
 51
266.1120904391669342
  0
ARC
  5
5CF
100
AcDbEntity
  8
layer 1
 62
256
370
9
 48
1.0
  6
BYLAYER
100
AcDbCircle
 10
71.1408680555555577
 20
170.1888680555555311
 30
0.0
 40
0.4552490950264273
100
AcDbArc
 50
183.8879095608336627
 51
266.1120904391669342
  0
ARC
  5
5D0
100
AcDbEntity
  8
layer 1
 62
256
370
9
 48
1.0
  6
BYLAYER
100
AcDbCircle
 10
7.1408680555555613
 20
234.1888680555555311
 30
0.0
 40
0.4552490950264273
100
AcDbArc
 50
183.8879095608336627
 51
266.1120904391669342
  0
ARC
  5
5D1
100
AcDbEntity
  8
layer 1
 62
256
370
9
 48
1.0
  6
BYLAYER
100
AcDbCircle
 10
71.1408680555555577
 20
234.1888680555555311
 30
0.0
 40
0.4552490950264273
100
AcDbArc
 50
183.8879095608336627
 51
266.1120904391669342
  0
LINE
  5
5D2
100
AcDbEntity
  8
layer 1
 62
256
370
9
 48
1.0
  6
BYLAYER
100
AcDbLine
 10
7.1099999999999888
 20
41.7346666666666835
 30
0.0
 11
7.3216666666666619
 21
41.777000000000001
 31
0.0
  0
LINE
  5
5D3
100
AcDbEntity
  8
layer 1
 62
256
370
9
 48
1.0
  6
BYLAYER
100
AcDbLine
 10
71.1099999999999852
 20
41.7346666666666835
 30
0.0
 11
71.3216666666666583
 21
41.777000000000001
 31
0.0
  0
LINE
  5
5D4
100
AcDbEntity
  8
layer 1
 62
256
370
9
 48
1.0
  6
BYLAYER
100
AcDbLine
 10
7.1099999999999959
 20
105.7346666666666835
 30
0.0
 11
7.321666666666669
 21
105.777000000000001
 31
0.0
  0
LINE
  5
5D5
100
AcDbEntity
  8
layer 1
 62
256
370
9
 48
1.0
  6
BYLAYER
100
AcDbLine
 10
71.1099999999999852
 20
105.7346666666666835
 30
0.0
 11
71.3216666666666583
 21
105.777000000000001
 31
0.0
  0
LINE
  5
5D6
100
AcDbEntity
  8
layer 1
 62
256
370
9
 48
1.0
  6
BYLAYER
100
AcDbLine
 10
7.1099999999999959
 20
169.7346666666666692
 30
0.0
 11
7.321666666666669
 21
169.7769999999999868
 31
0.0
  0
LINE
  5
5D7
100
AcDbEntity
  8
layer 1
 62
256
370
9
 48
1.0
  6
BYLAYER
100
AcDbLine
 10
71.1099999999999852
 20
169.7346666666666692
 30
0.0
 11
71.3216666666666583
 21
169.7769999999999868
 31
0.0
  0
LINE
  5
5D8
100
AcDbEntity
  8
layer 1
 62
256
370
9
 48
1.0
  6
BYLAYER
100
AcDbLine
 10
7.110000000000003
 20
233.7346666666666692
 30
0.0
 11
7.3216666666666761
 21
233.7769999999999868
 31
0.0
  0
LINE
  5
5D9
100
AcDbEntity
  8
layer 1
 62
256
370
9
 48
1.0
  6
BYLAYER
100
AcDbLine
 10
71.1099999999999852
 20
233.7346666666666692
 30
0.0
 11
71.3216666666666583
 21
233.7769999999999868
 31
0.0
  0
ARC
  5
5DA
100
AcDbEntity
  8
layer 1
 62
256
370
9
 48
1.0
  6
BYLAYER
100
AcDbCircle
 10
11.6169457366866347
 20
32.3780146218834943
 30
0.0
 40
10.3339415726720443
100
AcDbArc
 50
91.5172011637796601
 51
114.5601120022663935
  0
ARC
  5
5DB
100
AcDbEntity
  8
layer 1
 62
256
370
9
 48
1.0
  6
BYLAYER
100
AcDbCircle
 10
75.6169457366866311
 20
32.3780146218834943
 30
0.0
 40
10.3339415726720443
100
AcDbArc
 50
91.5172011637796601
 51
114.5601120022663935
  0
ARC
  5
5DC
100
AcDbEntity
  8
layer 1
 62
256
370
9
 48
1.0
  6
BYLAYER
100
AcDbCircle
 10
11.6169457366866418
 20
96.3780146218834943
 30
0.0
 40
10.3339415726720443
100
AcDbArc
 50
91.5172011637796601
 51
114.5601120022663935
  0
ARC
  5
5DD
100
AcDbEntity
  8
layer 1
 62
256
370
9
 48
1.0
  6
BYLAYER
100
AcDbCircle
 10
75.6169457366866311
 20
96.3780146218834943
 30
0.0
 40
10.3339415726720443
100
AcDbArc
 50
91.5172011637796601
 51
114.5601120022663935
  0
ARC
  5
5DE
100
AcDbEntity
  8
layer 1
 62
256
370
9
 48
1.0
  6
BYLAYER
100
AcDbCircle
 10
11.6169457366866418
 20
160.3780146218834943
 30
0.0
 40
10.3339415726720443
100
AcDbArc
 50
91.5172011637796601
 51
114.5601120022663935
  0
ARC
  5
5DF
100
AcDbEntity
  8
layer 1
 62
256
370
9
 48
1.0
  6
BYLAYER
100
AcDbCircle
 10
75.6169457366866311
 20
160.3780146218834943
 30
0.0
 40
10.3339415726720443
100
AcDbArc
 50
91.5172011637796601
 51
114.5601120022663935
  0
ARC
  5
5E0
100
AcDbEntity
  8
layer 1
 62
256
370
9
 48
1.0
  6
BYLAYER
100
AcDbCircle
 10
11.6169457366866489
 20
224.3780146218834943
 30
0.0
 40
10.3339415726720443
100
AcDbArc
 50
91.5172011637796601
 51
114.5601120022663935
  0
ARC
  5
5E1
100
AcDbEntity
  8
layer 1
 62
256
370
9
 48
1.0
  6
BYLAYER
100
AcDbCircle
 10
75.6169457366866311
 20
224.3780146218834943
 30
0.0
 40
10.3339415726720443
100
AcDbArc
 50
91.5172011637796601
 51
114.5601120022663935
  0
ARC
  5
5E2
100
AcDbEntity
  8
layer 1
 62
256
370
9
 48
1.0
  6
BYLAYER
100
AcDbCircle
 10
11.6995091911764568
 20
34.8420892565359424
 30
0.0
 40
7.8743035957130907
100
AcDbArc
 50
56.8972363489679083
 51
92.5925262449165132
  0
ARC
  5
5E3
100
AcDbEntity
  8
layer 1
 62
256
370
9
 48
1.0
  6
BYLAYER
100
AcDbCircle
 10
75.6995091911764604
 20
34.8420892565359424
 30
0.0
 40
7.8743035957130907
100
AcDbArc
 50
56.8972363489679083
 51
92.5925262449165132
  0
ARC
  5
5E4
100
AcDbEntity
  8
layer 1
 62
256
370
9
 48
1.0
  6
BYLAYER
100
AcDbCircle
 10
11.6995091911764639
 20
98.8420892565359424
 30
0.0
 40
7.8743035957130907
100
AcDbArc
 50
56.8972363489679083
 51
92.5925262449165132
  0
ARC
  5
5E5
100
AcDbEntity
  8
layer 1
 62
256
370
9
 48
1.0
  6
BYLAYER
100
AcDbCircle
 10
75.6995091911764746
 20
98.8420892565359424
 30
0.0
 40
7.8743035957130907
100
AcDbArc
 50
56.8972363489679083
 51
92.5925262449165132
  0
ARC
  5
5E6
100
AcDbEntity
  8
layer 1
 62
256
370
9
 48
1.0
  6
BYLAYER
100
AcDbCircle
 10
11.6995091911764639
 20
162.8420892565359281
 30
0.0
 40
7.8743035957130907
100
AcDbArc
 50
56.8972363489679083
 51
92.5925262449165132
  0
ARC
  5
5E7
100
AcDbEntity
  8
layer 1
 62
256
370
9
 48
1.0
  6
BYLAYER
100
AcDbCircle
 10
75.6995091911764746
 20
162.8420892565359281
 30
0.0
 40
7.8743035957130907
100
AcDbArc
 50
56.8972363489679083
 51
92.5925262449165132
  0
ARC
  5
5E8
100
AcDbEntity
  8
layer 1
 62
256
370
9
 48
1.0
  6
BYLAYER
100
AcDbCircle
 10
11.699509191176471
 20
226.8420892565359281
 30
0.0
 40
7.8743035957130907
100
AcDbArc
 50
56.8972363489679083
 51
92.5925262449165132
  0
ARC
  5
5E9
100
AcDbEntity
  8
layer 1
 62
256
370
9
 48
1.0
  6
BYLAYER
100
AcDbCircle
 10
75.6995091911764746
 20
226.8420892565359281
 30
0.0
 40
7.8743035957130907
100
AcDbArc
 50
56.8972363489679083
 51
92.5925262449165132
  0
ARC
  5
5EA
100
AcDbEntity
  8
layer 1
 62
256
370
9
 48
1.0
  6
BYLAYER
100
AcDbCircle
 10
20.9354713541666655
 20
32.5138272569444382
 30
0.0
 40
10.1983178120365388
100
AcDbArc
 50
91.5665644755820978
 51
118.9436729305335376
  0
ARC
  5
5EB
100
AcDbEntity
  8
layer 1
 62
256
370
9
 48
1.0
  6
BYLAYER
100
AcDbCircle
 10
84.9354713541666655
 20
32.5138272569444382
 30
0.0
 40
10.1983178120365388
100
AcDbArc
 50
91.5665644755820978
 51
118.9436729305335376
  0
ARC
  5
5EC
100
AcDbEntity
  8
layer 1
 62
256
370
9
 48
1.0
  6
BYLAYER
100
AcDbCircle
 10
20.9354713541666726
 20
96.5138272569444382
 30
0.0
 40
10.1983178120365388
100
AcDbArc
 50
91.5665644755820978
 51
118.9436729305335376
  0
ARC
  5
5ED
100
AcDbEntity
  8
layer 1
 62
256
370
9
 48
1.0
  6
BYLAYER
100
AcDbCircle
 10
84.9354713541666797
 20
96.5138272569444382
 30
0.0
 40
10.1983178120365388
100
AcDbArc
 50
91.5665644755820978
 51
118.9436729305335376
  0
ARC
  5
5EE
100
AcDbEntity
  8
layer 1
 62
256
370
9
 48
1.0
  6
BYLAYER
100
AcDbCircle
 10
20.9354713541666726
 20
160.5138272569444382
 30
0.0
 40
10.1983178120365388
100
AcDbArc
 50
91.5665644755820978
 51
118.9436729305335376
  0
ARC
  5
5EF
100
AcDbEntity
  8
layer 1
 62
256
370
9
 48
1.0
  6
BYLAYER
100
AcDbCircle
 10
84.9354713541666797
 20
160.5138272569444382
 30
0.0
 40
10.1983178120365388
100
AcDbArc
 50
91.5665644755820978
 51
118.9436729305335376
  0
ARC
  5
5F0
100
AcDbEntity
  8
layer 1
 62
256
370
9
 48
1.0
  6
BYLAYER
100
AcDbCircle
 10
20.9354713541666797
 20
224.5138272569444382
 30
0.0
 40
10.1983178120365388
100
AcDbArc
 50
91.5665644755820978
 51
118.9436729305335376
  0
ARC
  5
5F1
100
AcDbEntity
  8
layer 1
 62
256
370
9
 48
1.0
  6
BYLAYER
100
AcDbCircle
 10
84.9354713541666797
 20
224.5138272569444382
 30
0.0
 40
10.1983178120365388
100
AcDbArc
 50
91.5665644755820978
 51
118.9436729305335376
  0
ARC
  5
5F2
100
AcDbEntity
  8
layer 1
 62
256
370
9
 48
1.0
  6
BYLAYER
100
AcDbCircle
 10
20.8613434912853855
 20
34.093125317719668
 30
0.0
 40
8.6176389895858456
100
AcDbArc
 50
63.7091790628934191
 51
91.3609552529765949
  0
ARC
  5
5F3
100
AcDbEntity
  8
layer 1
 62
256
370
9
 48
1.0
  6
BYLAYER
100
AcDbCircle
 10
84.8613434912853819
 20
34.093125317719668
 30
0.0
 40
8.6176389895858456
100
AcDbArc
 50
63.7091790628934191
 51
91.3609552529765949
  0
ARC
  5
5F4
100
AcDbEntity
  8
layer 1
 62
256
370
9
 48
1.0
  6
BYLAYER
100
AcDbCircle
 10
20.8613434912853926
 20
98.093125317719668
 30
0.0
 40
8.6176389895858456
100
AcDbArc
 50
63.7091790628934191
 51
91.3609552529765949
  0
ARC
  5
5F5
100
AcDbEntity
  8
layer 1
 62
256
370
9
 48
1.0
  6
BYLAYER
100
AcDbCircle
 10
84.8613434912853961
 20
98.093125317719668
 30
0.0
 40
8.6176389895858456
100
AcDbArc
 50
63.7091790628934191
 51
91.3609552529765949
  0
ARC
  5
5F6
100
AcDbEntity
  8
layer 1
 62
256
370
9
 48
1.0
  6
BYLAYER
100
AcDbCircle
 10
20.8613434912853926
 20
162.0931253177196822
 30
0.0
 40
8.6176389895858456
100
AcDbArc
 50
63.7091790628934191
 51
91.3609552529765949
  0
ARC
  5
5F7
100
AcDbEntity
  8
layer 1
 62
256
370
9
 48
1.0
  6
BYLAYER
100
AcDbCircle
 10
84.8613434912853961
 20
162.0931253177196822
 30
0.0
 40
8.6176389895858456
100
AcDbArc
 50
63.7091790628934191
 51
91.3609552529765949
  0
ARC
  5
5F8
100
AcDbEntity
  8
layer 1
 62
256
370
9
 48
1.0
  6
BYLAYER
100
AcDbCircle
 10
20.8613434912853997
 20
226.0931253177196822
 30
0.0
 40
8.6176389895858456
100
AcDbArc
 50
63.7091790628934191
 51
91.3609552529765949
  0
ARC
  5
5F9
100
AcDbEntity
  8
layer 1
 62
256
370
9
 48
1.0
  6
BYLAYER
100
AcDbCircle
 10
84.8613434912853961
 20
226.0931253177196822
 30
0.0
 40
8.6176389895858456
100
AcDbArc
 50
63.7091790628934191
 51
91.3609552529765949
  0
ARC
  5
5FA
100
AcDbEntity
  8
layer 1
 62
256
370
9
 48
1.0
  6
BYLAYER
100
AcDbCircle
 10
24.8559569444444364
 20
42.1571180555555571
 30
0.0
 40
0.3816394447523755
100
AcDbArc
 50
242.2624265329033051
 51
275.1177085190565208
  0
ARC
  5
5FB
100
AcDbEntity
  8
layer 1
 62
256
370
9
 48
1.0
  6
BYLAYER
100
AcDbCircle
 10
88.8559569444444435
 20
42.1571180555555571
 30
0.0
 40
0.3816394447523755
100
AcDbArc
 50
242.2624265329033051
 51
275.1177085190565208
  0
ARC
  5
5FC
100
AcDbEntity
  8
layer 1
 62
256
370
9
 48
1.0
  6
BYLAYER
100
AcDbCircle
 10
24.8559569444444435
 20
106.1571180555555571
 30
0.0
 40
0.3816394447523755
100
AcDbArc
 50
242.2624265329033051
 51
275.1177085190565208
  0
ARC
  5
5FD
100
AcDbEntity
  8
layer 1
 62
256
370
9
 48
1.0
  6
BYLAYER
100
AcDbCircle
 10
88.8559569444444435
 20
106.1571180555555571
 30
0.0
 40
0.3816394447523755
100
AcDbArc
 50
242.2624265329033051
 51
275.1177085190565208
  0
ARC
  5
5FE
100
AcDbEntity
  8
layer 1
 62
256
370
9
 48
1.0
  6
BYLAYER
100
AcDbCircle
 10
24.8559569444444435
 20
170.1571180555555429
 30
0.0
 40
0.3816394447523755
100
AcDbArc
 50
242.2624265329033051
 51
275.1177085190565208
  0
ARC
  5
5FF
100
AcDbEntity
  8
layer 1
 62
256
370
9
 48
1.0
  6
BYLAYER
100
AcDbCircle
 10
88.8559569444444435
 20
170.1571180555555429
 30
0.0
 40
0.3816394447523755
100
AcDbArc
 50
242.2624265329033051
 51
275.1177085190565208
  0
ARC
  5
600
100
AcDbEntity
  8
layer 1
 62
256
370
9
 48
1.0
  6
BYLAYER
100
AcDbCircle
 10
24.8559569444444506
 20
234.1571180555555429
 30
0.0
 40
0.3816394447523755
100
AcDbArc
 50
242.2624265329033051
 51
275.1177085190565208
  0
ARC
  5
601
100
AcDbEntity
  8
layer 1
 62
256
370
9
 48
1.0
  6
BYLAYER
100
AcDbCircle
 10
88.8559569444444435
 20
234.1571180555555429
 30
0.0
 40
0.3816394447523755
100
AcDbArc
 50
242.2624265329033051
 51
275.1177085190565208
  0
ARC
  5
602
100
AcDbEntity
  8
layer 1
 62
256
370
9
 48
1.0
  6
BYLAYER
100
AcDbCircle
 10
24.8591319444444281
 20
42.2312013888889055
 30
0.0
 40
0.455249095026427
100
AcDbArc
 50
273.8879095608336343
 51
356.1120904391667068
  0
ARC
  5
603
100
AcDbEntity
  8
layer 1
 62
256
370
9
 48
1.0
  6
BYLAYER
100
AcDbCircle
 10
88.8591319444444281
 20
42.2312013888889055
 30
0.0
 40
0.455249095026427
100
AcDbArc
 50
273.8879095608336343
 51
356.1120904391667068
  0
ARC
  5
604
100
AcDbEntity
  8
layer 1
 62
256
370
9
 48
1.0
  6
BYLAYER
100
AcDbCircle
 10
24.8591319444444352
 20
106.2312013888889055
 30
0.0
 40
0.455249095026427
100
AcDbArc
 50
273.8879095608336343
 51
356.1120904391667068
  0
ARC
  5
605
100
AcDbEntity
  8
layer 1
 62
256
370
9
 48
1.0
  6
BYLAYER
100
AcDbCircle
 10
88.8591319444444423
 20
106.2312013888889055
 30
0.0
 40
0.455249095026427
100
AcDbArc
 50
273.8879095608336343
 51
356.1120904391667068
  0
ARC
  5
606
100
AcDbEntity
  8
layer 1
 62
256
370
9
 48
1.0
  6
BYLAYER
100
AcDbCircle
 10
24.8591319444444352
 20
170.2312013888889055
 30
0.0
 40
0.455249095026427
100
AcDbArc
 50
273.8879095608336343
 51
356.1120904391667068
  0
ARC
  5
607
100
AcDbEntity
  8
layer 1
 62
256
370
9
 48
1.0
  6
BYLAYER
100
AcDbCircle
 10
88.8591319444444423
 20
170.2312013888889055
 30
0.0
 40
0.455249095026427
100
AcDbArc
 50
273.8879095608336343
 51
356.1120904391667068
  0
ARC
  5
608
100
AcDbEntity
  8
layer 1
 62
256
370
9
 48
1.0
  6
BYLAYER
100
AcDbCircle
 10
24.8591319444444423
 20
234.2312013888889055
 30
0.0
 40
0.455249095026427
100
AcDbArc
 50
273.8879095608336343
 51
356.1120904391667068
  0
ARC
  5
609
100
AcDbEntity
  8
layer 1
 62
256
370
9
 48
1.0
  6
BYLAYER
100
AcDbCircle
 10
88.8591319444444423
 20
234.2312013888889055
 30
0.0
 40
0.455249095026427
100
AcDbArc
 50
273.8879095608336343
 51
356.1120904391667068
  0
LINE
  5
60A
100
AcDbEntity
  8
layer 1
 62
256
370
9
 48
1.0
  6
BYLAYER
100
AcDbLine
 10
25.3133333333333255
 20
42.2003333333333472
 30
0.0
 11
25.3133333333333255
 21
54.5616666666666816
 31
0.0
  0
LINE
  5
60B
100
AcDbEntity
  8
layer 1
 62
256
370
9
 48
1.0
  6
BYLAYER
100
AcDbLine
 10
89.3133333333333326
 20
42.2003333333333472
 30
0.0
 11
89.3133333333333326
 21
54.5616666666666816
 31
0.0
  0
LINE
  5
60C
100
AcDbEntity
  8
layer 1
 62
256
370
9
 48
1.0
  6
BYLAYER
100
AcDbLine
 10
25.3133333333333326
 20
106.2003333333333472
 30
0.0
 11
25.3133333333333326
 21
118.5616666666666816
 31
0.0
  0
LINE
  5
60D
100
AcDbEntity
  8
layer 1
 62
256
370
9
 48
1.0
  6
BYLAYER
100
AcDbLine
 10
89.3133333333333326
 20
106.2003333333333472
 30
0.0
 11
89.3133333333333326
 21
118.5616666666666816
 31
0.0
  0
LINE
  5
60E
100
AcDbEntity
  8
layer 1
 62
256
370
9
 48
1.0
  6
BYLAYER
100
AcDbLine
 10
25.3133333333333326
 20
170.200333333333333
 30
0.0
 11
25.3133333333333326
 21
182.5616666666666674
 31
0.0
  0
LINE
  5
60F
100
AcDbEntity
  8
layer 1
 62
256
370
9
 48
1.0
  6
BYLAYER
100
AcDbLine
 10
89.3133333333333326
 20
170.200333333333333
 30
0.0
 11
89.3133333333333326
 21
182.5616666666666674
 31
0.0
  0
LINE
  5
610
100
AcDbEntity
  8
layer 1
 62
256
370
9
 48
1.0
  6
BYLAYER
100
AcDbLine
 10
25.3133333333333397
 20
234.200333333333333
 30
0.0
 11
25.3133333333333397
 21
246.5616666666666674
 31
0.0
  0
LINE
  5
611
100
AcDbEntity
  8
layer 1
 62
256
370
9
 48
1.0
  6
BYLAYER
100
AcDbLine
 10
89.3133333333333326
 20
234.200333333333333
 30
0.0
 11
89.3133333333333326
 21
246.5616666666666674
 31
0.0
  0
ARC
  5
612
100
AcDbEntity
  8
layer 1
 62
256
370
9
 48
1.0
  6
BYLAYER
100
AcDbCircle
 10
21.9190498737373218
 20
49.889766414141306
 30
0.0
 40
5.7747564601144461
100
AcDbArc
 50
54.0004074479859781
 51
72.8694901978581697
  0
ARC
  5
613
100
AcDbEntity
  8
layer 1
 62
256
370
9
 48
1.0
  6
BYLAYER
100
AcDbCircle
 10
85.9190498737373218
 20
49.889766414141306
 30
0.0
 40
5.7747564601144461
100
AcDbArc
 50
54.0004074479859781
 51
72.8694901978581697
  0
ARC
  5
614
100
AcDbEntity
  8
layer 1
 62
256
370
9
 48
1.0
  6
BYLAYER
100
AcDbCircle
 10
21.9190498737373289
 20
113.889766414141306
 30
0.0
 40
5.7747564601144461
100
AcDbArc
 50
54.0004074479859781
 51
72.8694901978581697
  0
ARC
  5
615
100
AcDbEntity
  8
layer 1
 62
256
370
9
 48
1.0
  6
BYLAYER
100
AcDbCircle
 10
85.9190498737373218
 20
113.889766414141306
 30
0.0
 40
5.7747564601144461
100
AcDbArc
 50
54.0004074479859781
 51
72.8694901978581697
  0
ARC
  5
616
100
AcDbEntity
  8
layer 1
 62
256
370
9
 48
1.0
  6
BYLAYER
100
AcDbCircle
 10
21.9190498737373289
 20
177.8897664141413202
 30
0.0
 40
5.7747564601144461
100
AcDbArc
 50
54.0004074479859781
 51
72.8694901978581697
  0
ARC
  5
617
100
AcDbEntity
  8
layer 1
 62
256
370
9
 48
1.0
  6
BYLAYER
100
AcDbCircle
 10
85.9190498737373218
 20
177.8897664141413202
 30
0.0
 40
5.7747564601144461
100
AcDbArc
 50
54.0004074479859781
 51
72.8694901978581697
  0
ARC
  5
618
100
AcDbEntity
  8
layer 1
 62
256
370
9
 48
1.0
  6
BYLAYER
100
AcDbCircle
 10
21.919049873737336
 20
241.8897664141413202
 30
0.0
 40
5.7747564601144461
100
AcDbArc
 50
54.0004074479859781
 51
72.8694901978581697
  0
ARC
  5
619
100
AcDbEntity
  8
layer 1
 62
256
370
9
 48
1.0
  6
BYLAYER
100
AcDbCircle
 10
85.9190498737373218
 20
241.8897664141413202
 30
0.0
 40
5.7747564601144461
100
AcDbArc
 50
54.0004074479859781
 51
72.8694901978581697
  0
ARC
  5
61A
100
AcDbEntity
  8
layer 1
 62
256
370
9
 48
1.0
  6
BYLAYER
100
AcDbCircle
 10
20.7631398420479201
 20
34.5636455610021471
 30
0.0
 40
9.8385972482146364
100
AcDbArc
 50
73.1197289845253806
 51
90.6200663071627446
  0
ARC
  5
61B
100
AcDbEntity
  8
layer 1
 62
256
370
9
 48
1.0
  6
BYLAYER
100
AcDbCircle
 10
84.7631398420479201
 20
34.5636455610021471
 30
0.0
 40
9.8385972482146364
100
AcDbArc
 50
73.1197289845253806
 51
90.6200663071627446
  0
ARC
  5
61C
100
AcDbEntity
  8
layer 1
 62
256
370
9
 48
1.0
  6
BYLAYER
100
AcDbCircle
 10
20.7631398420479272
 20
98.5636455610021471
 30
0.0
 40
9.8385972482146364
100
AcDbArc
 50
73.1197289845253806
 51
90.6200663071627446
  0
ARC
  5
61D
100
AcDbEntity
  8
layer 1
 62
256
370
9
 48
1.0
  6
BYLAYER
100
AcDbCircle
 10
84.7631398420479343
 20
98.5636455610021471
 30
0.0
 40
9.8385972482146364
100
AcDbArc
 50
73.1197289845253806
 51
90.6200663071627446
  0
ARC
  5
61E
100
AcDbEntity
  8
layer 1
 62
256
370
9
 48
1.0
  6
BYLAYER
100
AcDbCircle
 10
20.7631398420479272
 20
162.5636455610021471
 30
0.0
 40
9.8385972482146364
100
AcDbArc
 50
73.1197289845253806
 51
90.6200663071627446
  0
ARC
  5
61F
100
AcDbEntity
  8
layer 1
 62
256
370
9
 48
1.0
  6
BYLAYER
100
AcDbCircle
 10
84.7631398420479343
 20
162.5636455610021471
 30
0.0
 40
9.8385972482146364
100
AcDbArc
 50
73.1197289845253806
 51
90.6200663071627446
  0
ARC
  5
620
100
AcDbEntity
  8
layer 1
 62
256
370
9
 48
1.0
  6
BYLAYER
100
AcDbCircle
 10
20.7631398420479343
 20
226.5636455610021471
 30
0.0
 40
9.8385972482146364
100
AcDbArc
 50
73.1197289845253806
 51
90.6200663071627446
  0
ARC
  5
621
100
AcDbEntity
  8
layer 1
 62
256
370
9
 48
1.0
  6
BYLAYER
100
AcDbCircle
 10
84.7631398420479343
 20
226.5636455610021471
 30
0.0
 40
9.8385972482146364
100
AcDbArc
 50
73.1197289845253806
 51
90.6200663071627446
  0
ARC
  5
622
100
AcDbEntity
  8
layer 1
 62
256
370
9
 48
1.0
  6
BYLAYER
100
AcDbCircle
 10
20.9354713541666655
 20
34.2071605902777804
 30
0.0
 40
10.198317812036537
100
AcDbArc
 50
91.5665644755821972
 51
118.9436729305334381
  0
ARC
  5
623
100
AcDbEntity
  8
layer 1
 62
256
370
9
 48
1.0
  6
BYLAYER
100
AcDbCircle
 10
84.9354713541666655
 20
34.2071605902777804
 30
0.0
 40
10.198317812036537
100
AcDbArc
 50
91.5665644755821972
 51
118.9436729305334381
  0
ARC
  5
624
100
AcDbEntity
  8
layer 1
 62
256
370
9
 48
1.0
  6
BYLAYER
100
AcDbCircle
 10
20.9354713541666726
 20
98.2071605902777804
 30
0.0
 40
10.198317812036537
100
AcDbArc
 50
91.5665644755821972
 51
118.9436729305334381
  0
ARC
  5
625
100
AcDbEntity
  8
layer 1
 62
256
370
9
 48
1.0
  6
BYLAYER
100
AcDbCircle
 10
84.9354713541666797
 20
98.2071605902777804
 30
0.0
 40
10.198317812036537
100
AcDbArc
 50
91.5665644755821972
 51
118.9436729305334381
  0
ARC
  5
626
100
AcDbEntity
  8
layer 1
 62
256
370
9
 48
1.0
  6
BYLAYER
100
AcDbCircle
 10
20.9354713541666726
 20
162.2071605902777947
 30
0.0
 40
10.198317812036537
100
AcDbArc
 50
91.5665644755821972
 51
118.9436729305334381
  0
ARC
  5
627
100
AcDbEntity
  8
layer 1
 62
256
370
9
 48
1.0
  6
BYLAYER
100
AcDbCircle
 10
84.9354713541666797
 20
162.2071605902777947
 30
0.0
 40
10.198317812036537
100
AcDbArc
 50
91.5665644755821972
 51
118.9436729305334381
  0
ARC
  5
628
100
AcDbEntity
  8
layer 1
 62
256
370
9
 48
1.0
  6
BYLAYER
100
AcDbCircle
 10
20.9354713541666797
 20
226.2071605902777947
 30
0.0
 40
10.198317812036537
100
AcDbArc
 50
91.5665644755821972
 51
118.9436729305334381
  0
ARC
  5
629
100
AcDbEntity
  8
layer 1
 62
256
370
9
 48
1.0
  6
BYLAYER
100
AcDbCircle
 10
84.9354713541666797
 20
226.2071605902777947
 30
0.0
 40
10.198317812036537
100
AcDbArc
 50
91.5665644755821972
 51
118.9436729305334381
  0
LINE
  5
62A
100
AcDbEntity
  8
layer 1
 62
256
370
9
 48
1.0
  6
BYLAYER
100
AcDbLine
 10
15.9999999999999929
 20
43.1316666666666748
 30
0.0
 11
15.9999999999999929
 21
52.8683333333333394
 31
0.0
  0
LINE
  5
62B
100
AcDbEntity
  8
layer 1
 62
256
370
9
 48
1.0
  6
BYLAYER
100
AcDbLine
 10
80.0
 20
43.1316666666666748
 30
0.0
 11
80.0
 21
52.8683333333333394
 31
0.0
  0
LINE
  5
62C
100
AcDbEntity
  8
layer 1
 62
256
370
9
 48
1.0
  6
BYLAYER
100
AcDbLine
 10
16.0
 20
107.1316666666666748
 30
0.0
 11
16.0
 21
116.8683333333333394
 31
0.0
  0
LINE
  5
62D
100
AcDbEntity
  8
layer 1
 62
256
370
9
 48
1.0
  6
BYLAYER
100
AcDbLine
 10
80.0
 20
107.1316666666666748
 30
0.0
 11
80.0
 21
116.8683333333333394
 31
0.0
  0
LINE
  5
62E
100
AcDbEntity
  8
layer 1
 62
256
370
9
 48
1.0
  6
BYLAYER
100
AcDbLine
 10
16.0
 20
171.1316666666666606
 30
0.0
 11
16.0
 21
180.8683333333333394
 31
0.0
  0
LINE
  5
62F
100
AcDbEntity
  8
layer 1
 62
256
370
9
 48
1.0
  6
BYLAYER
100
AcDbLine
 10
80.0
 20
171.1316666666666606
 30
0.0
 11
80.0
 21
180.8683333333333394
 31
0.0
  0
LINE
  5
630
100
AcDbEntity
  8
layer 1
 62
256
370
9
 48
1.0
  6
BYLAYER
100
AcDbLine
 10
16.0000000000000071
 20
235.1316666666666606
 30
0.0
 11
16.0000000000000071
 21
244.8683333333333394
 31
0.0
  0
LINE
  5
631
100
AcDbEntity
  8
layer 1
 62
256
370
9
 48
1.0
  6
BYLAYER
100
AcDbLine
 10
80.0
 20
235.1316666666666606
 30
0.0
 11
80.0
 21
244.8683333333333394
 31
0.0
  0
ARC
  5
632
100
AcDbEntity
  8
layer 1
 62
256
370
9
 48
1.0
  6
BYLAYER
100
AcDbCircle
 10
20.9354713541666655
 20
43.943827256944445
 30
0.0
 40
10.1983178120365565
100
AcDbArc
 50
91.5665644755823109
 51
118.9436729305334381
  0
ARC
  5
633
100
AcDbEntity
  8
layer 1
 62
256
370
9
 48
1.0
  6
BYLAYER
100
AcDbCircle
 10
84.9354713541666655
 20
43.943827256944445
 30
0.0
 40
10.1983178120365565
100
AcDbArc
 50
91.5665644755823109
 51
118.9436729305334381
  0
ARC
  5
634
100
AcDbEntity
  8
layer 1
 62
256
370
9
 48
1.0
  6
BYLAYER
100
AcDbCircle
 10
20.9354713541666726
 20
107.943827256944445
 30
0.0
 40
10.1983178120365565
100
AcDbArc
 50
91.5665644755823109
 51
118.9436729305334381
  0
ARC
  5
635
100
AcDbEntity
  8
layer 1
 62
256
370
9
 48
1.0
  6
BYLAYER
100
AcDbCircle
 10
84.9354713541666797
 20
107.943827256944445
 30
0.0
 40
10.1983178120365565
100
AcDbArc
 50
91.5665644755823109
 51
118.9436729305334381
  0
ARC
  5
636
100
AcDbEntity
  8
layer 1
 62
256
370
9
 48
1.0
  6
BYLAYER
100
AcDbCircle
 10
20.9354713541666726
 20
171.943827256944445
 30
0.0
 40
10.1983178120365565
100
AcDbArc
 50
91.5665644755823109
 51
118.9436729305334381
  0
ARC
  5
637
100
AcDbEntity
  8
layer 1
 62
256
370
9
 48
1.0
  6
BYLAYER
100
AcDbCircle
 10
84.9354713541666797
 20
171.943827256944445
 30
0.0
 40
10.1983178120365565
100
AcDbArc
 50
91.5665644755823109
 51
118.9436729305334381
  0
ARC
  5
638
100
AcDbEntity
  8
layer 1
 62
256
370
9
 48
1.0
  6
BYLAYER
100
AcDbCircle
 10
20.9354713541666797
 20
235.943827256944445
 30
0.0
 40
10.1983178120365565
100
AcDbArc
 50
91.5665644755823109
 51
118.9436729305334381
  0
ARC
  5
639
100
AcDbEntity
  8
layer 1
 62
256
370
9
 48
1.0
  6
BYLAYER
100
AcDbCircle
 10
84.9354713541666797
 20
235.943827256944445
 30
0.0
 40
10.1983178120365565
100
AcDbArc
 50
91.5665644755823109
 51
118.9436729305334381
  0
ARC
  5
63A
100
AcDbEntity
  8
layer 1
 62
256
370
9
 48
1.0
  6
BYLAYER
100
AcDbCircle
 10
20.7631398420479201
 20
44.3003122276688117
 30
0.0
 40
9.8385972482146293
100
AcDbArc
 50
73.1197289845253806
 51
90.6200663071627446
  0
ARC
  5
63B
100
AcDbEntity
  8
layer 1
 62
256
370
9
 48
1.0
  6
BYLAYER
100
AcDbCircle
 10
84.7631398420479201
 20
44.3003122276688117
 30
0.0
 40
9.8385972482146293
100
AcDbArc
 50
73.1197289845253806
 51
90.6200663071627446
  0
ARC
  5
63C
100
AcDbEntity
  8
layer 1
 62
256
370
9
 48
1.0
  6
BYLAYER
100
AcDbCircle
 10
20.7631398420479272
 20
108.3003122276688117
 30
0.0
 40
9.8385972482146293
100
AcDbArc
 50
73.1197289845253806
 51
90.6200663071627446
  0
ARC
  5
63D
100
AcDbEntity
  8
layer 1
 62
256
370
9
 48
1.0
  6
BYLAYER
100
AcDbCircle
 10
84.7631398420479343
 20
108.3003122276688117
 30
0.0
 40
9.8385972482146293
100
AcDbArc
 50
73.1197289845253806
 51
90.6200663071627446
  0
ARC
  5
63E
100
AcDbEntity
  8
layer 1
 62
256
370
9
 48
1.0
  6
BYLAYER
100
AcDbCircle
 10
20.7631398420479272
 20
172.3003122276688259
 30
0.0
 40
9.8385972482146293
100
AcDbArc
 50
73.1197289845253806
 51
90.6200663071627446
  0
ARC
  5
63F
100
AcDbEntity
  8
layer 1
 62
256
370
9
 48
1.0
  6
BYLAYER
100
AcDbCircle
 10
84.7631398420479343
 20
172.3003122276688259
 30
0.0
 40
9.8385972482146293
100
AcDbArc
 50
73.1197289845253806
 51
90.6200663071627446
  0
ARC
  5
640
100
AcDbEntity
  8
layer 1
 62
256
370
9
 48
1.0
  6
BYLAYER
100
AcDbCircle
 10
20.7631398420479343
 20
236.3003122276688259
 30
0.0
 40
9.8385972482146293
100
AcDbArc
 50
73.1197289845253806
 51
90.6200663071627446
  0
ARC
  5
641
100
AcDbEntity
  8
layer 1
 62
256
370
9
 48
1.0
  6
BYLAYER
100
AcDbCircle
 10
84.7631398420479343
 20
236.3003122276688259
 30
0.0
 40
9.8385972482146293
100
AcDbArc
 50
73.1197289845253806
 51
90.6200663071627446
  0
LINE
  5
642
100
AcDbEntity
  8
layer 1
 62
256
370
9
 48
1.0
  6
BYLAYER
100
AcDbLine
 10
23.6199999999999903
 20
53.7149999999999892
 30
0.0
 11
23.6199999999999903
 21
43.9783333333333246
 31
0.0
  0
LINE
  5
643
100
AcDbEntity
  8
layer 1
 62
256
370
9
 48
1.0
  6
BYLAYER
100
AcDbLine
 10
87.6199999999999903
 20
53.7149999999999892
 30
0.0
 11
87.6199999999999903
 21
43.9783333333333246
 31
0.0
  0
LINE
  5
644
100
AcDbEntity
  8
layer 1
 62
256
370
9
 48
1.0
  6
BYLAYER
100
AcDbLine
 10
23.6199999999999974
 20
117.7149999999999892
 30
0.0
 11
23.6199999999999974
 21
107.9783333333333246
 31
0.0
  0
LINE
  5
645
100
AcDbEntity
  8
layer 1
 62
256
370
9
 48
1.0
  6
BYLAYER
100
AcDbLine
 10
87.6200000000000045
 20
117.7149999999999892
 30
0.0
 11
87.6200000000000045
 21
107.9783333333333246
 31
0.0
  0
LINE
  5
646
100
AcDbEntity
  8
layer 1
 62
256
370
9
 48
1.0
  6
BYLAYER
100
AcDbLine
 10
23.6199999999999974
 20
181.714999999999975
 30
0.0
 11
23.6199999999999974
 21
171.9783333333333246
 31
0.0
  0
LINE
  5
647
100
AcDbEntity
  8
layer 1
 62
256
370
9
 48
1.0
  6
BYLAYER
100
AcDbLine
 10
87.6200000000000045
 20
181.714999999999975
 30
0.0
 11
87.6200000000000045
 21
171.9783333333333246
 31
0.0
  0
LINE
  5
648
100
AcDbEntity
  8
layer 1
 62
256
370
9
 48
1.0
  6
BYLAYER
100
AcDbLine
 10
23.6200000000000045
 20
245.714999999999975
 30
0.0
 11
23.6200000000000045
 21
235.9783333333333246
 31
0.0
  0
LINE
  5
649
100
AcDbEntity
  8
layer 1
 62
256
370
9
 48
1.0
  6
BYLAYER
100
AcDbLine
 10
87.6200000000000045
 20
245.714999999999975
 30
0.0
 11
87.6200000000000045
 21
235.9783333333333246
 31
0.0
  0
LINE
  5
64A
100
AcDbEntity
  8
layer 1
 62
256
370
9
 48
1.0
  6
BYLAYER
100
AcDbLine
 10
52.3076687036978569
 20
47.5459881671190772
 30
0.0
 11
42.1476687036978674
 21
47.5459881671190772
 31
0.0
  0
LINE
  5
64B
100
AcDbEntity
  8
layer 1
 62
256
370
9
 48
1.0
  6
BYLAYER
100
AcDbLine
 10
116.3076687036978569
 20
47.5459881671190772
 30
0.0
 11
106.1476687036978603
 21
47.5459881671190772
 31
0.0
  0
LINE
  5
64C
100
AcDbEntity
  8
layer 1
 62
256
370
9
 48
1.0
  6
BYLAYER
100
AcDbLine
 10
52.307668703697864
 20
111.5459881671190772
 30
0.0
 11
42.1476687036978745
 21
111.5459881671190772
 31
0.0
  0
LINE
  5
64D
100
AcDbEntity
  8
layer 1
 62
256
370
9
 48
1.0
  6
BYLAYER
100
AcDbLine
 10
116.3076687036978569
 20
111.5459881671190772
 30
0.0
 11
106.1476687036978603
 21
111.5459881671190772
 31
0.0
  0
LINE
  5
64E
100
AcDbEntity
  8
layer 1
 62
256
370
9
 48
1.0
  6
BYLAYER
100
AcDbLine
 10
52.307668703697864
 20
175.5459881671190772
 30
0.0
 11
42.1476687036978745
 21
175.5459881671190772
 31
0.0
  0
LINE
  5
64F
100
AcDbEntity
  8
layer 1
 62
256
370
9
 48
1.0
  6
BYLAYER
100
AcDbLine
 10
116.3076687036978569
 20
175.5459881671190772
 30
0.0
 11
106.1476687036978603
 21
175.5459881671190772
 31
0.0
  0
LINE
  5
650
100
AcDbEntity
  8
layer 1
 62
256
370
9
 48
1.0
  6
BYLAYER
100
AcDbLine
 10
52.3076687036978711
 20
239.5459881671190772
 30
0.0
 11
42.1476687036978817
 21
239.5459881671190772
 31
0.0
  0
LINE
  5
651
100
AcDbEntity
  8
layer 1
 62
256
370
9
 48
1.0
  6
BYLAYER
100
AcDbLine
 10
116.3076687036978569
 20
239.5459881671190772
 30
0.0
 11
106.1476687036978603
 21
239.5459881671190772
 31
0.0
  0
LINE
  5
652
100
AcDbEntity
  8
layer 1
 62
256
370
9
 48
1.0
  6
BYLAYER
100
AcDbLine
 10
42.1476687036978674
 20
47.5459881671190772
 30
0.0
 11
42.1476687036978674
 21
51.7793215004524114
 31
0.0
  0
LINE
  5
653
100
AcDbEntity
  8
layer 1
 62
256
370
9
 48
1.0
  6
BYLAYER
100
AcDbLine
 10
106.1476687036978603
 20
47.5459881671190772
 30
0.0
 11
106.1476687036978603
 21
51.7793215004524114
 31
0.0
  0
LINE
  5
654
100
AcDbEntity
  8
layer 1
 62
256
370
9
 48
1.0
  6
BYLAYER
100
AcDbLine
 10
42.1476687036978745
 20
111.5459881671190772
 30
0.0
 11
42.1476687036978745
 21
115.7793215004524114
 31
0.0
  0
LINE
  5
655
100
AcDbEntity
  8
layer 1
 62
256
370
9
 48
1.0
  6
BYLAYER
100
AcDbLine
 10
106.1476687036978603
 20
111.5459881671190772
 30
0.0
 11
106.1476687036978603
 21
115.7793215004524114
 31
0.0
  0
LINE
  5
656
100
AcDbEntity
  8
layer 1
 62
256
370
9
 48
1.0
  6
BYLAYER
100
AcDbLine
 10
42.1476687036978745
 20
175.5459881671190772
 30
0.0
 11
42.1476687036978745
 21
179.7793215004523972
 31
0.0
  0
LINE
  5
657
100
AcDbEntity
  8
layer 1
 62
256
370
9
 48
1.0
  6
BYLAYER
100
AcDbLine
 10
106.1476687036978603
 20
175.5459881671190772
 30
0.0
 11
106.1476687036978603
 21
179.7793215004523972
 31
0.0
  0
LINE
  5
658
100
AcDbEntity
  8
layer 1
 62
256
370
9
 48
1.0
  6
BYLAYER
100
AcDbLine
 10
42.1476687036978817
 20
239.5459881671190772
 30
0.0
 11
42.1476687036978817
 21
243.7793215004523972
 31
0.0
  0
LINE
  5
659
100
AcDbEntity
  8
layer 1
 62
256
370
9
 48
1.0
  6
BYLAYER
100
AcDbLine
 10
106.1476687036978603
 20
239.5459881671190772
 30
0.0
 11
106.1476687036978603
 21
243.7793215004523972
 31
0.0
  0
LINE
  5
65A
100
AcDbEntity
  8
layer 1
 62
256
370
9
 48
1.0
  6
BYLAYER
100
AcDbLine
 10
42.1476687036978674
 20
51.7793215004524114
 30
0.0
 11
52.3076687036978569
 21
51.7793215004524114
 31
0.0
  0
LINE
  5
65B
100
AcDbEntity
  8
layer 1
 62
256
370
9
 48
1.0
  6
BYLAYER
100
AcDbLine
 10
106.1476687036978603
 20
51.7793215004524114
 30
0.0
 11
116.3076687036978569
 21
51.7793215004524114
 31
0.0
  0
LINE
  5
65C
100
AcDbEntity
  8
layer 1
 62
256
370
9
 48
1.0
  6
BYLAYER
100
AcDbLine
 10
42.1476687036978745
 20
115.7793215004524114
 30
0.0
 11
52.307668703697864
 21
115.7793215004524114
 31
0.0
  0
LINE
  5
65D
100
AcDbEntity
  8
layer 1
 62
256
370
9
 48
1.0
  6
BYLAYER
100
AcDbLine
 10
106.1476687036978603
 20
115.7793215004524114
 30
0.0
 11
116.3076687036978569
 21
115.7793215004524114
 31
0.0
  0
LINE
  5
65E
100
AcDbEntity
  8
layer 1
 62
256
370
9
 48
1.0
  6
BYLAYER
100
AcDbLine
 10
42.1476687036978745
 20
179.7793215004523972
 30
0.0
 11
52.307668703697864
 21
179.7793215004523972
 31
0.0
  0
LINE
  5
65F
100
AcDbEntity
  8
layer 1
 62
256
370
9
 48
1.0
  6
BYLAYER
100
AcDbLine
 10
106.1476687036978603
 20
179.7793215004523972
 30
0.0
 11
116.3076687036978569
 21
179.7793215004523972
 31
0.0
  0
LINE
  5
660
100
AcDbEntity
  8
layer 1
 62
256
370
9
 48
1.0
  6
BYLAYER
100
AcDbLine
 10
42.1476687036978817
 20
243.7793215004523972
 30
0.0
 11
52.3076687036978711
 21
243.7793215004523972
 31
0.0
  0
LINE
  5
661
100
AcDbEntity
  8
layer 1
 62
256
370
9
 48
1.0
  6
BYLAYER
100
AcDbLine
 10
106.1476687036978603
 20
243.7793215004523972
 30
0.0
 11
116.3076687036978569
 21
243.7793215004523972
 31
0.0
  0
ARC
  5
662
100
AcDbEntity
  8
layer 1
 62
256
370
9
 48
1.0
  6
BYLAYER
100
AcDbCircle
 10
51.0376687036978609
 20
43.7359881671190465
 30
0.0
 40
1.27
100
AcDbArc
 50
180.0
 51
270.0
  0
ARC
  5
663
100
AcDbEntity
  8
layer 1
 62
256
370
9
 48
1.0
  6
BYLAYER
100
AcDbCircle
 10
115.0376687036978609
 20
43.7359881671190465
 30
0.0
 40
1.27
100
AcDbArc
 50
180.0
 51
270.0
  0
ARC
  5
664
100
AcDbEntity
  8
layer 1
 62
256
370
9
 48
1.0
  6
BYLAYER
100
AcDbCircle
 10
51.037668703697868
 20
107.7359881671190465
 30
0.0
 40
1.27
100
AcDbArc
 50
180.0
 51
270.0
  0
ARC
  5
665
100
AcDbEntity
  8
layer 1
 62
256
370
9
 48
1.0
  6
BYLAYER
100
AcDbCircle
 10
115.0376687036978751
 20
107.7359881671190465
 30
0.0
 40
1.27
100
AcDbArc
 50
180.0
 51
270.0
  0
ARC
  5
666
100
AcDbEntity
  8
layer 1
 62
256
370
9
 48
1.0
  6
BYLAYER
100
AcDbCircle
 10
51.037668703697868
 20
171.7359881671190465
 30
0.0
 40
1.27
100
AcDbArc
 50
180.0
 51
270.0
  0
ARC
  5
667
100
AcDbEntity
  8
layer 1
 62
256
370
9
 48
1.0
  6
BYLAYER
100
AcDbCircle
 10
115.0376687036978751
 20
171.7359881671190465
 30
0.0
 40
1.27
100
AcDbArc
 50
180.0
 51
270.0
  0
ARC
  5
668
100
AcDbEntity
  8
layer 1
 62
256
370
9
 48
1.0
  6
BYLAYER
100
AcDbCircle
 10
51.0376687036978751
 20
235.7359881671190465
 30
0.0
 40
1.27
100
AcDbArc
 50
180.0
 51
270.0
  0
ARC
  5
669
100
AcDbEntity
  8
layer 1
 62
256
370
9
 48
1.0
  6
BYLAYER
100
AcDbCircle
 10
115.0376687036978751
 20
235.7359881671190465
 30
0.0
 40
1.27
100
AcDbArc
 50
180.0
 51
270.0
  0
ARC
  5
66A
100
AcDbEntity
  8
layer 1
 62
256
370
9
 48
1.0
  6
BYLAYER
100
AcDbCircle
 10
51.0376687036978609
 20
43.7359881671190465
 30
0.0
 40
1.27
100
AcDbArc
 50
90.0000000000000142
 51
180.0
  0
ARC
  5
66B
100
AcDbEntity
  8
layer 1
 62
256
370
9
 48
1.0
  6
BYLAYER
100
AcDbCircle
 10
115.0376687036978609
 20
43.7359881671190465
 30
0.0
 40
1.27
100
AcDbArc
 50
90.0000000000000142
 51
180.0
  0
ARC
  5
66C
100
AcDbEntity
  8
layer 1
 62
256
370
9
 48
1.0
  6
BYLAYER
100
AcDbCircle
 10
51.037668703697868
 20
107.7359881671190465
 30
0.0
 40
1.27
100
AcDbArc
 50
90.0000000000000142
 51
180.0
  0
ARC
  5
66D
100
AcDbEntity
  8
layer 1
 62
256
370
9
 48
1.0
  6
BYLAYER
100
AcDbCircle
 10
115.0376687036978751
 20
107.7359881671190465
 30
0.0
 40
1.27
100
AcDbArc
 50
90.0000000000000142
 51
180.0
  0
ARC
  5
66E
100
AcDbEntity
  8
layer 1
 62
256
370
9
 48
1.0
  6
BYLAYER
100
AcDbCircle
 10
51.037668703697868
 20
171.7359881671190465
 30
0.0
 40
1.27
100
AcDbArc
 50
90.0000000000000142
 51
180.0
  0
ARC
  5
66F
100
AcDbEntity
  8
layer 1
 62
256
370
9
 48
1.0
  6
BYLAYER
100
AcDbCircle
 10
115.0376687036978751
 20
171.7359881671190465
 30
0.0
 40
1.27
100
AcDbArc
 50
90.0000000000000142
 51
180.0
  0
ARC
  5
670
100
AcDbEntity
  8
layer 1
 62
256
370
9
 48
1.0
  6
BYLAYER
100
AcDbCircle
 10
51.0376687036978751
 20
235.7359881671190465
 30
0.0
 40
1.27
100
AcDbArc
 50
90.0000000000000142
 51
180.0
  0
ARC
  5
671
100
AcDbEntity
  8
layer 1
 62
256
370
9
 48
1.0
  6
BYLAYER
100
AcDbCircle
 10
115.0376687036978751
 20
235.7359881671190465
 30
0.0
 40
1.27
100
AcDbArc
 50
90.0000000000000142
 51
180.0
  0
ARC
  5
672
100
AcDbEntity
  8
layer 1
 62
256
370
9
 48
1.0
  6
BYLAYER
100
AcDbCircle
 10
51.0376687036978609
 20
43.7359881671190465
 30
0.0
 40
1.27
100
AcDbArc
 50
0.0
 51
90.0000000000000142
  0
ARC
  5
673
100
AcDbEntity
  8
layer 1
 62
256
370
9
 48
1.0
  6
BYLAYER
100
AcDbCircle
 10
115.0376687036978609
 20
43.7359881671190465
 30
0.0
 40
1.27
100
AcDbArc
 50
0.0
 51
90.0000000000000142
  0
ARC
  5
674
100
AcDbEntity
  8
layer 1
 62
256
370
9
 48
1.0
  6
BYLAYER
100
AcDbCircle
 10
51.037668703697868
 20
107.7359881671190465
 30
0.0
 40
1.27
100
AcDbArc
 50
0.0
 51
90.0000000000000142
  0
ARC
  5
675
100
AcDbEntity
  8
layer 1
 62
256
370
9
 48
1.0
  6
BYLAYER
100
AcDbCircle
 10
115.0376687036978751
 20
107.7359881671190465
 30
0.0
 40
1.27
100
AcDbArc
 50
0.0
 51
90.0000000000000142
  0
ARC
  5
676
100
AcDbEntity
  8
layer 1
 62
256
370
9
 48
1.0
  6
BYLAYER
100
AcDbCircle
 10
51.037668703697868
 20
171.7359881671190465
 30
0.0
 40
1.27
100
AcDbArc
 50
0.0
 51
90.0000000000000142
  0
ARC
  5
677
100
AcDbEntity
  8
layer 1
 62
256
370
9
 48
1.0
  6
BYLAYER
100
AcDbCircle
 10
115.0376687036978751
 20
171.7359881671190465
 30
0.0
 40
1.27
100
AcDbArc
 50
0.0
 51
90.0000000000000142
  0
ARC
  5
678
100
AcDbEntity
  8
layer 1
 62
256
370
9
 48
1.0
  6
BYLAYER
100
AcDbCircle
 10
51.0376687036978751
 20
235.7359881671190465
 30
0.0
 40
1.27
100
AcDbArc
 50
0.0
 51
90.0000000000000142
  0
ARC
  5
679
100
AcDbEntity
  8
layer 1
 62
256
370
9
 48
1.0
  6
BYLAYER
100
AcDbCircle
 10
115.0376687036978751
 20
235.7359881671190465
 30
0.0
 40
1.27
100
AcDbArc
 50
0.0
 51
90.0000000000000142
  0
ARC
  5
67A
100
AcDbEntity
  8
layer 1
 62
256
370
9
 48
1.0
  6
BYLAYER
100
AcDbCircle
 10
51.0376687036978609
 20
43.7359881671190465
 30
0.0
 40
1.27
100
AcDbArc
 50
270.0
 51
0.0
  0
ARC
  5
67B
100
AcDbEntity
  8
layer 1
 62
256
370
9
 48
1.0
  6
BYLAYER
100
AcDbCircle
 10
115.0376687036978609
 20
43.7359881671190465
 30
0.0
 40
1.27
100
AcDbArc
 50
270.0
 51
0.0
  0
ARC
  5
67C
100
AcDbEntity
  8
layer 1
 62
256
370
9
 48
1.0
  6
BYLAYER
100
AcDbCircle
 10
51.037668703697868
 20
107.7359881671190465
 30
0.0
 40
1.27
100
AcDbArc
 50
270.0
 51
0.0
  0
ARC
  5
67D
100
AcDbEntity
  8
layer 1
 62
256
370
9
 48
1.0
  6
BYLAYER
100
AcDbCircle
 10
115.0376687036978751
 20
107.7359881671190465
 30
0.0
 40
1.27
100
AcDbArc
 50
270.0
 51
0.0
  0
ARC
  5
67E
100
AcDbEntity
  8
layer 1
 62
256
370
9
 48
1.0
  6
BYLAYER
100
AcDbCircle
 10
51.037668703697868
 20
171.7359881671190465
 30
0.0
 40
1.27
100
AcDbArc
 50
270.0
 51
0.0
  0
ARC
  5
67F
100
AcDbEntity
  8
layer 1
 62
256
370
9
 48
1.0
  6
BYLAYER
100
AcDbCircle
 10
115.0376687036978751
 20
171.7359881671190465
 30
0.0
 40
1.27
100
AcDbArc
 50
270.0
 51
0.0
  0
ARC
  5
680
100
AcDbEntity
  8
layer 1
 62
256
370
9
 48
1.0
  6
BYLAYER
100
AcDbCircle
 10
51.0376687036978751
 20
235.7359881671190465
 30
0.0
 40
1.27
100
AcDbArc
 50
270.0
 51
0.0
  0
ARC
  5
681
100
AcDbEntity
  8
layer 1
 62
256
370
9
 48
1.0
  6
BYLAYER
100
AcDbCircle
 10
115.0376687036978751
 20
235.7359881671190465
 30
0.0
 40
1.27
100
AcDbArc
 50
270.0
 51
0.0
  0
ARC
  5
682
100
AcDbEntity
  8
layer 1
 62
256
370
9
 48
1.0
  6
BYLAYER
100
AcDbCircle
 10
43.4176687036978635
 20
43.7359881671190465
 30
0.0
 40
1.27
100
AcDbArc
 50
180.0
 51
270.0
  0
ARC
  5
683
100
AcDbEntity
  8
layer 1
 62
256
370
9
 48
1.0
  6
BYLAYER
100
AcDbCircle
 10
107.4176687036978706
 20
43.7359881671190465
 30
0.0
 40
1.27
100
AcDbArc
 50
180.0
 51
270.0
  0
ARC
  5
684
100
AcDbEntity
  8
layer 1
 62
256
370
9
 48
1.0
  6
BYLAYER
100
AcDbCircle
 10
43.4176687036978706
 20
107.7359881671190465
 30
0.0
 40
1.27
100
AcDbArc
 50
180.0
 51
270.0
  0
ARC
  5
685
100
AcDbEntity
  8
layer 1
 62
256
370
9
 48
1.0
  6
BYLAYER
100
AcDbCircle
 10
107.4176687036978706
 20
107.7359881671190465
 30
0.0
 40
1.27
100
AcDbArc
 50
180.0
 51
270.0
  0
ARC
  5
686
100
AcDbEntity
  8
layer 1
 62
256
370
9
 48
1.0
  6
BYLAYER
100
AcDbCircle
 10
43.4176687036978706
 20
171.7359881671190465
 30
0.0
 40
1.27
100
AcDbArc
 50
180.0
 51
270.0
  0
ARC
  5
687
100
AcDbEntity
  8
layer 1
 62
256
370
9
 48
1.0
  6
BYLAYER
100
AcDbCircle
 10
107.4176687036978706
 20
171.7359881671190465
 30
0.0
 40
1.27
100
AcDbArc
 50
180.0
 51
270.0
  0
ARC
  5
688
100
AcDbEntity
  8
layer 1
 62
256
370
9
 48
1.0
  6
BYLAYER
100
AcDbCircle
 10
43.4176687036978777
 20
235.7359881671190465
 30
0.0
 40
1.27
100
AcDbArc
 50
180.0
 51
270.0
  0
ARC
  5
689
100
AcDbEntity
  8
layer 1
 62
256
370
9
 48
1.0
  6
BYLAYER
100
AcDbCircle
 10
107.4176687036978706
 20
235.7359881671190465
 30
0.0
 40
1.27
100
AcDbArc
 50
180.0
 51
270.0
  0
ARC
  5
68A
100
AcDbEntity
  8
layer 1
 62
256
370
9
 48
1.0
  6
BYLAYER
100
AcDbCircle
 10
43.4176687036978635
 20
43.7359881671190465
 30
0.0
 40
1.27
100
AcDbArc
 50
90.0000000000000142
 51
180.0
  0
ARC
  5
68B
100
AcDbEntity
  8
layer 1
 62
256
370
9
 48
1.0
  6
BYLAYER
100
AcDbCircle
 10
107.4176687036978706
 20
43.7359881671190465
 30
0.0
 40
1.27
100
AcDbArc
 50
90.0000000000000142
 51
180.0
  0
ARC
  5
68C
100
AcDbEntity
  8
layer 1
 62
256
370
9
 48
1.0
  6
BYLAYER
100
AcDbCircle
 10
43.4176687036978706
 20
107.7359881671190465
 30
0.0
 40
1.27
100
AcDbArc
 50
90.0000000000000142
 51
180.0
  0
ARC
  5
68D
100
AcDbEntity
  8
layer 1
 62
256
370
9
 48
1.0
  6
BYLAYER
100
AcDbCircle
 10
107.4176687036978706
 20
107.7359881671190465
 30
0.0
 40
1.27
100
AcDbArc
 50
90.0000000000000142
 51
180.0
  0
ARC
  5
68E
100
AcDbEntity
  8
layer 1
 62
256
370
9
 48
1.0
  6
BYLAYER
100
AcDbCircle
 10
43.4176687036978706
 20
171.7359881671190465
 30
0.0
 40
1.27
100
AcDbArc
 50
90.0000000000000142
 51
180.0
  0
ARC
  5
68F
100
AcDbEntity
  8
layer 1
 62
256
370
9
 48
1.0
  6
BYLAYER
100
AcDbCircle
 10
107.4176687036978706
 20
171.7359881671190465
 30
0.0
 40
1.27
100
AcDbArc
 50
90.0000000000000142
 51
180.0
  0
ARC
  5
690
100
AcDbEntity
  8
layer 1
 62
256
370
9
 48
1.0
  6
BYLAYER
100
AcDbCircle
 10
43.4176687036978777
 20
235.7359881671190465
 30
0.0
 40
1.27
100
AcDbArc
 50
90.0000000000000142
 51
180.0
  0
ARC
  5
691
100
AcDbEntity
  8
layer 1
 62
256
370
9
 48
1.0
  6
BYLAYER
100
AcDbCircle
 10
107.4176687036978706
 20
235.7359881671190465
 30
0.0
 40
1.27
100
AcDbArc
 50
90.0000000000000142
 51
180.0
  0
ARC
  5
692
100
AcDbEntity
  8
layer 1
 62
256
370
9
 48
1.0
  6
BYLAYER
100
AcDbCircle
 10
43.4176687036978635
 20
43.7359881671190465
 30
0.0
 40
1.27
100
AcDbArc
 50
0.0
 51
90.0000000000000142
  0
ARC
  5
693
100
AcDbEntity
  8
layer 1
 62
256
370
9
 48
1.0
  6
BYLAYER
100
AcDbCircle
 10
107.4176687036978706
 20
43.7359881671190465
 30
0.0
 40
1.27
100
AcDbArc
 50
0.0
 51
90.0000000000000142
  0
ARC
  5
694
100
AcDbEntity
  8
layer 1
 62
256
370
9
 48
1.0
  6
BYLAYER
100
AcDbCircle
 10
43.4176687036978706
 20
107.7359881671190465
 30
0.0
 40
1.27
100
AcDbArc
 50
0.0
 51
90.0000000000000142
  0
ARC
  5
695
100
AcDbEntity
  8
layer 1
 62
256
370
9
 48
1.0
  6
BYLAYER
100
AcDbCircle
 10
107.4176687036978706
 20
107.7359881671190465
 30
0.0
 40
1.27
100
AcDbArc
 50
0.0
 51
90.0000000000000142
  0
ARC
  5
696
100
AcDbEntity
  8
layer 1
 62
256
370
9
 48
1.0
  6
BYLAYER
100
AcDbCircle
 10
43.4176687036978706
 20
171.7359881671190465
 30
0.0
 40
1.27
100
AcDbArc
 50
0.0
 51
90.0000000000000142
  0
ARC
  5
697
100
AcDbEntity
  8
layer 1
 62
256
370
9
 48
1.0
  6
BYLAYER
100
AcDbCircle
 10
107.4176687036978706
 20
171.7359881671190465
 30
0.0
 40
1.27
100
AcDbArc
 50
0.0
 51
90.0000000000000142
  0
ARC
  5
698
100
AcDbEntity
  8
layer 1
 62
256
370
9
 48
1.0
  6
BYLAYER
100
AcDbCircle
 10
43.4176687036978777
 20
235.7359881671190465
 30
0.0
 40
1.27
100
AcDbArc
 50
0.0
 51
90.0000000000000142
  0
ARC
  5
699
100
AcDbEntity
  8
layer 1
 62
256
370
9
 48
1.0
  6
BYLAYER
100
AcDbCircle
 10
107.4176687036978706
 20
235.7359881671190465
 30
0.0
 40
1.27
100
AcDbArc
 50
0.0
 51
90.0000000000000142
  0
ARC
  5
69A
100
AcDbEntity
  8
layer 1
 62
256
370
9
 48
1.0
  6
BYLAYER
100
AcDbCircle
 10
43.4176687036978635
 20
43.7359881671190465
 30
0.0
 40
1.27
100
AcDbArc
 50
270.0
 51
0.0
  0
ARC
  5
69B
100
AcDbEntity
  8
layer 1
 62
256
370
9
 48
1.0
  6
BYLAYER
100
AcDbCircle
 10
107.4176687036978706
 20
43.7359881671190465
 30
0.0
 40
1.27
100
AcDbArc
 50
270.0
 51
0.0
  0
ARC
  5
69C
100
AcDbEntity
  8
layer 1
 62
256
370
9
 48
1.0
  6
BYLAYER
100
AcDbCircle
 10
43.4176687036978706
 20
107.7359881671190465
 30
0.0
 40
1.27
100
AcDbArc
 50
270.0
 51
0.0
  0
ARC
  5
69D
100
AcDbEntity
  8
layer 1
 62
256
370
9
 48
1.0
  6
BYLAYER
100
AcDbCircle
 10
107.4176687036978706
 20
107.7359881671190465
 30
0.0
 40
1.27
100
AcDbArc
 50
270.0
 51
0.0
  0
ARC
  5
69E
100
AcDbEntity
  8
layer 1
 62
256
370
9
 48
1.0
  6
BYLAYER
100
AcDbCircle
 10
43.4176687036978706
 20
171.7359881671190465
 30
0.0
 40
1.27
100
AcDbArc
 50
270.0
 51
0.0
  0
ARC
  5
69F
100
AcDbEntity
  8
layer 1
 62
256
370
9
 48
1.0
  6
BYLAYER
100
AcDbCircle
 10
107.4176687036978706
 20
171.7359881671190465
 30
0.0
 40
1.27
100
AcDbArc
 50
270.0
 51
0.0
  0
ARC
  5
6A0
100
AcDbEntity
  8
layer 1
 62
256
370
9
 48
1.0
  6
BYLAYER
100
AcDbCircle
 10
43.4176687036978777
 20
235.7359881671190465
 30
0.0
 40
1.27
100
AcDbArc
 50
270.0
 51
0.0
  0
ARC
  5
6A1
100
AcDbEntity
  8
layer 1
 62
256
370
9
 48
1.0
  6
BYLAYER
100
AcDbCircle
 10
107.4176687036978706
 20
235.7359881671190465
 30
0.0
 40
1.27
100
AcDbArc
 50
270.0
 51
0.0
  0
ARC
  5
6A2
100
AcDbEntity
  8
layer 1
 62
256
370
9
 48
1.0
  6
BYLAYER
100
AcDbCircle
 10
42.9824209827225161
 20
43.3209414459589794
 30
0.0
 40
2.5280991933373143
100
AcDbArc
 50
180.187804638137294
 51
228.3106041826651733
  0
ARC
  5
6A3
100
AcDbEntity
  8
layer 1
 62
256
370
9
 48
1.0
  6
BYLAYER
100
AcDbCircle
 10
106.9824209827225161
 20
43.3209414459589794
 30
0.0
 40
2.5280991933373143
100
AcDbArc
 50
180.187804638137294
 51
228.3106041826651733
  0
ARC
  5
6A4
100
AcDbEntity
  8
layer 1
 62
256
370
9
 48
1.0
  6
BYLAYER
100
AcDbCircle
 10
42.9824209827225232
 20
107.3209414459589794
 30
0.0
 40
2.5280991933373143
100
AcDbArc
 50
180.187804638137294
 51
228.3106041826651733
  0
ARC
  5
6A5
100
AcDbEntity
  8
layer 1
 62
256
370
9
 48
1.0
  6
BYLAYER
100
AcDbCircle
 10
106.9824209827225161
 20
107.3209414459589794
 30
0.0
 40
2.5280991933373143
100
AcDbArc
 50
180.187804638137294
 51
228.3106041826651733
  0
ARC
  5
6A6
100
AcDbEntity
  8
layer 1
 62
256
370
9
 48
1.0
  6
BYLAYER
100
AcDbCircle
 10
42.9824209827225232
 20
171.3209414459589652
 30
0.0
 40
2.5280991933373143
100
AcDbArc
 50
180.187804638137294
 51
228.3106041826651733
  0
ARC
  5
6A7
100
AcDbEntity
  8
layer 1
 62
256
370
9
 48
1.0
  6
BYLAYER
100
AcDbCircle
 10
106.9824209827225161
 20
171.3209414459589652
 30
0.0
 40
2.5280991933373143
100
AcDbArc
 50
180.187804638137294
 51
228.3106041826651733
  0
ARC
  5
6A8
100
AcDbEntity
  8
layer 1
 62
256
370
9
 48
1.0
  6
BYLAYER
100
AcDbCircle
 10
42.9824209827225303
 20
235.3209414459589652
 30
0.0
 40
2.5280991933373143
100
AcDbArc
 50
180.187804638137294
 51
228.3106041826651733
  0
ARC
  5
6A9
100
AcDbEntity
  8
layer 1
 62
256
370
9
 48
1.0
  6
BYLAYER
100
AcDbCircle
 10
106.9824209827225161
 20
235.3209414459589652
 30
0.0
 40
2.5280991933373143
100
AcDbArc
 50
180.187804638137294
 51
228.3106041826651733
  0
LINE
  5
6AA
100
AcDbEntity
  8
layer 1
 62
256
370
9
 48
1.0
  6
BYLAYER
100
AcDbLine
 10
41.3010020370311963
 20
41.4330548337857181
 30
0.0
 11
41.3010020370311963
 21
39.9259881671190584
 31
0.0
  0
LINE
  5
6AB
100
AcDbEntity
  8
layer 1
 62
256
370
9
 48
1.0
  6
BYLAYER
100
AcDbLine
 10
105.3010020370311963
 20
41.4330548337857181
 30
0.0
 11
105.3010020370311963
 21
39.9259881671190584
 31
0.0
  0
LINE
  5
6AC
100
AcDbEntity
  8
layer 1
 62
256
370
9
 48
1.0
  6
BYLAYER
100
AcDbLine
 10
41.3010020370312034
 20
105.4330548337857181
 30
0.0
 11
41.3010020370312034
 21
103.9259881671190584
 31
0.0
  0
LINE
  5
6AD
100
AcDbEntity
  8
layer 1
 62
256
370
9
 48
1.0
  6
BYLAYER
100
AcDbLine
 10
105.3010020370311963
 20
105.4330548337857181
 30
0.0
 11
105.3010020370311963
 21
103.9259881671190584
 31
0.0
  0
LINE
  5
6AE
100
AcDbEntity
  8
layer 1
 62
256
370
9
 48
1.0
  6
BYLAYER
100
AcDbLine
 10
41.3010020370312034
 20
169.4330548337857181
 30
0.0
 11
41.3010020370312034
 21
167.9259881671190442
 31
0.0
  0
LINE
  5
6AF
100
AcDbEntity
  8
layer 1
 62
256
370
9
 48
1.0
  6
BYLAYER
100
AcDbLine
 10
105.3010020370311963
 20
169.4330548337857181
 30
0.0
 11
105.3010020370311963
 21
167.9259881671190442
 31
0.0
  0
LINE
  5
6B0
100
AcDbEntity
  8
layer 1
 62
256
370
9
 48
1.0
  6
BYLAYER
100
AcDbLine
 10
41.3010020370312105
 20
233.4330548337857181
 30
0.0
 11
41.3010020370312105
 21
231.9259881671190442
 31
0.0
  0
LINE
  5
6B1
100
AcDbEntity
  8
layer 1
 62
256
370
9
 48
1.0
  6
BYLAYER
100
AcDbLine
 10
105.3010020370311963
 20
233.4330548337857181
 30
0.0
 11
105.3010020370311963
 21
231.9259881671190442
 31
0.0
  0
ARC
  5
6B2
100
AcDbEntity
  8
layer 1
 62
256
370
9
 48
1.0
  6
BYLAYER
100
AcDbCircle
 10
42.1476687036978674
 20
39.9259881671190584
 30
0.0
 40
0.8466666666666667
100
AcDbArc
 50
180.0
 51
270.0
  0
ARC
  5
6B3
100
AcDbEntity
  8
layer 1
 62
256
370
9
 48
1.0
  6
BYLAYER
100
AcDbCircle
 10
106.1476687036978603
 20
39.9259881671190584
 30
0.0
 40
0.8466666666666667
100
AcDbArc
 50
180.0
 51
270.0
  0
ARC
  5
6B4
100
AcDbEntity
  8
layer 1
 62
256
370
9
 48
1.0
  6
BYLAYER
100
AcDbCircle
 10
42.1476687036978745
 20
103.9259881671190584
 30
0.0
 40
0.8466666666666667
100
AcDbArc
 50
180.0
 51
270.0
  0
ARC
  5
6B5
100
AcDbEntity
  8
layer 1
 62
256
370
9
 48
1.0
  6
BYLAYER
100
AcDbCircle
 10
106.1476687036978603
 20
103.9259881671190584
 30
0.0
 40
0.8466666666666667
100
AcDbArc
 50
180.0
 51
270.0
  0
ARC
  5
6B6
100
AcDbEntity
  8
layer 1
 62
256
370
9
 48
1.0
  6
BYLAYER
100
AcDbCircle
 10
42.1476687036978745
 20
167.9259881671190442
 30
0.0
 40
0.8466666666666667
100
AcDbArc
 50
180.0
 51
270.0
  0
ARC
  5
6B7
100
AcDbEntity
  8
layer 1
 62
256
370
9
 48
1.0
  6
BYLAYER
100
AcDbCircle
 10
106.1476687036978603
 20
167.9259881671190442
 30
0.0
 40
0.8466666666666667
100
AcDbArc
 50
180.0
 51
270.0
  0
ARC
  5
6B8
100
AcDbEntity
  8
layer 1
 62
256
370
9
 48
1.0
  6
BYLAYER
100
AcDbCircle
 10
42.1476687036978817
 20
231.9259881671190442
 30
0.0
 40
0.8466666666666667
100
AcDbArc
 50
180.0
 51
270.0
  0
ARC
  5
6B9
100
AcDbEntity
  8
layer 1
 62
256
370
9
 48
1.0
  6
BYLAYER
100
AcDbCircle
 10
106.1476687036978603
 20
231.9259881671190442
 30
0.0
 40
0.8466666666666667
100
AcDbArc
 50
180.0
 51
270.0
  0
LINE
  5
6BA
100
AcDbEntity
  8
layer 1
 62
256
370
9
 48
1.0
  6
BYLAYER
100
AcDbLine
 10
42.1476687036978674
 20
39.0793215004524086
 30
0.0
 11
42.9943353703645386
 21
39.0793215004524086
 31
0.0
  0
LINE
  5
6BB
100
AcDbEntity
  8
layer 1
 62
256
370
9
 48
1.0
  6
BYLAYER
100
AcDbLine
 10
106.1476687036978603
 20
39.0793215004524086
 30
0.0
 11
106.9943353703645386
 21
39.0793215004524086
 31
0.0
  0
LINE
  5
6BC
100
AcDbEntity
  8
layer 1
 62
256
370
9
 48
1.0
  6
BYLAYER
100
AcDbLine
 10
42.1476687036978745
 20
103.0793215004524086
 30
0.0
 11
42.9943353703645457
 21
103.0793215004524086
 31
0.0
  0
LINE
  5
6BD
100
AcDbEntity
  8
layer 1
 62
256
370
9
 48
1.0
  6
BYLAYER
100
AcDbLine
 10
106.1476687036978603
 20
103.0793215004524086
 30
0.0
 11
106.9943353703645528
 21
103.0793215004524086
 31
0.0
  0
LINE
  5
6BE
100
AcDbEntity
  8
layer 1
 62
256
370
9
 48
1.0
  6
BYLAYER
100
AcDbLine
 10
42.1476687036978745
 20
167.0793215004524086
 30
0.0
 11
42.9943353703645457
 21
167.0793215004524086
 31
0.0
  0
LINE
  5
6BF
100
AcDbEntity
  8
layer 1
 62
256
370
9
 48
1.0
  6
BYLAYER
100
AcDbLine
 10
106.1476687036978603
 20
167.0793215004524086
 30
0.0
 11
106.9943353703645528
 21
167.0793215004524086
 31
0.0
  0
LINE
  5
6C0
100
AcDbEntity
  8
layer 1
 62
256
370
9
 48
1.0
  6
BYLAYER
100
AcDbLine
 10
42.1476687036978817
 20
231.0793215004524086
 30
0.0
 11
42.9943353703645528
 21
231.0793215004524086
 31
0.0
  0
LINE
  5
6C1
100
AcDbEntity
  8
layer 1
 62
256
370
9
 48
1.0
  6
BYLAYER
100
AcDbLine
 10
106.1476687036978603
 20
231.0793215004524086
 30
0.0
 11
106.9943353703645528
 21
231.0793215004524086
 31
0.0
  0
ARC
  5
6C2
100
AcDbEntity
  8
layer 1
 62
256
370
9
 48
1.0
  6
BYLAYER
100
AcDbCircle
 10
42.9943353703645386
 20
39.9259881671190584
 30
0.0
 40
0.8466666666666667
100
AcDbArc
 50
270.0
 51
0.0
  0
ARC
  5
6C3
100
AcDbEntity
  8
layer 1
 62
256
370
9
 48
1.0
  6
BYLAYER
100
AcDbCircle
 10
106.9943353703645386
 20
39.9259881671190584
 30
0.0
 40
0.8466666666666667
100
AcDbArc
 50
270.0
 51
0.0
  0
ARC
  5
6C4
100
AcDbEntity
  8
layer 1
 62
256
370
9
 48
1.0
  6
BYLAYER
100
AcDbCircle
 10
42.9943353703645457
 20
103.9259881671190584
 30
0.0
 40
0.8466666666666667
100
AcDbArc
 50
270.0
 51
0.0
  0
ARC
  5
6C5
100
AcDbEntity
  8
layer 1
 62
256
370
9
 48
1.0
  6
BYLAYER
100
AcDbCircle
 10
106.9943353703645528
 20
103.9259881671190584
 30
0.0
 40
0.8466666666666667
100
AcDbArc
 50
270.0
 51
0.0
  0
ARC
  5
6C6
100
AcDbEntity
  8
layer 1
 62
256
370
9
 48
1.0
  6
BYLAYER
100
AcDbCircle
 10
42.9943353703645457
 20
167.9259881671190442
 30
0.0
 40
0.8466666666666667
100
AcDbArc
 50
270.0
 51
0.0
  0
ARC
  5
6C7
100
AcDbEntity
  8
layer 1
 62
256
370
9
 48
1.0
  6
BYLAYER
100
AcDbCircle
 10
106.9943353703645528
 20
167.9259881671190442
 30
0.0
 40
0.8466666666666667
100
AcDbArc
 50
270.0
 51
0.0
  0
ARC
  5
6C8
100
AcDbEntity
  8
layer 1
 62
256
370
9
 48
1.0
  6
BYLAYER
100
AcDbCircle
 10
42.9943353703645528
 20
231.9259881671190442
 30
0.0
 40
0.8466666666666667
100
AcDbArc
 50
270.0
 51
0.0
  0
ARC
  5
6C9
100
AcDbEntity
  8
layer 1
 62
256
370
9
 48
1.0
  6
BYLAYER
100
AcDbCircle
 10
106.9943353703645528
 20
231.9259881671190442
 30
0.0
 40
0.8466666666666667
100
AcDbArc
 50
270.0
 51
0.0
  0
LINE
  5
6CA
100
AcDbEntity
  8
layer 1
 62
256
370
9
 48
1.0
  6
BYLAYER
100
AcDbLine
 10
43.8410020370311884
 20
39.9259881671190584
 30
0.0
 11
43.8410020370311884
 21
40.7726548337857508
 31
0.0
  0
LINE
  5
6CB
100
AcDbEntity
  8
layer 1
 62
256
370
9
 48
1.0
  6
BYLAYER
100
AcDbLine
 10
107.8410020370311884
 20
39.9259881671190584
 30
0.0
 11
107.8410020370311884
 21
40.7726548337857508
 31
0.0
  0
LINE
  5
6CC
100
AcDbEntity
  8
layer 1
 62
256
370
9
 48
1.0
  6
BYLAYER
100
AcDbLine
 10
43.8410020370311955
 20
103.9259881671190584
 30
0.0
 11
43.8410020370311955
 21
104.7726548337857508
 31
0.0
  0
LINE
  5
6CD
100
AcDbEntity
  8
layer 1
 62
256
370
9
 48
1.0
  6
BYLAYER
100
AcDbLine
 10
107.8410020370311884
 20
103.9259881671190584
 30
0.0
 11
107.8410020370311884
 21
104.7726548337857508
 31
0.0
  0
LINE
  5
6CE
100
AcDbEntity
  8
layer 1
 62
256
370
9
 48
1.0
  6
BYLAYER
100
AcDbLine
 10
43.8410020370311955
 20
167.9259881671190442
 30
0.0
 11
43.8410020370311955
 21
168.7726548337857366
 31
0.0
  0
LINE
  5
6CF
100
AcDbEntity
  8
layer 1
 62
256
370
9
 48
1.0
  6
BYLAYER
100
AcDbLine
 10
107.8410020370311884
 20
167.9259881671190442
 30
0.0
 11
107.8410020370311884
 21
168.7726548337857366
 31
0.0
  0
LINE
  5
6D0
100
AcDbEntity
  8
layer 1
 62
256
370
9
 48
1.0
  6
BYLAYER
100
AcDbLine
 10
43.8410020370312026
 20
231.9259881671190442
 30
0.0
 11
43.8410020370312026
 21
232.7726548337857366
 31
0.0
  0
LINE
  5
6D1
100
AcDbEntity
  8
layer 1
 62
256
370
9
 48
1.0
  6
BYLAYER
100
AcDbLine
 10
107.8410020370311884
 20
231.9259881671190442
 30
0.0
 11
107.8410020370311884
 21
232.7726548337857366
 31
0.0
  0
LINE
  5
6D2
100
AcDbEntity
  8
layer 1
 62
256
370
9
 48
1.0
  6
BYLAYER
100
AcDbLine
 10
43.8410020370311884
 20
40.7726548337857508
 30
0.0
 11
50.614335370364536
 21
40.7726548337857508
 31
0.0
  0
LINE
  5
6D3
100
AcDbEntity
  8
layer 1
 62
256
370
9
 48
1.0
  6
BYLAYER
100
AcDbLine
 10
107.8410020370311884
 20
40.7726548337857508
 30
0.0
 11
114.6143353703645289
 21
40.7726548337857508
 31
0.0
  0
LINE
  5
6D4
100
AcDbEntity
  8
layer 1
 62
256
370
9
 48
1.0
  6
BYLAYER
100
AcDbLine
 10
43.8410020370311955
 20
104.7726548337857508
 30
0.0
 11
50.6143353703645431
 21
104.7726548337857508
 31
0.0
  0
LINE
  5
6D5
100
AcDbEntity
  8
layer 1
 62
256
370
9
 48
1.0
  6
BYLAYER
100
AcDbLine
 10
107.8410020370311884
 20
104.7726548337857508
 30
0.0
 11
114.6143353703645289
 21
104.7726548337857508
 31
0.0
  0
LINE
  5
6D6
100
AcDbEntity
  8
layer 1
 62
256
370
9
 48
1.0
  6
BYLAYER
100
AcDbLine
 10
43.8410020370311955
 20
168.7726548337857366
 30
0.0
 11
50.6143353703645431
 21
168.7726548337857366
 31
0.0
  0
LINE
  5
6D7
100
AcDbEntity
  8
layer 1
 62
256
370
9
 48
1.0
  6
BYLAYER
100
AcDbLine
 10
107.8410020370311884
 20
168.7726548337857366
 30
0.0
 11
114.6143353703645289
 21
168.7726548337857366
 31
0.0
  0
LINE
  5
6D8
100
AcDbEntity
  8
layer 1
 62
256
370
9
 48
1.0
  6
BYLAYER
100
AcDbLine
 10
43.8410020370312026
 20
232.7726548337857366
 30
0.0
 11
50.6143353703645502
 21
232.7726548337857366
 31
0.0
  0
LINE
  5
6D9
100
AcDbEntity
  8
layer 1
 62
256
370
9
 48
1.0
  6
BYLAYER
100
AcDbLine
 10
107.8410020370311884
 20
232.7726548337857366
 30
0.0
 11
114.6143353703645289
 21
232.7726548337857366
 31
0.0
  0
LINE
  5
6DA
100
AcDbEntity
  8
layer 1
 62
256
370
9
 48
1.0
  6
BYLAYER
100
AcDbLine
 10
50.614335370364536
 20
40.7726548337857508
 30
0.0
 11
50.614335370364536
 21
39.9259881671190584
 31
0.0
  0
LINE
  5
6DB
100
AcDbEntity
  8
layer 1
 62
256
370
9
 48
1.0
  6
BYLAYER
100
AcDbLine
 10
114.6143353703645289
 20
40.7726548337857508
 30
0.0
 11
114.6143353703645289
 21
39.9259881671190584
 31
0.0
  0
LINE
  5
6DC
100
AcDbEntity
  8
layer 1
 62
256
370
9
 48
1.0
  6
BYLAYER
100
AcDbLine
 10
50.6143353703645431
 20
104.7726548337857508
 30
0.0
 11
50.6143353703645431
 21
103.9259881671190584
 31
0.0
  0
LINE
  5
6DD
100
AcDbEntity
  8
layer 1
 62
256
370
9
 48
1.0
  6
BYLAYER
100
AcDbLine
 10
114.6143353703645289
 20
104.7726548337857508
 30
0.0
 11
114.6143353703645289
 21
103.9259881671190584
 31
0.0
  0
LINE
  5
6DE
100
AcDbEntity
  8
layer 1
 62
256
370
9
 48
1.0
  6
BYLAYER
100
AcDbLine
 10
50.6143353703645431
 20
168.7726548337857366
 30
0.0
 11
50.6143353703645431
 21
167.9259881671190442
 31
0.0
  0
LINE
  5
6DF
100
AcDbEntity
  8
layer 1
 62
256
370
9
 48
1.0
  6
BYLAYER
100
AcDbLine
 10
114.6143353703645289
 20
168.7726548337857366
 30
0.0
 11
114.6143353703645289
 21
167.9259881671190442
 31
0.0
  0
LINE
  5
6E0
100
AcDbEntity
  8
layer 1
 62
256
370
9
 48
1.0
  6
BYLAYER
100
AcDbLine
 10
50.6143353703645502
 20
232.7726548337857366
 30
0.0
 11
50.6143353703645502
 21
231.9259881671190442
 31
0.0
  0
LINE
  5
6E1
100
AcDbEntity
  8
layer 1
 62
256
370
9
 48
1.0
  6
BYLAYER
100
AcDbLine
 10
114.6143353703645289
 20
232.7726548337857366
 30
0.0
 11
114.6143353703645289
 21
231.9259881671190442
 31
0.0
  0
ARC
  5
6E2
100
AcDbEntity
  8
layer 1
 62
256
370
9
 48
1.0
  6
BYLAYER
100
AcDbCircle
 10
51.4610020370311858
 20
39.9259881671190584
 30
0.0
 40
0.8466666666666667
100
AcDbArc
 50
180.0
 51
270.0
  0
ARC
  5
6E3
100
AcDbEntity
  8
layer 1
 62
256
370
9
 48
1.0
  6
BYLAYER
100
AcDbCircle
 10
115.4610020370311929
 20
39.9259881671190584
 30
0.0
 40
0.8466666666666667
100
AcDbArc
 50
180.0
 51
270.0
  0
ARC
  5
6E4
100
AcDbEntity
  8
layer 1
 62
256
370
9
 48
1.0
  6
BYLAYER
100
AcDbCircle
 10
51.4610020370311929
 20
103.9259881671190584
 30
0.0
 40
0.8466666666666667
100
AcDbArc
 50
180.0
 51
270.0
  0
ARC
  5
6E5
100
AcDbEntity
  8
layer 1
 62
256
370
9
 48
1.0
  6
BYLAYER
100
AcDbCircle
 10
115.4610020370311929
 20
103.9259881671190584
 30
0.0
 40
0.8466666666666667
100
AcDbArc
 50
180.0
 51
270.0
  0
ARC
  5
6E6
100
AcDbEntity
  8
layer 1
 62
256
370
9
 48
1.0
  6
BYLAYER
100
AcDbCircle
 10
51.4610020370311929
 20
167.9259881671190442
 30
0.0
 40
0.8466666666666667
100
AcDbArc
 50
180.0
 51
270.0
  0
ARC
  5
6E7
100
AcDbEntity
  8
layer 1
 62
256
370
9
 48
1.0
  6
BYLAYER
100
AcDbCircle
 10
115.4610020370311929
 20
167.9259881671190442
 30
0.0
 40
0.8466666666666667
100
AcDbArc
 50
180.0
 51
270.0
  0
ARC
  5
6E8
100
AcDbEntity
  8
layer 1
 62
256
370
9
 48
1.0
  6
BYLAYER
100
AcDbCircle
 10
51.4610020370312
 20
231.9259881671190442
 30
0.0
 40
0.8466666666666667
100
AcDbArc
 50
180.0
 51
270.0
  0
ARC
  5
6E9
100
AcDbEntity
  8
layer 1
 62
256
370
9
 48
1.0
  6
BYLAYER
100
AcDbCircle
 10
115.4610020370311929
 20
231.9259881671190442
 30
0.0
 40
0.8466666666666667
100
AcDbArc
 50
180.0
 51
270.0
  0
LINE
  5
6EA
100
AcDbEntity
  8
layer 1
 62
256
370
9
 48
1.0
  6
BYLAYER
100
AcDbLine
 10
51.4610020370311858
 20
39.0793215004524086
 30
0.0
 11
52.3076687036978569
 21
39.0793215004524086
 31
0.0
  0
LINE
  5
6EB
100
AcDbEntity
  8
layer 1
 62
256
370
9
 48
1.0
  6
BYLAYER
100
AcDbLine
 10
115.4610020370311929
 20
39.0793215004524086
 30
0.0
 11
116.3076687036978569
 21
39.0793215004524086
 31
0.0
  0
LINE
  5
6EC
100
AcDbEntity
  8
layer 1
 62
256
370
9
 48
1.0
  6
BYLAYER
100
AcDbLine
 10
51.4610020370311929
 20
103.0793215004524086
 30
0.0
 11
52.307668703697864
 21
103.0793215004524086
 31
0.0
  0
LINE
  5
6ED
100
AcDbEntity
  8
layer 1
 62
256
370
9
 48
1.0
  6
BYLAYER
100
AcDbLine
 10
115.4610020370311929
 20
103.0793215004524086
 30
0.0
 11
116.3076687036978569
 21
103.0793215004524086
 31
0.0
  0
LINE
  5
6EE
100
AcDbEntity
  8
layer 1
 62
256
370
9
 48
1.0
  6
BYLAYER
100
AcDbLine
 10
51.4610020370311929
 20
167.0793215004524086
 30
0.0
 11
52.307668703697864
 21
167.0793215004524086
 31
0.0
  0
LINE
  5
6EF
100
AcDbEntity
  8
layer 1
 62
256
370
9
 48
1.0
  6
BYLAYER
100
AcDbLine
 10
115.4610020370311929
 20
167.0793215004524086
 30
0.0
 11
116.3076687036978569
 21
167.0793215004524086
 31
0.0
  0
LINE
  5
6F0
100
AcDbEntity
  8
layer 1
 62
256
370
9
 48
1.0
  6
BYLAYER
100
AcDbLine
 10
51.4610020370312
 20
231.0793215004524086
 30
0.0
 11
52.3076687036978711
 21
231.0793215004524086
 31
0.0
  0
LINE
  5
6F1
100
AcDbEntity
  8
layer 1
 62
256
370
9
 48
1.0
  6
BYLAYER
100
AcDbLine
 10
115.4610020370311929
 20
231.0793215004524086
 30
0.0
 11
116.3076687036978569
 21
231.0793215004524086
 31
0.0
  0
ARC
  5
6F2
100
AcDbEntity
  8
layer 1
 62
256
370
9
 48
1.0
  6
BYLAYER
100
AcDbCircle
 10
52.3076687036978569
 20
39.9259881671190584
 30
0.0
 40
0.8466666666666667
100
AcDbArc
 50
270.0
 51
0.0
  0
ARC
  5
6F3
100
AcDbEntity
  8
layer 1
 62
256
370
9
 48
1.0
  6
BYLAYER
100
AcDbCircle
 10
116.3076687036978569
 20
39.9259881671190584
 30
0.0
 40
0.8466666666666667
100
AcDbArc
 50
270.0
 51
0.0
  0
ARC
  5
6F4
100
AcDbEntity
  8
layer 1
 62
256
370
9
 48
1.0
  6
BYLAYER
100
AcDbCircle
 10
52.307668703697864
 20
103.9259881671190584
 30
0.0
 40
0.8466666666666667
100
AcDbArc
 50
270.0
 51
0.0
  0
ARC
  5
6F5
100
AcDbEntity
  8
layer 1
 62
256
370
9
 48
1.0
  6
BYLAYER
100
AcDbCircle
 10
116.3076687036978569
 20
103.9259881671190584
 30
0.0
 40
0.8466666666666667
100
AcDbArc
 50
270.0
 51
0.0
  0
ARC
  5
6F6
100
AcDbEntity
  8
layer 1
 62
256
370
9
 48
1.0
  6
BYLAYER
100
AcDbCircle
 10
52.307668703697864
 20
167.9259881671190442
 30
0.0
 40
0.8466666666666667
100
AcDbArc
 50
270.0
 51
0.0
  0
ARC
  5
6F7
100
AcDbEntity
  8
layer 1
 62
256
370
9
 48
1.0
  6
BYLAYER
100
AcDbCircle
 10
116.3076687036978569
 20
167.9259881671190442
 30
0.0
 40
0.8466666666666667
100
AcDbArc
 50
270.0
 51
0.0
  0
ARC
  5
6F8
100
AcDbEntity
  8
layer 1
 62
256
370
9
 48
1.0
  6
BYLAYER
100
AcDbCircle
 10
52.3076687036978711
 20
231.9259881671190442
 30
0.0
 40
0.8466666666666667
100
AcDbArc
 50
270.0
 51
0.0
  0
ARC
  5
6F9
100
AcDbEntity
  8
layer 1
 62
256
370
9
 48
1.0
  6
BYLAYER
100
AcDbCircle
 10
116.3076687036978569
 20
231.9259881671190442
 30
0.0
 40
0.8466666666666667
100
AcDbArc
 50
270.0
 51
0.0
  0
LINE
  5
6FA
100
AcDbEntity
  8
layer 1
 62
256
370
9
 48
1.0
  6
BYLAYER
100
AcDbLine
 10
53.154335370364528
 20
39.9259881671190584
 30
0.0
 11
53.154335370364528
 21
41.4330548337857181
 31
0.0
  0
LINE
  5
6FB
100
AcDbEntity
  8
layer 1
 62
256
370
9
 48
1.0
  6
BYLAYER
100
AcDbLine
 10
117.1543353703645209
 20
39.9259881671190584
 30
0.0
 11
117.1543353703645209
 21
41.4330548337857181
 31
0.0
  0
LINE
  5
6FC
100
AcDbEntity
  8
layer 1
 62
256
370
9
 48
1.0
  6
BYLAYER
100
AcDbLine
 10
53.1543353703645352
 20
103.9259881671190584
 30
0.0
 11
53.1543353703645352
 21
105.4330548337857181
 31
0.0
  0
LINE
  5
6FD
100
AcDbEntity
  8
layer 1
 62
256
370
9
 48
1.0
  6
BYLAYER
100
AcDbLine
 10
117.1543353703645209
 20
103.9259881671190584
 30
0.0
 11
117.1543353703645209
 21
105.4330548337857181
 31
0.0
  0
LINE
  5
6FE
100
AcDbEntity
  8
layer 1
 62
256
370
9
 48
1.0
  6
BYLAYER
100
AcDbLine
 10
53.1543353703645352
 20
167.9259881671190442
 30
0.0
 11
53.1543353703645352
 21
169.4330548337857181
 31
0.0
  0
LINE
  5
6FF
100
AcDbEntity
  8
layer 1
 62
256
370
9
 48
1.0
  6
BYLAYER
100
AcDbLine
 10
117.1543353703645209
 20
167.9259881671190442
 30
0.0
 11
117.1543353703645209
 21
169.4330548337857181
 31
0.0
  0
LINE
  5
700
100
AcDbEntity
  8
layer 1
 62
256
370
9
 48
1.0
  6
BYLAYER
100
AcDbLine
 10
53.1543353703645423
 20
231.9259881671190442
 30
0.0
 11
53.1543353703645423
 21
233.4330548337857181
 31
0.0
  0
LINE
  5
701
100
AcDbEntity
  8
layer 1
 62
256
370
9
 48
1.0
  6
BYLAYER
100
AcDbLine
 10
117.1543353703645209
 20
231.9259881671190442
 30
0.0
 11
117.1543353703645209
 21
233.4330548337857181
 31
0.0
  0
ARC
  5
702
100
AcDbEntity
  8
layer 1
 62
256
370
9
 48
1.0
  6
BYLAYER
100
AcDbCircle
 10
51.4729164246732083
 20
43.3209414459589794
 30
0.0
 40
2.5280991933373143
100
AcDbArc
 50
311.6893958173348551
 51
359.8121953618626776
  0
ARC
  5
703
100
AcDbEntity
  8
layer 1
 62
256
370
9
 48
1.0
  6
BYLAYER
100
AcDbCircle
 10
115.4729164246732012
 20
43.3209414459589794
 30
0.0
 40
2.5280991933373143
100
AcDbArc
 50
311.6893958173348551
 51
359.8121953618626776
  0
ARC
  5
704
100
AcDbEntity
  8
layer 1
 62
256
370
9
 48
1.0
  6
BYLAYER
100
AcDbCircle
 10
51.4729164246732154
 20
107.3209414459589794
 30
0.0
 40
2.5280991933373143
100
AcDbArc
 50
311.6893958173348551
 51
359.8121953618626776
  0
ARC
  5
705
100
AcDbEntity
  8
layer 1
 62
256
370
9
 48
1.0
  6
BYLAYER
100
AcDbCircle
 10
115.4729164246732012
 20
107.3209414459589794
 30
0.0
 40
2.5280991933373143
100
AcDbArc
 50
311.6893958173348551
 51
359.8121953618626776
  0
ARC
  5
706
100
AcDbEntity
  8
layer 1
 62
256
370
9
 48
1.0
  6
BYLAYER
100
AcDbCircle
 10
51.4729164246732154
 20
171.3209414459589652
 30
0.0
 40
2.5280991933373143
100
AcDbArc
 50
311.6893958173348551
 51
359.8121953618626776
  0
ARC
  5
707
100
AcDbEntity
  8
layer 1
 62
256
370
9
 48
1.0
  6
BYLAYER
100
AcDbCircle
 10
115.4729164246732012
 20
171.3209414459589652
 30
0.0
 40
2.5280991933373143
100
AcDbArc
 50
311.6893958173348551
 51
359.8121953618626776
  0
ARC
  5
708
100
AcDbEntity
  8
layer 1
 62
256
370
9
 48
1.0
  6
BYLAYER
100
AcDbCircle
 10
51.4729164246732225
 20
235.3209414459589652
 30
0.0
 40
2.5280991933373143
100
AcDbArc
 50
311.6893958173348551
 51
359.8121953618626776
  0
ARC
  5
709
100
AcDbEntity
  8
layer 1
 62
256
370
9
 48
1.0
  6
BYLAYER
100
AcDbCircle
 10
115.4729164246732012
 20
235.3209414459589652
 30
0.0
 40
2.5280991933373143
100
AcDbArc
 50
311.6893958173348551
 51
359.8121953618626776
  0
LINE
  5
70A
100
AcDbEntity
  8
layer 1
 62
256
370
9
 48
1.0
  6
BYLAYER
100
AcDbLine
 10
54.0010020370312063
 20
43.3126548337857429
 30
0.0
 11
54.0010020370312063
 21
51.7793215004524114
 31
0.0
  0
LINE
  5
70B
100
AcDbEntity
  8
layer 1
 62
256
370
9
 48
1.0
  6
BYLAYER
100
AcDbLine
 10
118.0010020370312134
 20
43.3126548337857429
 30
0.0
 11
118.0010020370312134
 21
51.7793215004524114
 31
0.0
  0
LINE
  5
70C
100
AcDbEntity
  8
layer 1
 62
256
370
9
 48
1.0
  6
BYLAYER
100
AcDbLine
 10
54.0010020370312134
 20
107.3126548337857429
 30
0.0
 11
54.0010020370312134
 21
115.7793215004524114
 31
0.0
  0
LINE
  5
70D
100
AcDbEntity
  8
layer 1
 62
256
370
9
 48
1.0
  6
BYLAYER
100
AcDbLine
 10
118.0010020370312134
 20
107.3126548337857429
 30
0.0
 11
118.0010020370312134
 21
115.7793215004524114
 31
0.0
  0
LINE
  5
70E
100
AcDbEntity
  8
layer 1
 62
256
370
9
 48
1.0
  6
BYLAYER
100
AcDbLine
 10
54.0010020370312134
 20
171.3126548337857571
 30
0.0
 11
54.0010020370312134
 21
179.7793215004523972
 31
0.0
  0
LINE
  5
70F
100
AcDbEntity
  8
layer 1
 62
256
370
9
 48
1.0
  6
BYLAYER
100
AcDbLine
 10
118.0010020370312134
 20
171.3126548337857571
 30
0.0
 11
118.0010020370312134
 21
179.7793215004523972
 31
0.0
  0
LINE
  5
710
100
AcDbEntity
  8
layer 1
 62
256
370
9
 48
1.0
  6
BYLAYER
100
AcDbLine
 10
54.0010020370312205
 20
235.3126548337857571
 30
0.0
 11
54.0010020370312205
 21
243.7793215004523972
 31
0.0
  0
LINE
  5
711
100
AcDbEntity
  8
layer 1
 62
256
370
9
 48
1.0
  6
BYLAYER
100
AcDbLine
 10
118.0010020370312134
 20
235.3126548337857571
 30
0.0
 11
118.0010020370312134
 21
243.7793215004523972
 31
0.0
  0
SPLINE
  5
712
100
AcDbEntity
  8
layer 1
 62
256
370
9
 48
1.0
  6
BYLAYER
100
AcDbSpline
 70
8
 71
3
 72
8
 73
4
 74
0
 40
0.0
 40
0.0
 40
0.0
 40
0.0
 40
1.0
 40
1.0
 40
1.0
 40
1.0
 10
54.0010020370312063
 20
51.7793215004524114
 30
0.0
 10
54.0010020370312063
 20
54.7426548337857497
 30
0.0
 10
50.9699353703645315
 20
55.1659881671190533
 30
0.0
 10
47.2276687036978728
 20
55.1659881671190533
 30
0.0
  0
SPLINE
  5
713
100
AcDbEntity
  8
layer 1
 62
256
370
9
 48
1.0
  6
BYLAYER
100
AcDbSpline
 70
8
 71
3
 72
8
 73
4
 74
0
 40
0.0
 40
0.0
 40
0.0
 40
0.0
 40
1.0
 40
1.0
 40
1.0
 40
1.0
 10
118.0010020370312134
 20
51.7793215004524114
 30
0.0
 10
118.0010020370312134
 20
54.7426548337857497
 30
0.0
 10
114.9699353703645386
 20
55.1659881671190533
 30
0.0
 10
111.2276687036978728
 20
55.1659881671190533
 30
0.0
  0
SPLINE
  5
714
100
AcDbEntity
  8
layer 1
 62
256
370
9
 48
1.0
  6
BYLAYER
100
AcDbSpline
 70
8
 71
3
 72
8
 73
4
 74
0
 40
0.0
 40
0.0
 40
0.0
 40
0.0
 40
1.0
 40
1.0
 40
1.0
 40
1.0
 10
54.0010020370312134
 20
115.7793215004524114
 30
0.0
 10
54.0010020370312134
 20
118.7426548337857497
 30
0.0
 10
50.9699353703645386
 20
119.1659881671190533
 30
0.0
 10
47.2276687036978799
 20
119.1659881671190533
 30
0.0
  0
SPLINE
  5
715
100
AcDbEntity
  8
layer 1
 62
256
370
9
 48
1.0
  6
BYLAYER
100
AcDbSpline
 70
8
 71
3
 72
8
 73
4
 74
0
 40
0.0
 40
0.0
 40
0.0
 40
0.0
 40
1.0
 40
1.0
 40
1.0
 40
1.0
 10
118.0010020370312134
 20
115.7793215004524114
 30
0.0
 10
118.0010020370312134
 20
118.7426548337857497
 30
0.0
 10
114.9699353703645386
 20
119.1659881671190533
 30
0.0
 10
111.2276687036978728
 20
119.1659881671190533
 30
0.0
  0
SPLINE
  5
716
100
AcDbEntity
  8
layer 1
 62
256
370
9
 48
1.0
  6
BYLAYER
100
AcDbSpline
 70
8
 71
3
 72
8
 73
4
 74
0
 40
0.0
 40
0.0
 40
0.0
 40
0.0
 40
1.0
 40
1.0
 40
1.0
 40
1.0
 10
54.0010020370312134
 20
179.7793215004523972
 30
0.0
 10
54.0010020370312134
 20
182.7426548337857639
 30
0.0
 10
50.9699353703645386
 20
183.1659881671190533
 30
0.0
 10
47.2276687036978799
 20
183.1659881671190533
 30
0.0
  0
SPLINE
  5
717
100
AcDbEntity
  8
layer 1
 62
256
370
9
 48
1.0
  6
BYLAYER
100
AcDbSpline
 70
8
 71
3
 72
8
 73
4
 74
0
 40
0.0
 40
0.0
 40
0.0
 40
0.0
 40
1.0
 40
1.0
 40
1.0
 40
1.0
 10
118.0010020370312134
 20
179.7793215004523972
 30
0.0
 10
118.0010020370312134
 20
182.7426548337857639
 30
0.0
 10
114.9699353703645386
 20
183.1659881671190533
 30
0.0
 10
111.2276687036978728
 20
183.1659881671190533
 30
0.0
  0
SPLINE
  5
718
100
AcDbEntity
  8
layer 1
 62
256
370
9
 48
1.0
  6
BYLAYER
100
AcDbSpline
 70
8
 71
3
 72
8
 73
4
 74
0
 40
0.0
 40
0.0
 40
0.0
 40
0.0
 40
1.0
 40
1.0
 40
1.0
 40
1.0
 10
54.0010020370312205
 20
243.7793215004523972
 30
0.0
 10
54.0010020370312205
 20
246.7426548337857639
 30
0.0
 10
50.9699353703645457
 20
247.1659881671190533
 30
0.0
 10
47.2276687036978871
 20
247.1659881671190533
 30
0.0
  0
SPLINE
  5
719
100
AcDbEntity
  8
layer 1
 62
256
370
9
 48
1.0
  6
BYLAYER
100
AcDbSpline
 70
8
 71
3
 72
8
 73
4
 74
0
 40
0.0
 40
0.0
 40
0.0
 40
0.0
 40
1.0
 40
1.0
 40
1.0
 40
1.0
 10
118.0010020370312134
 20
243.7793215004523972
 30
0.0
 10
118.0010020370312134
 20
246.7426548337857639
 30
0.0
 10
114.9699353703645386
 20
247.1659881671190533
 30
0.0
 10
111.2276687036978728
 20
247.1659881671190533
 30
0.0
  0
SPLINE
  5
71A
100
AcDbEntity
  8
layer 1
 62
256
370
9
 48
1.0
  6
BYLAYER
100
AcDbSpline
 70
8
 71
3
 72
8
 73
4
 74
0
 40
0.0
 40
0.0
 40
0.0
 40
0.0
 40
1.0
 40
1.0
 40
1.0
 40
1.0
 10
47.2276687036978728
 20
55.1659881671190533
 30
0.0
 10
43.4854020370311929
 20
55.1659881671190533
 30
0.0
 10
40.4543353703645252
 20
54.7426548337857497
 30
0.0
 10
40.4543353703645252
 20
51.7793215004524114
 30
0.0
  0
SPLINE
  5
71B
100
AcDbEntity
  8
layer 1
 62
256
370
9
 48
1.0
  6
BYLAYER
100
AcDbSpline
 70
8
 71
3
 72
8
 73
4
 74
0
 40
0.0
 40
0.0
 40
0.0
 40
0.0
 40
1.0
 40
1.0
 40
1.0
 40
1.0
 10
111.2276687036978728
 20
55.1659881671190533
 30
0.0
 10
107.4854020370311929
 20
55.1659881671190533
 30
0.0
 10
104.4543353703645323
 20
54.7426548337857497
 30
0.0
 10
104.4543353703645323
 20
51.7793215004524114
 30
0.0
  0
SPLINE
  5
71C
100
AcDbEntity
  8
layer 1
 62
256
370
9
 48
1.0
  6
BYLAYER
100
AcDbSpline
 70
8
 71
3
 72
8
 73
4
 74
0
 40
0.0
 40
0.0
 40
0.0
 40
0.0
 40
1.0
 40
1.0
 40
1.0
 40
1.0
 10
47.2276687036978799
 20
119.1659881671190533
 30
0.0
 10
43.4854020370312
 20
119.1659881671190533
 30
0.0
 10
40.4543353703645323
 20
118.7426548337857497
 30
0.0
 10
40.4543353703645323
 20
115.7793215004524114
 30
0.0
  0
SPLINE
  5
71D
100
AcDbEntity
  8
layer 1
 62
256
370
9
 48
1.0
  6
BYLAYER
100
AcDbSpline
 70
8
 71
3
 72
8
 73
4
 74
0
 40
0.0
 40
0.0
 40
0.0
 40
0.0
 40
1.0
 40
1.0
 40
1.0
 40
1.0
 10
111.2276687036978728
 20
119.1659881671190533
 30
0.0
 10
107.4854020370312071
 20
119.1659881671190533
 30
0.0
 10
104.4543353703645323
 20
118.7426548337857497
 30
0.0
 10
104.4543353703645323
 20
115.7793215004524114
 30
0.0
  0
SPLINE
  5
71E
100
AcDbEntity
  8
layer 1
 62
256
370
9
 48
1.0
  6
BYLAYER
100
AcDbSpline
 70
8
 71
3
 72
8
 73
4
 74
0
 40
0.0
 40
0.0
 40
0.0
 40
0.0
 40
1.0
 40
1.0
 40
1.0
 40
1.0
 10
47.2276687036978799
 20
183.1659881671190533
 30
0.0
 10
43.4854020370312
 20
183.1659881671190533
 30
0.0
 10
40.4543353703645323
 20
182.7426548337857639
 30
0.0
 10
40.4543353703645323
 20
179.7793215004523972
 30
0.0
  0
SPLINE
  5
71F
100
AcDbEntity
  8
layer 1
 62
256
370
9
 48
1.0
  6
BYLAYER
100
AcDbSpline
 70
8
 71
3
 72
8
 73
4
 74
0
 40
0.0
 40
0.0
 40
0.0
 40
0.0
 40
1.0
 40
1.0
 40
1.0
 40
1.0
 10
111.2276687036978728
 20
183.1659881671190533
 30
0.0
 10
107.4854020370312071
 20
183.1659881671190533
 30
0.0
 10
104.4543353703645323
 20
182.7426548337857639
 30
0.0
 10
104.4543353703645323
 20
179.7793215004523972
 30
0.0
  0
SPLINE
  5
720
100
AcDbEntity
  8
layer 1
 62
256
370
9
 48
1.0
  6
BYLAYER
100
AcDbSpline
 70
8
 71
3
 72
8
 73
4
 74
0
 40
0.0
 40
0.0
 40
0.0
 40
0.0
 40
1.0
 40
1.0
 40
1.0
 40
1.0
 10
47.2276687036978871
 20
247.1659881671190533
 30
0.0
 10
43.4854020370312071
 20
247.1659881671190533
 30
0.0
 10
40.4543353703645394
 20
246.7426548337857639
 30
0.0
 10
40.4543353703645394
 20
243.7793215004523972
 30
0.0
  0
SPLINE
  5
721
100
AcDbEntity
  8
layer 1
 62
256
370
9
 48
1.0
  6
BYLAYER
100
AcDbSpline
 70
8
 71
3
 72
8
 73
4
 74
0
 40
0.0
 40
0.0
 40
0.0
 40
0.0
 40
1.0
 40
1.0
 40
1.0
 40
1.0
 10
111.2276687036978728
 20
247.1659881671190533
 30
0.0
 10
107.4854020370312071
 20
247.1659881671190533
 30
0.0
 10
104.4543353703645323
 20
246.7426548337857639
 30
0.0
 10
104.4543353703645323
 20
243.7793215004523972
 30
0.0
  0
LINE
  5
722
100
AcDbEntity
  8
layer 1
 62
256
370
9
 48
1.0
  6
BYLAYER
100
AcDbLine
 10
40.4543353703645252
 20
51.7793215004524114
 30
0.0
 11
40.4543353703645252
 21
43.3126548337857429
 31
0.0
  0
LINE
  5
723
100
AcDbEntity
  8
layer 1
 62
256
370
9
 48
1.0
  6
BYLAYER
100
AcDbLine
 10
104.4543353703645323
 20
51.7793215004524114
 30
0.0
 11
104.4543353703645323
 21
43.3126548337857429
 31
0.0
  0
LINE
  5
724
100
AcDbEntity
  8
layer 1
 62
256
370
9
 48
1.0
  6
BYLAYER
100
AcDbLine
 10
40.4543353703645323
 20
115.7793215004524114
 30
0.0
 11
40.4543353703645323
 21
107.3126548337857429
 31
0.0
  0
LINE
  5
725
100
AcDbEntity
  8
layer 1
 62
256
370
9
 48
1.0
  6
BYLAYER
100
AcDbLine
 10
104.4543353703645323
 20
115.7793215004524114
 30
0.0
 11
104.4543353703645323
 21
107.3126548337857429
 31
0.0
  0
LINE
  5
726
100
AcDbEntity
  8
layer 1
 62
256
370
9
 48
1.0
  6
BYLAYER
100
AcDbLine
 10
40.4543353703645323
 20
179.7793215004523972
 30
0.0
 11
40.4543353703645323
 21
171.3126548337857571
 31
0.0
  0
LINE
  5
727
100
AcDbEntity
  8
layer 1
 62
256
370
9
 48
1.0
  6
BYLAYER
100
AcDbLine
 10
104.4543353703645323
 20
179.7793215004523972
 30
0.0
 11
104.4543353703645323
 21
171.3126548337857571
 31
0.0
  0
LINE
  5
728
100
AcDbEntity
  8
layer 1
 62
256
370
9
 48
1.0
  6
BYLAYER
100
AcDbLine
 10
40.4543353703645394
 20
243.7793215004523972
 30
0.0
 11
40.4543353703645394
 21
235.3126548337857571
 31
0.0
  0
LINE
  5
729
100
AcDbEntity
  8
layer 1
 62
256
370
9
 48
1.0
  6
BYLAYER
100
AcDbLine
 10
104.4543353703645323
 20
243.7793215004523972
 30
0.0
 11
104.4543353703645323
 21
235.3126548337857571
 31
0.0
  0
LINE
  5
72A
100
AcDbEntity
  8
layer 1
 62
256
370
9
 48
1.0
  6
BYLAYER
100
AcDbLine
 10
52.3076687036978569
 20
51.7793215004524114
 30
0.0
 11
52.3076687036978569
 21
47.5459881671190772
 31
0.0
  0
LINE
  5
72B
100
AcDbEntity
  8
layer 1
 62
256
370
9
 48
1.0
  6
BYLAYER
100
AcDbLine
 10
116.3076687036978569
 20
51.7793215004524114
 30
0.0
 11
116.3076687036978569
 21
47.5459881671190772
 31
0.0
  0
LINE
  5
72C
100
AcDbEntity
  8
layer 1
 62
256
370
9
 48
1.0
  6
BYLAYER
100
AcDbLine
 10
52.307668703697864
 20
115.7793215004524114
 30
0.0
 11
52.307668703697864
 21
111.5459881671190772
 31
0.0
  0
LINE
  5
72D
100
AcDbEntity
  8
layer 1
 62
256
370
9
 48
1.0
  6
BYLAYER
100
AcDbLine
 10
116.3076687036978569
 20
115.7793215004524114
 30
0.0
 11
116.3076687036978569
 21
111.5459881671190772
 31
0.0
  0
LINE
  5
72E
100
AcDbEntity
  8
layer 1
 62
256
370
9
 48
1.0
  6
BYLAYER
100
AcDbLine
 10
52.307668703697864
 20
179.7793215004523972
 30
0.0
 11
52.307668703697864
 21
175.5459881671190772
 31
0.0
  0
LINE
  5
72F
100
AcDbEntity
  8
layer 1
 62
256
370
9
 48
1.0
  6
BYLAYER
100
AcDbLine
 10
116.3076687036978569
 20
179.7793215004523972
 30
0.0
 11
116.3076687036978569
 21
175.5459881671190772
 31
0.0
  0
LINE
  5
730
100
AcDbEntity
  8
layer 1
 62
256
370
9
 48
1.0
  6
BYLAYER
100
AcDbLine
 10
52.3076687036978711
 20
243.7793215004523972
 30
0.0
 11
52.3076687036978711
 21
239.5459881671190772
 31
0.0
  0
LINE
  5
731
100
AcDbEntity
  8
layer 1
 62
256
370
9
 48
1.0
  6
BYLAYER
100
AcDbLine
 10
116.3076687036978569
 20
243.7793215004523972
 30
0.0
 11
116.3076687036978569
 21
239.5459881671190772
 31
0.0
  0
ENDSEC
  0
SECTION
  2
OBJECTS
  0
DICTIONARY
  5
C
100
AcDbDictionary
280
0
281
1
  3
ACAD_GROUP
350
D
  3
ACAD_LAYOUT
350
1A
  3
ACAD_MLINESTYLE
350
17
  3
ACAD_PLOTSETTINGS
350
19
  3
ACAD_PLOTSTYLENAME
350
E
  3
AcDbVariableDictionary
350
732
  3
QCAD_OBJECTS
350
733
  0
DICTIONARY
  5
D
100
AcDbDictionary
280
0
281
1
  0
ACDBDICTIONARYWDFLT
  5
E
100
AcDbDictionary
281
1
  3
Normal
350
F
100
AcDbDictionaryWithDefault
340
F
  0
ACDBPLACEHOLDER
  5
F
  0
DICTIONARY
  5
17
100
AcDbDictionary
280
0
281
1
  3
Standard
350
18
  0
MLINESTYLE
  5
18
100
AcDbMlineStyle
  2
STANDARD
 70
0
  3

 62
256
 51
90.0
 52
90.0
 71
2
 49
0.5
 62
256
  6
BYLAYER
 49
-0.5
 62
256
  6
BYLAYER
  0
DICTIONARY
  5
19
100
AcDbDictionary
280
0
281
1
  0
DICTIONARY
  5
1A
100
AcDbDictionary
281
1
  3
Layout1
350
1E
  3
Layout2
350
26
  3
Model
350
22
  0
LAYOUT
  5
1E
100
AcDbPlotSettings
  1

  2
none_device
  4

  6

 40
0.0
 41
0.0
 42
0.0
 43
0.0
 44
0.0
 45
0.0
 46
0.0
 47
0.0
 48
0.0
 49
0.0
140
0.0
141
0.0
142
1.0
143
1.0
 70
688
 72
0
 73
0
 74
5
  7

 75
16
147
1.0
148
0.0
149
0.0
100
AcDbLayout
  1
Layout1
 70
1
 71
1
 10
0.0
 20
0.0
 11
420.0
 21
297.0
 12
0.0
 22
0.0
 32
0.0
 14
100000000000000000000.0
 24
100000000000000000000.0
 34
100000000000000000000.0
 15
-100000000000000000000.0
 25
-100000000000000000000.0
 35
-100000000000000000000.0
146
0.0
 13
0.0
 23
0.0
 33
0.0
 16
1.0
 26
0.0
 36
0.0
 17
0.0
 27
1.0
 37
0.0
 76
0
330
1B
  0
LAYOUT
  5
22
100
AcDbPlotSettings
  1

  2
none_device
  4

  6

 40
0.0
 41
0.0
 42
0.0
 43
0.0
 44
0.0
 45
0.0
 46
0.0
 47
0.0
 48
0.0
 49
0.0
140
0.0
141
0.0
142
1.0
143
1.0
 70
1712
 72
0
 73
0
 74
0
  7

 75
0
147
1.0
148
0.0
149
0.0
100
AcDbLayout
  1
Model
 70
1
 71
0
 10
0.0
 20
0.0
 11
12.0
 21
9.0
 12
0.0
 22
0.0
 32
0.0
 14
0.0
 24
0.0
 34
0.0
 15
0.0
 25
0.0
 35
0.0
146
0.0
 13
0.0
 23
0.0
 33
0.0
 16
1.0
 26
0.0
 36
0.0
 17
0.0
 27
1.0
 37
0.0
 76
0
330
1F
  0
LAYOUT
  5
26
100
AcDbPlotSettings
  1

  2
none_device
  4

  6

 40
0.0
 41
0.0
 42
0.0
 43
0.0
 44
0.0
 45
0.0
 46
0.0
 47
0.0
 48
0.0
 49
0.0
140
0.0
141
0.0
142
1.0
143
1.0
 70
688
 72
0
 73
0
 74
5
  7

 75
16
147
1.0
148
0.0
149
0.0
100
AcDbLayout
  1
Layout2
 70
1
 71
2
 10
0.0
 20
0.0
 11
12.0
 21
9.0
 12
0.0
 22
0.0
 32
0.0
 14
0.0
 24
0.0
 34
0.0
 15
0.0
 25
0.0
 35
0.0
146
0.0
 13
0.0
 23
0.0
 33
0.0
 16
1.0
 26
0.0
 36
0.0
 17
0.0
 27
1.0
 37
0.0
 76
0
330
23
  0
DICTIONARY
  5
732
100
AcDbDictionary
281
1
  3
DIMASSOC
350
735
  3
HIDETEXT
350
734
  0
DICTIONARYVAR
  5
734
100
DictionaryVariables
280
0
  1
2
  0
DICTIONARYVAR
  5
735
100
DictionaryVariables
280
0
  1
1
  0
DICTIONARY
  5
733
100
AcDbDictionary
281
1
  3
ColorSettings/BackgroundColor
350
736
  3
ColorSettings/ColorMode
350
737
  3
Grid/DisplayGrid00
350
738
  3
Grid/DisplayGrid01
350
739
  3
Grid/DisplayGrid02
350
73A
  3
Grid/DisplayGrid03
350
73B
  3
Grid/GridSpacingX00
350
73C
  3
Grid/GridSpacingX01
350
73D
  3
Grid/GridSpacingX02
350
73E
  3
Grid/GridSpacingX03
350
73F
  3
Grid/GridSpacingY00
350
740
  3
Grid/GridSpacingY01
350
741
  3
Grid/GridSpacingY02
350
742
  3
Grid/GridSpacingY03
350
743
  3
Grid/IsometricGrid00
350
744
  3
Grid/IsometricGrid01
350
745
  3
Grid/IsometricGrid02
350
746
  3
Grid/IsometricGrid03
350
747
  3
Grid/IsometricProjection00
350
748
  3
Grid/IsometricProjection01
350
749
  3
Grid/IsometricProjection02
350
74A
  3
Grid/IsometricProjection03
350
74B
  3
Grid/MetaGridSpacingX00
350
74C
  3
Grid/MetaGridSpacingX01
350
74D
  3
Grid/MetaGridSpacingX02
350
74E
  3
Grid/MetaGridSpacingX03
350
74F
  3
Grid/MetaGridSpacingY00
350
750
  3
Grid/MetaGridSpacingY01
350
751
  3
Grid/MetaGridSpacingY02
350
752
  3
Grid/MetaGridSpacingY03
350
753
  3
MultiPageSettings/Columns
350
754
  3
MultiPageSettings/GlueMarginsBottom
350
755
  3
MultiPageSettings/GlueMarginsLeft
350
756
  3
MultiPageSettings/GlueMarginsRight
350
757
  3
MultiPageSettings/GlueMarginsTop
350
758
  3
MultiPageSettings/PrintCropMarks
350
759
  3
MultiPageSettings/Rows
350
75A
  3
PageSettings/OffsetX
350
75B
  3
PageSettings/OffsetY
350
75C
  3
PageSettings/PageOrientation
350
75D
  3
PageSettings/PaperHeight
350
75E
  3
PageSettings/PaperWidth
350
75F
  3
PageSettings/Scale
350
760
  3
PageSettings/ShowPaperBorders
350
761
  3
QCADVersion
350
762
  3
UnitSettings/PaperUnit
350
763
  3
ViewportCenter
350
764
  3
ViewportHeight
350
765
  3
ViewportWidth
350
766
  0
XRECORD
  5
736
330
733
100
AcDbXrecord
280
1
1000
Blanc
  0
XRECORD
  5
737
330
733
100
AcDbXrecord
280
1
1000
FullColor
  0
XRECORD
  5
738
330
733
100
AcDbXrecord
280
1
290
1
  0
XRECORD
  5
739
330
733
100
AcDbXrecord
280
1
290
1
  0
XRECORD
  5
73A
330
733
100
AcDbXrecord
280
1
290
1
  0
XRECORD
  5
73B
330
733
100
AcDbXrecord
280
1
290
1
  0
XRECORD
  5
73C
330
733
100
AcDbXrecord
280
1
1000
auto
  0
XRECORD
  5
73D
330
733
100
AcDbXrecord
280
1
1000
auto
  0
XRECORD
  5
73E
330
733
100
AcDbXrecord
280
1
1000
auto
  0
XRECORD
  5
73F
330
733
100
AcDbXrecord
280
1
1000
auto
  0
XRECORD
  5
740
330
733
100
AcDbXrecord
280
1
1000
auto
  0
XRECORD
  5
741
330
733
100
AcDbXrecord
280
1
1000
auto
  0
XRECORD
  5
742
330
733
100
AcDbXrecord
280
1
1000
auto
  0
XRECORD
  5
743
330
733
100
AcDbXrecord
280
1
1000
auto
  0
XRECORD
  5
744
330
733
100
AcDbXrecord
280
1
290
0
  0
XRECORD
  5
745
330
733
100
AcDbXrecord
280
1
290
0
  0
XRECORD
  5
746
330
733
100
AcDbXrecord
280
1
290
0
  0
XRECORD
  5
747
330
733
100
AcDbXrecord
280
1
290
0
  0
XRECORD
  5
748
330
733
100
AcDbXrecord
280
1
 90
65537
  0
XRECORD
  5
749
330
733
100
AcDbXrecord
280
1
 90
65537
  0
XRECORD
  5
74A
330
733
100
AcDbXrecord
280
1
 90
65537
  0
XRECORD
  5
74B
330
733
100
AcDbXrecord
280
1
 90
65537
  0
XRECORD
  5
74C
330
733
100
AcDbXrecord
280
1
1000
auto
  0
XRECORD
  5
74D
330
733
100
AcDbXrecord
280
1
1000
auto
  0
XRECORD
  5
74E
330
733
100
AcDbXrecord
280
1
1000
auto
  0
XRECORD
  5
74F
330
733
100
AcDbXrecord
280
1
1000
auto
  0
XRECORD
  5
750
330
733
100
AcDbXrecord
280
1
1000
auto
  0
XRECORD
  5
751
330
733
100
AcDbXrecord
280
1
1000
auto
  0
XRECORD
  5
752
330
733
100
AcDbXrecord
280
1
1000
auto
  0
XRECORD
  5
753
330
733
100
AcDbXrecord
280
1
1000
auto
  0
XRECORD
  5
754
330
733
100
AcDbXrecord
280
1
 90
1
  0
XRECORD
  5
755
330
733
100
AcDbXrecord
280
1
 40
10.0
  0
XRECORD
  5
756
330
733
100
AcDbXrecord
280
1
 40
10.0
  0
XRECORD
  5
757
330
733
100
AcDbXrecord
280
1
 40
10.0
  0
XRECORD
  5
758
330
733
100
AcDbXrecord
280
1
 40
10.0
  0
XRECORD
  5
759
330
733
100
AcDbXrecord
280
1
290
0
  0
XRECORD
  5
75A
330
733
100
AcDbXrecord
280
1
 90
1
  0
XRECORD
  5
75B
330
733
100
AcDbXrecord
280
1
 40
0.0
  0
XRECORD
  5
75C
330
733
100
AcDbXrecord
280
1
 40
0.0
  0
XRECORD
  5
75D
330
733
100
AcDbXrecord
280
1
1000
Landscape
  0
XRECORD
  5
75E
330
733
100
AcDbXrecord
280
1
 40
297.0
  0
XRECORD
  5
75F
330
733
100
AcDbXrecord
280
1
 40
210.0
  0
XRECORD
  5
760
330
733
100
AcDbXrecord
280
1
1000
1:1
  0
XRECORD
  5
761
330
733
100
AcDbXrecord
280
1
290
1
  0
XRECORD
  5
762
330
733
100
AcDbXrecord
280
1
1000
3.19.2.2
  0
XRECORD
  5
763
330
733
100
AcDbXrecord
280
1
 90
4
  0
XRECORD
  5
765
330
733
100
AcDbXrecord
280
1
 40
275.7396938775509625
  0
XRECORD
  5
766
330
733
100
AcDbXrecord
280
1
 40
472.8201020408162094
  0
ENDSEC
  0
EOF
