999
dxflib 3.17.0.0
  0
SECTION
  2
HEADER
  9
$ACADVER
  1
AC1015
  9
$HANDSEED
  5
FFFF
  9
$DIMADEC
 70
0
  9
$DIMASZ
 40
2.5
  9
$DIMAUNIT
 70
0
  9
$DIMAZIN
 70
2
  9
$DIMDEC
 70
4
  9
$DIMDSEP
 70
46
  9
$DIMEXE
 40
1.25
  9
$DIMEXO
 40
0.625
  9
$DIMGAP
 40
0.625
  9
$DIMLUNIT
 70
2
  9
$DIMSCALE
 40
1.0
  9
$DIMTSZ
 40
0.0
  9
$DIMTXT
 40
2.5
  9
$DIMZIN
 70
8
  9
$DWGCODEPAGE
  3
ANSI_1252
  9
$INSUNITS
 70
4
  9
$LTSCALE
 40
1.0
  9
$MAXACTVP
 70
64
  9
$MEASUREMENT
 70
1
  9
$PDMODE
 70
0
  9
$PDSIZE
 40
0.0
  0
ENDSEC
  0
SECTION
  2
TABLES
  0
TABLE
  2
VPORT
  5
8
100
AcDbSymbolTable
 70
1
  0
VPORT
  5
30
100
AcDbSymbolTableRecord
100
AcDbViewportTableRecord
  2
*Active
 70
0
 10
0.0
 20
0.0
 11
1.0
 21
1.0
 12
286.3055555555554861
 22
148.5
 13
0.0
 23
0.0
 14
10.0
 24
10.0
 15
10.0
 25
10.0
 16
0.0
 26
0.0
 36
1.0
 17
0.0
 27
0.0
 37
0.0
 40
297.0
 41
1.92798353909465
 42
50.0
 43
0.0
 44
0.0
 50
0.0
 51
0.0
 71
0
 72
100
 73
1
 74
3
 75
1
 76
1
 77
0
 78
0
281
0
 65
1
110
0.0
120
0.0
130
0.0
111
1.0
121
0.0
131
0.0
112
0.0
122
1.0
132
0.0
 79
0
146
0.0
  0
ENDTAB
  0
TABLE
  2
LTYPE
  5
5
100
AcDbSymbolTable
 70
41
  0
LTYPE
  5
16
100
AcDbSymbolTableRecord
100
AcDbLinetypeTableRecord
  2
Continuous
 70
0
  3
Solid line
 72
65
 73
0
 40
0.0
  0
LTYPE
  5
31
100
AcDbSymbolTableRecord
100
AcDbLinetypeTableRecord
  2
ACAD_ISO15W100
 70
0
  3
ISO double-dash triple-dot __ __ . . . __ __ . .
 72
65
 73
10
 40
39.0000000000000071
 49
12.0
 74
0
 49
-3.0
 74
0
 49
12.0
 74
0
 49
-2.9500000000000002
 74
0
 49
0.1
 74
0
 49
-2.9000000000000004
 74
0
 49
0.1
 74
0
 49
-2.9000000000000004
 74
0
 49
0.1
 74
0
 49
-2.9500000000000002
 74
0
  0
LTYPE
  5
32
100
AcDbSymbolTableRecord
100
AcDbLinetypeTableRecord
  2
DIVIDE
 70
0
  3
Divide ____ . . ____ . . ____ . . ____ . . ____
 72
65
 73
6
 40
31.7500000000000036
 49
12.6999999999999993
 74
0
 49
-6.2999999999999998
 74
0
 49
0.1
 74
0
 49
-6.25
 74
0
 49
0.1
 74
0
 49
-6.2999999999999998
 74
0
  0
LTYPE
  5
33
100
AcDbSymbolTableRecord
100
AcDbLinetypeTableRecord
  2
ACAD_ISO10W100
 70
0
  3
ISO dash dot __ . __ . __ . __ . __ . __ . __ . 
 72
65
 73
4
 40
18.0
 49
12.0
 74
0
 49
-2.9500000000000002
 74
0
 49
0.1
 74
0
 49
-2.9500000000000002
 74
0
  0
LTYPE
  5
34
100
AcDbSymbolTableRecord
100
AcDbLinetypeTableRecord
  2
ACAD_ISO04W100
 70
0
  3
ISO long-dash dot ____ . ____ . ____ . ____ . _
 72
65
 73
4
 40
30.0
 49
24.0
 74
0
 49
-2.9500000000000002
 74
0
 49
0.1
 74
0
 49
-2.9500000000000002
 74
0
  0
LTYPE
  5
35
100
AcDbSymbolTableRecord
100
AcDbLinetypeTableRecord
  2
CENTER2
 70
0
  3
Center (.5x) ___ _ ___ _ ___ _ ___ _ ___ _ ___
 72
65
 73
4
 40
28.5750000000000028
 49
19.0500000000000007
 74
0
 49
-3.1749999999999998
 74
0
 49
3.1749999999999998
 74
0
 49
-3.1749999999999998
 74
0
  0
LTYPE
  5
36
100
AcDbSymbolTableRecord
100
AcDbLinetypeTableRecord
  2
ACAD_ISO11W100
 70
0
  3
ISO double-dash dot __ __ . __ __ . __ __ . __ _
 72
65
 73
6
 40
33.0
 49
12.0
 74
0
 49
-3.0
 74
0
 49
12.0
 74
0
 49
-2.9500000000000002
 74
0
 49
0.1
 74
0
 49
-2.9500000000000002
 74
0
  0
LTYPE
  5
37
100
AcDbSymbolTableRecord
100
AcDbLinetypeTableRecord
  2
HIDDEN2
 70
0
  3
Hidden (.5x) _ _ _ _ _ _ _ _ _ _ _ _ _ _ _ _ _ 
 72
65
 73
2
 40
4.7624999999999993
 49
3.1749999999999998
 74
0
 49
-1.5874999999999999
 74
0
  0
LTYPE
  5
38
100
AcDbSymbolTableRecord
100
AcDbLinetypeTableRecord
  2
BORDERX2
 70
0
  3
Border (2x) ____  ____  .  ____  ____  .  ___
 72
65
 73
6
 40
88.8999999999999773
 49
25.3999999999999986
 74
0
 49
-12.6999999999999993
 74
0
 49
25.3999999999999986
 74
0
 49
-12.6499999999999986
 74
0
 49
0.1
 74
0
 49
-12.6499999999999986
 74
0
  0
LTYPE
  5
39
100
AcDbSymbolTableRecord
100
AcDbLinetypeTableRecord
  2
ACAD_ISO05W100
 70
0
  3
ISO long-dash double-dot ____ .. ____ .. ____ . 
 72
65
 73
6
 40
33.0000000000000071
 49
24.0
 74
0
 49
-2.9500000000000002
 74
0
 49
0.1
 74
0
 49
-2.9000000000000004
 74
0
 49
0.1
 74
0
 49
-2.9500000000000002
 74
0
  0
LTYPE
  5
3A
100
AcDbSymbolTableRecord
100
AcDbLinetypeTableRecord
  2
DASHDOTX2
 70
0
  3
Dash dot (2x) ____  .  ____  .  ____  .  ___
 72
65
 73
4
 40
50.7999999999999972
 49
25.3999999999999986
 74
0
 49
-12.6499999999999986
 74
0
 49
0.1
 74
0
 49
-12.6499999999999986
 74
0
  0
LTYPE
  5
3B
100
AcDbSymbolTableRecord
100
AcDbLinetypeTableRecord
  2
HIDDENX2
 70
0
  3
Hidden (2x) ____ ____ ____ ____ ____ ____ ____ 
 72
65
 73
2
 40
19.0499999999999972
 49
12.6999999999999993
 74
0
 49
-6.3499999999999996
 74
0
  0
LTYPE
  5
3C
100
AcDbSymbolTableRecord
100
AcDbLinetypeTableRecord
  2
CENTERX2
 70
0
  3
Center (2x) ________  __  ________  __  _____
 72
65
 73
4
 40
101.6000000000000085
 49
63.5
 74
0
 49
-12.6999999999999993
 74
0
 49
12.6999999999999993
 74
0
 49
-12.6999999999999993
 74
0
  0
LTYPE
  5
3D
100
AcDbSymbolTableRecord
100
AcDbLinetypeTableRecord
  2
BORDER2
 70
0
  3
Border (.5x) __.__.__.__.__.__.__.__.__.__.__.
 72
65
 73
6
 40
22.2250000000000014
 49
6.3499999999999996
 74
0
 49
-3.1749999999999998
 74
0
 49
6.3499999999999996
 74
0
 49
-3.125
 74
0
 49
0.1
 74
0
 49
-3.125
 74
0
  0
LTYPE
  5
3E
100
AcDbSymbolTableRecord
100
AcDbLinetypeTableRecord
  2
DASHDOT2
 70
0
  3
Dash dot (.5x) _._._._._._._._._._._._._._._.
 72
65
 73
4
 40
12.6999999999999993
 49
6.3499999999999996
 74
0
 49
-3.125
 74
0
 49
0.1
 74
0
 49
-3.125
 74
0
  0
LTYPE
  5
3F
100
AcDbSymbolTableRecord
100
AcDbLinetypeTableRecord
  2
ACAD_ISO12W100
 70
0
  3
ISO dash double-dot __ . . __ . . __ . . __ . . 
 72
65
 73
6
 40
21.0
 49
12.0
 74
0
 49
-2.9500000000000002
 74
0
 49
0.1
 74
0
 49
-2.9000000000000004
 74
0
 49
0.1
 74
0
 49
-2.9500000000000002
 74
0
  0
LTYPE
  5
40
100
AcDbSymbolTableRecord
100
AcDbLinetypeTableRecord
  2
ACAD_ISO07W100
 70
0
  3
ISO dot . . . . . . . . . . . . . . . . . . . . 
 72
65
 73
2
 40
3.0
 49
0.1
 74
0
 49
-2.8999999999999999
 74
0
  0
LTYPE
  5
41
100
AcDbSymbolTableRecord
100
AcDbLinetypeTableRecord
  2
HIDDEN
 70
0
  3
Hidden __ __ __ __ __ __ __ __ __ __ __ __ __ __
 72
65
 73
2
 40
9.5249999999999986
 49
6.3499999999999996
 74
0
 49
-3.1749999999999998
 74
0
  0
LTYPE
  5
42
100
AcDbSymbolTableRecord
100
AcDbLinetypeTableRecord
  2
ACAD_ISO06W100
 70
0
  3
ISO long-dash triple-dot ____ ... ____ ... ____
 72
65
 73
8
 40
36.0000000000000071
 49
24.0
 74
0
 49
-2.9500000000000002
 74
0
 49
0.1
 74
0
 49
-2.9000000000000004
 74
0
 49
0.1
 74
0
 49
-2.9000000000000004
 74
0
 49
0.1
 74
0
 49
-2.9500000000000002
 74
0
  0
LTYPE
  5
43
100
AcDbSymbolTableRecord
100
AcDbLinetypeTableRecord
  2
CENTER
 70
0
  3
Center ____ _ ____ _ ____ _ ____ _ ____ _ ____
 72
65
 73
4
 40
50.8000000000000043
 49
31.75
 74
0
 49
-6.3499999999999996
 74
0
 49
6.3499999999999996
 74
0
 49
-6.3499999999999996
 74
0
  0
LTYPE
  5
44
100
AcDbSymbolTableRecord
100
AcDbLinetypeTableRecord
  2
DOTX2
 70
0
  3
Dot (2x) .  .  .  .  .  .  .  .  .  .  .  .  .  .
 72
65
 73
2
 40
12.6999999999999993
 49
0.1
 74
0
 49
-12.5999999999999996
 74
0
  0
LTYPE
  5
45
100
AcDbSymbolTableRecord
100
AcDbLinetypeTableRecord
  2
PHANTOM
 70
0
  3
Phantom ______  __  __  ______  __  __  ______ 
 72
65
 73
6
 40
63.5000000000000071
 49
31.75
 74
0
 49
-6.3499999999999996
 74
0
 49
6.3499999999999996
 74
0
 49
-6.3499999999999996
 74
0
 49
6.3499999999999996
 74
0
 49
-6.3499999999999996
 74
0
  0
LTYPE
  5
46
100
AcDbSymbolTableRecord
100
AcDbLinetypeTableRecord
  2
ACAD_ISO08W100
 70
0
  3
ISO long-dash short-dash ____ __ ____ __ ____ _
 72
65
 73
4
 40
36.0
 49
24.0
 74
0
 49
-3.0
 74
0
 49
6.0
 74
0
 49
-3.0
 74
0
  0
LTYPE
  5
47
100
AcDbSymbolTableRecord
100
AcDbLinetypeTableRecord
  2
DASHEDX2
 70
0
  3
Dashed (2x) ____  ____  ____  ____  ____  ___
 72
65
 73
2
 40
38.0999999999999943
 49
25.3999999999999986
 74
0
 49
-12.6999999999999993
 74
0
  0
LTYPE
  5
48
100
AcDbSymbolTableRecord
100
AcDbLinetypeTableRecord
  2
ACAD_ISO02W100
 70
0
  3
ISO dash __ __ __ __ __ __ __ __ __ __ __ __ __
 72
65
 73
2
 40
15.0
 49
12.0
 74
0
 49
-3.0
 74
0
  0
LTYPE
  5
49
100
AcDbSymbolTableRecord
100
AcDbLinetypeTableRecord
  2
PHANTOM2
 70
0
  3
Phantom (.5x) ___ _ _ ___ _ _ ___ _ _ ___ _ _
 72
65
 73
6
 40
31.7500000000000036
 49
15.875
 74
0
 49
-3.1749999999999998
 74
0
 49
3.1749999999999998
 74
0
 49
-3.1749999999999998
 74
0
 49
3.1749999999999998
 74
0
 49
-3.1749999999999998
 74
0
  0
LTYPE
  5
4A
100
AcDbSymbolTableRecord
100
AcDbLinetypeTableRecord
  2
DASHED2
 70
0
  3
Dashed (.5x) _ _ _ _ _ _ _ _ _ _ _ _ _ _ _ _ _ 
 72
65
 73
2
 40
9.5249999999999986
 49
6.3499999999999996
 74
0
 49
-3.1749999999999998
 74
0
  0
LTYPE
  5
4B
100
AcDbSymbolTableRecord
100
AcDbLinetypeTableRecord
  2
ACAD_ISO09W100
 70
0
  3
ISO long-dash double-short-dash ____ __ __ ____
 72
65
 73
6
 40
45.0
 49
24.0
 74
0
 49
-3.0
 74
0
 49
6.0
 74
0
 49
-3.0
 74
0
 49
6.0
 74
0
 49
-3.0
 74
0
  0
LTYPE
  5
4C
100
AcDbSymbolTableRecord
100
AcDbLinetypeTableRecord
  2
ACAD_ISO13W100
 70
0
  3
ISO double-dash double-dot __ __ . . __ __ . . _
 72
65
 73
8
 40
36.0000000000000071
 49
12.0
 74
0
 49
-3.0
 74
0
 49
12.0
 74
0
 49
-2.9500000000000002
 74
0
 49
0.1
 74
0
 49
-2.9000000000000004
 74
0
 49
0.1
 74
0
 49
-2.9500000000000002
 74
0
  0
LTYPE
  5
4D
100
AcDbSymbolTableRecord
100
AcDbLinetypeTableRecord
  2
DOT2
 70
0
  3
Dot (.5x) ........................................
 72
65
 73
2
 40
3.1749999999999998
 49
0.1
 74
0
 49
-3.0749999999999997
 74
0
  0
LTYPE
  5
4E
100
AcDbSymbolTableRecord
100
AcDbLinetypeTableRecord
  2
DASHED
 70
0
  3
Dashed __ __ __ __ __ __ __ __ __ __ __ __ __ _
 72
65
 73
2
 40
19.0499999999999972
 49
12.6999999999999993
 74
0
 49
-6.3499999999999996
 74
0
  0
LTYPE
  5
4F
100
AcDbSymbolTableRecord
100
AcDbLinetypeTableRecord
  2
ACAD_ISO14W100
 70
0
  3
ISO dash triple-dot __ . . . __ . . . __ . . . _
 72
65
 73
8
 40
24.0000000000000036
 49
12.0
 74
0
 49
-2.9500000000000002
 74
0
 49
0.1
 74
0
 49
-2.9000000000000004
 74
0
 49
0.1
 74
0
 49
-2.9000000000000004
 74
0
 49
0.1
 74
0
 49
-2.9500000000000002
 74
0
  0
LTYPE
  5
15
100
AcDbSymbolTableRecord
100
AcDbLinetypeTableRecord
  2
BYLAYER
 70
0
  3

 72
65
 73
0
 40
0.0
  0
LTYPE
  5
50
100
AcDbSymbolTableRecord
100
AcDbLinetypeTableRecord
  2
PHANTOMX2
 70
0
  3
Phantom (2x) ____________    ____    ____   _
 72
65
 73
6
 40
127.0000000000000142
 49
63.5
 74
0
 49
-12.6999999999999993
 74
0
 49
12.6999999999999993
 74
0
 49
-12.6999999999999993
 74
0
 49
12.6999999999999993
 74
0
 49
-12.6999999999999993
 74
0
  0
LTYPE
  5
14
100
AcDbSymbolTableRecord
100
AcDbLinetypeTableRecord
  2
BYBLOCK
 70
0
  3

 72
65
 73
0
 40
0.0
  0
LTYPE
  5
51
100
AcDbSymbolTableRecord
100
AcDbLinetypeTableRecord
  2
DIVIDEX2
 70
0
  3
Divide (2x) ________  .  .  ________  .  .  _
 72
65
 73
6
 40
63.5
 49
25.3999999999999986
 74
0
 49
-12.6499999999999986
 74
0
 49
0.1
 74
0
 49
-12.5999999999999979
 74
0
 49
0.1
 74
0
 49
-12.6499999999999986
 74
0
  0
LTYPE
  5
52
100
AcDbSymbolTableRecord
100
AcDbLinetypeTableRecord
  2
BORDER
 70
0
  3
Border __ __ . __ __ . __ __ . __ __ . __ __ .
 72
65
 73
6
 40
44.4499999999999957
 49
12.6999999999999993
 74
0
 49
-6.3499999999999996
 74
0
 49
12.6999999999999993
 74
0
 49
-6.2999999999999998
 74
0
 49
0.1
 74
0
 49
-6.2999999999999998
 74
0
  0
LTYPE
  5
53
100
AcDbSymbolTableRecord
100
AcDbLinetypeTableRecord
  2
DIVIDE2
 70
0
  3
Divide (.5x) __..__..__..__..__..__..__..__.._
 72
65
 73
6
 40
15.8749999999999982
 49
6.3499999999999996
 74
0
 49
-3.125
 74
0
 49
0.1
 74
0
 49
-3.0750000000000002
 74
0
 49
0.1
 74
0
 49
-3.125
 74
0
  0
LTYPE
  5
54
100
AcDbSymbolTableRecord
100
AcDbLinetypeTableRecord
  2
DOT
 70
0
  3
Dot . . . . . . . . . . . . . . . . . . . . . . . .
 72
65
 73
2
 40
6.3499999999999996
 49
0.1
 74
0
 49
-6.25
 74
0
  0
LTYPE
  5
55
100
AcDbSymbolTableRecord
100
AcDbLinetypeTableRecord
  2
DASHDOT
 70
0
  3
Dash dot __ . __ . __ . __ . __ . __ . __ . __
 72
65
 73
4
 40
25.4000000000000021
 49
12.6999999999999993
 74
0
 49
-6.2999999999999998
 74
0
 49
0.1
 74
0
 49
-6.2999999999999998
 74
0
  0
LTYPE
  5
56
100
AcDbSymbolTableRecord
100
AcDbLinetypeTableRecord
  2
ACAD_ISO03W100
 70
0
  3
ISO dash space __    __    __    __    __    __
 72
65
 73
2
 40
30.0
 49
12.0
 74
0
 49
-18.0
 74
0
  0
ENDTAB
  0
TABLE
  2
LAYER
  5
2
100
AcDbSymbolTable
 70
4
  0
LAYER
  5
57
100
AcDbSymbolTableRecord
100
AcDbLayerTableRecord
  2
construction
 70
1
 62
1
420
16711680
  6
Continuous
370
25
390
F
  0
LAYER
  5
58
100
AcDbSymbolTableRecord
100
AcDbLayerTableRecord
  2
icons
 70
0
 62
7
420
0
  6
Continuous
370
25
390
F
  0
LAYER
  5
10
100
AcDbSymbolTableRecord
100
AcDbLayerTableRecord
  2
0
 70
0
 62
7
420
16777215
  6
Continuous
370
25
390
F
  0
LAYER
  5
59
100
AcDbSymbolTableRecord
100
AcDbLayerTableRecord
  2
text
 70
0
 62
7
420
0
  6
Continuous
370
25
390
F
  0
ENDTAB
  0
TABLE
  2
STYLE
  5
3
100
AcDbSymbolTable
 70
9
  0
STYLE
  5
5A
100
AcDbSymbolTableRecord
100
AcDbTextStyleTableRecord
  2
Standard
 70
0
 40
0.0
 41
1.0
 50
0.0
 71
0
 42
2.5
  3

  4

1001
ACAD
1000
txt
1071
0
  0
STYLE
  5
5B
100
AcDbSymbolTableRecord
100
AcDbTextStyleTableRecord
  2
textstyle0
 70
0
 40
0.0
 41
1.0
 50
0.0
 71
0
 42
5.0
  3

  4

1001
ACAD
1000
Arial
1071
0
  0
STYLE
  5
5C
100
AcDbSymbolTableRecord
100
AcDbTextStyleTableRecord
  2
textstyle1
 70
0
 40
0.0
 41
1.0
 50
0.0
 71
0
 42
5.0
  3

  4

1001
ACAD
1000
Arial
1071
0
  0
STYLE
  5
5D
100
AcDbSymbolTableRecord
100
AcDbTextStyleTableRecord
  2
textstyle2
 70
0
 40
0.0
 41
1.0
 50
0.0
 71
0
 42
5.0
  3

  4

1001
ACAD
1000
Arial
1071
0
  0
STYLE
  5
5E
100
AcDbSymbolTableRecord
100
AcDbTextStyleTableRecord
  2
textstyle3
 70
0
 40
0.0
 41
1.0
 50
0.0
 71
0
 42
5.0
  3

  4

1001
ACAD
1000
Arial
1071
0
  0
STYLE
  5
5F
100
AcDbSymbolTableRecord
100
AcDbTextStyleTableRecord
  2
textstyle4
 70
0
 40
0.0
 41
1.0
 50
0.0
 71
0
 42
1.6000000000000001
  3

  4

1001
ACAD
1000
Arial
1071
0
  0
STYLE
  5
60
100
AcDbSymbolTableRecord
100
AcDbTextStyleTableRecord
  2
textstyle5
 70
0
 40
0.0
 41
1.0
 50
0.0
 71
0
 42
1.6000000000000001
  3

  4

1001
ACAD
1000
Arial
1071
0
  0
STYLE
  5
61
100
AcDbSymbolTableRecord
100
AcDbTextStyleTableRecord
  2
textstyle6
 70
0
 40
0.0
 41
1.0
 50
0.0
 71
0
 42
1.6000000000000001
  3

  4

1001
ACAD
1000
Arial
1071
0
  0
STYLE
  5
62
100
AcDbSymbolTableRecord
100
AcDbTextStyleTableRecord
  2
textstyle7
 70
0
 40
0.0
 41
1.0
 50
0.0
 71
0
 42
1.6000000000000001
  3

  4

1001
ACAD
1000
Arial
1071
0
  0
ENDTAB
  0
TABLE
  2
VIEW
  5
6
100
AcDbSymbolTable
 70
0
  0
ENDTAB
  0
TABLE
  2
UCS
  5
7
100
AcDbSymbolTable
 70
0
  0
ENDTAB
  0
TABLE
  2
APPID
  5
9
100
AcDbSymbolTable
 70
1
  0
APPID
  5
12
100
AcDbSymbolTableRecord
100
AcDbRegAppTableRecord
  2
ACAD
 70
0
  0
APPID
  5
63
100
AcDbSymbolTableRecord
100
AcDbRegAppTableRecord
  2
QCAD
 70
0
  0
ENDTAB
  0
TABLE
  2
DIMSTYLE
  5
A
100
AcDbSymbolTable
 70
1
100
AcDbDimStyleTable
 71
0
  0
DIMSTYLE
105
27
100
AcDbSymbolTableRecord
100
AcDbDimStyleTableRecord
  2
Standard
 41
2.5
 42
0.625
 43
3.75
 44
1.25
 70
0
 73
0
 74
0
 77
1
 78
8
140
2.5
141
2.5
143
0.03937007874016
147
0.625
171
3
172
1
271
2
272
2
274
3
278
44
283
0
284
8
340
5A
  0
ENDTAB
  0
TABLE
  2
BLOCK_RECORD
  5
1
100
AcDbSymbolTable
 70
1
  0
BLOCK_RECORD
  5
1F
100
AcDbSymbolTableRecord
100
AcDbBlockTableRecord
  2
*Model_Space
340
22
  0
BLOCK_RECORD
  5
1B
100
AcDbSymbolTableRecord
100
AcDbBlockTableRecord
  2
*Paper_Space
340
1E
  0
BLOCK_RECORD
  5
23
100
AcDbSymbolTableRecord
100
AcDbBlockTableRecord
  2
*Paper_Space0
340
26
  0
ENDTAB
  0
ENDSEC
  0
SECTION
  2
BLOCKS
  0
BLOCK
  5
20
100
AcDbEntity
  8
0
100
AcDbBlockBegin
  2
*Model_Space
 70
0
 10
0.0
 20
0.0
 30
0.0
  3
*Model_Space
  1

  0
ENDBLK
  5
21
100
AcDbEntity
  8
0
100
AcDbBlockEnd
  0
BLOCK
  5
1C
100
AcDbEntity
 67
1
  8
0
100
AcDbBlockBegin
  2
*Paper_Space
 70
0
 10
0.0
 20
0.0
 30
0.0
  3
*Paper_Space
  1

  0
ENDBLK
  5
1D
100
AcDbEntity
 67
1
  8
0
100
AcDbBlockEnd
  0
BLOCK
  5
24
100
AcDbEntity
  8
0
100
AcDbBlockBegin
  2
*Paper_Space0
 70
0
 10
0.0
 20
0.0
 30
0.0
  3
*Paper_Space0
  1

  0
ENDBLK
  5
25
100
AcDbEntity
  8
0
100
AcDbBlockEnd
  0
ENDSEC
  0
SECTION
  2
ENTITIES
  0
LINE
  5
64
100
AcDbEntity
  8
0
 62
256
370
13
 48
1.0
  6
BYLAYER
100
AcDbLine
 10
40.0
 20
32.3999999999999986
 30
0.0
 11
40.0
 21
37.5
 31
0.0
  0
LINE
  5
65
100
AcDbEntity
  8
0
 62
256
370
13
 48
1.0
  6
BYLAYER
100
AcDbLine
 10
72.0
 20
32.3999999999999986
 30
0.0
 11
72.0
 21
37.5
 31
0.0
  0
LINE
  5
66
100
AcDbEntity
  8
0
 62
256
370
13
 48
1.0
  6
BYLAYER
100
AcDbLine
 10
40.0000000000000071
 20
64.4000000000000057
 30
0.0
 11
40.0000000000000071
 21
69.5
 31
0.0
  0
LINE
  5
67
100
AcDbEntity
  8
0
 62
256
370
13
 48
1.0
  6
BYLAYER
100
AcDbLine
 10
72.0000000000000142
 20
64.4000000000000057
 30
0.0
 11
72.0000000000000142
 21
69.5
 31
0.0
  0
LINE
  5
68
100
AcDbEntity
  8
0
 62
256
370
13
 48
1.0
  6
BYLAYER
100
AcDbLine
 10
40.0000000000000071
 20
96.4000000000000057
 30
0.0
 11
40.0000000000000071
 21
101.5
 31
0.0
  0
LINE
  5
69
100
AcDbEntity
  8
0
 62
256
370
13
 48
1.0
  6
BYLAYER
100
AcDbLine
 10
72.0000000000000142
 20
96.4000000000000057
 30
0.0
 11
72.0000000000000142
 21
101.5
 31
0.0
  0
LINE
  5
6A
100
AcDbEntity
  8
0
 62
256
370
13
 48
1.0
  6
BYLAYER
100
AcDbLine
 10
104.0000000000000142
 20
32.3999999999999986
 30
0.0
 11
104.0000000000000142
 21
37.5
 31
0.0
  0
LINE
  5
6B
100
AcDbEntity
  8
0
 62
256
370
13
 48
1.0
  6
BYLAYER
100
AcDbLine
 10
136.0
 20
32.3999999999999986
 30
0.0
 11
136.0
 21
37.5
 31
0.0
  0
LINE
  5
6C
100
AcDbEntity
  8
0
 62
256
370
13
 48
1.0
  6
BYLAYER
100
AcDbLine
 10
104.0000000000000284
 20
64.4000000000000057
 30
0.0
 11
104.0000000000000284
 21
69.5
 31
0.0
  0
LINE
  5
6D
100
AcDbEntity
  8
0
 62
256
370
13
 48
1.0
  6
BYLAYER
100
AcDbLine
 10
136.0000000000000284
 20
64.4000000000000057
 30
0.0
 11
136.0000000000000284
 21
69.5
 31
0.0
  0
LINE
  5
6E
100
AcDbEntity
  8
0
 62
256
370
13
 48
1.0
  6
BYLAYER
100
AcDbLine
 10
104.0000000000000284
 20
96.4000000000000057
 30
0.0
 11
104.0000000000000284
 21
101.5
 31
0.0
  0
LINE
  5
6F
100
AcDbEntity
  8
0
 62
256
370
13
 48
1.0
  6
BYLAYER
100
AcDbLine
 10
136.0000000000000284
 20
96.4000000000000057
 30
0.0
 11
136.0000000000000284
 21
101.5
 31
0.0
  0
LINE
  5
70
100
AcDbEntity
  8
0
 62
256
370
13
 48
1.0
  6
BYLAYER
100
AcDbLine
 10
169.0
 20
32.3999999999999986
 30
0.0
 11
169.0
 21
37.5
 31
0.0
  0
LINE
  5
71
100
AcDbEntity
  8
0
 62
256
370
13
 48
1.0
  6
BYLAYER
100
AcDbLine
 10
201.0
 20
32.3999999999999986
 30
0.0
 11
201.0
 21
37.5
 31
0.0
  0
LINE
  5
72
100
AcDbEntity
  8
0
 62
256
370
13
 48
1.0
  6
BYLAYER
100
AcDbLine
 10
169.0
 20
64.4000000000000057
 30
0.0
 11
169.0
 21
69.5
 31
0.0
  0
LINE
  5
73
100
AcDbEntity
  8
0
 62
256
370
13
 48
1.0
  6
BYLAYER
100
AcDbLine
 10
201.0
 20
64.4000000000000057
 30
0.0
 11
201.0
 21
69.5
 31
0.0
  0
LINE
  5
74
100
AcDbEntity
  8
0
 62
256
370
13
 48
1.0
  6
BYLAYER
100
AcDbLine
 10
169.0
 20
96.4000000000000057
 30
0.0
 11
169.0
 21
101.5
 31
0.0
  0
LINE
  5
75
100
AcDbEntity
  8
0
 62
256
370
13
 48
1.0
  6
BYLAYER
100
AcDbLine
 10
201.0
 20
96.4000000000000057
 30
0.0
 11
201.0
 21
101.5
 31
0.0
  0
LINE
  5
76
100
AcDbEntity
  8
0
 62
256
370
13
 48
1.0
  6
BYLAYER
100
AcDbLine
 10
232.9999999999999716
 20
32.3999999999999986
 30
0.0
 11
232.9999999999999716
 21
37.5
 31
0.0
  0
LINE
  5
77
100
AcDbEntity
  8
0
 62
256
370
13
 48
1.0
  6
BYLAYER
100
AcDbLine
 10
265.0
 20
32.3999999999999986
 30
0.0
 11
265.0
 21
37.5
 31
0.0
  0
LINE
  5
78
100
AcDbEntity
  8
0
 62
256
370
13
 48
1.0
  6
BYLAYER
100
AcDbLine
 10
232.9999999999999716
 20
64.4000000000000057
 30
0.0
 11
232.9999999999999716
 21
69.5
 31
0.0
  0
LINE
  5
79
100
AcDbEntity
  8
0
 62
256
370
13
 48
1.0
  6
BYLAYER
100
AcDbLine
 10
265.0
 20
64.4000000000000057
 30
0.0
 11
265.0
 21
69.5
 31
0.0
  0
LINE
  5
7A
100
AcDbEntity
  8
0
 62
256
370
13
 48
1.0
  6
BYLAYER
100
AcDbLine
 10
232.9999999999999716
 20
96.4000000000000057
 30
0.0
 11
232.9999999999999716
 21
101.5
 31
0.0
  0
LINE
  5
7B
100
AcDbEntity
  8
0
 62
256
370
13
 48
1.0
  6
BYLAYER
100
AcDbLine
 10
265.0
 20
96.4000000000000057
 30
0.0
 11
265.0
 21
101.5
 31
0.0
  0
LINE
  5
7C
100
AcDbEntity
  8
0
 62
256
370
13
 48
1.0
  6
BYLAYER
100
AcDbLine
 10
40.0
 20
17.3999999999999986
 30
0.0
 11
40.0
 21
25.1000000000000014
 31
0.0
  0
LINE
  5
7D
100
AcDbEntity
  8
0
 62
256
370
13
 48
1.0
  6
BYLAYER
100
AcDbLine
 10
72.0
 20
17.3999999999999986
 30
0.0
 11
72.0
 21
25.1000000000000014
 31
0.0
  0
LINE
  5
7E
100
AcDbEntity
  8
0
 62
256
370
13
 48
1.0
  6
BYLAYER
100
AcDbLine
 10
40.0000000000000071
 20
49.3999999999999986
 30
0.0
 11
40.0000000000000071
 21
57.1000000000000014
 31
0.0
  0
LINE
  5
7F
100
AcDbEntity
  8
0
 62
256
370
13
 48
1.0
  6
BYLAYER
100
AcDbLine
 10
72.0000000000000142
 20
49.3999999999999986
 30
0.0
 11
72.0000000000000142
 21
57.1000000000000014
 31
0.0
  0
LINE
  5
80
100
AcDbEntity
  8
0
 62
256
370
13
 48
1.0
  6
BYLAYER
100
AcDbLine
 10
40.0000000000000071
 20
81.3999999999999915
 30
0.0
 11
40.0000000000000071
 21
89.0999999999999943
 31
0.0
  0
LINE
  5
81
100
AcDbEntity
  8
0
 62
256
370
13
 48
1.0
  6
BYLAYER
100
AcDbLine
 10
72.0000000000000142
 20
81.3999999999999915
 30
0.0
 11
72.0000000000000142
 21
89.0999999999999943
 31
0.0
  0
LINE
  5
82
100
AcDbEntity
  8
0
 62
256
370
13
 48
1.0
  6
BYLAYER
100
AcDbLine
 10
104.0000000000000142
 20
17.3999999999999986
 30
0.0
 11
104.0000000000000142
 21
25.1000000000000014
 31
0.0
  0
LINE
  5
83
100
AcDbEntity
  8
0
 62
256
370
13
 48
1.0
  6
BYLAYER
100
AcDbLine
 10
136.0
 20
17.3999999999999986
 30
0.0
 11
136.0
 21
25.1000000000000014
 31
0.0
  0
LINE
  5
84
100
AcDbEntity
  8
0
 62
256
370
13
 48
1.0
  6
BYLAYER
100
AcDbLine
 10
104.0000000000000284
 20
49.3999999999999986
 30
0.0
 11
104.0000000000000284
 21
57.1000000000000014
 31
0.0
  0
LINE
  5
85
100
AcDbEntity
  8
0
 62
256
370
13
 48
1.0
  6
BYLAYER
100
AcDbLine
 10
136.0000000000000284
 20
49.3999999999999986
 30
0.0
 11
136.0000000000000284
 21
57.1000000000000014
 31
0.0
  0
LINE
  5
86
100
AcDbEntity
  8
0
 62
256
370
13
 48
1.0
  6
BYLAYER
100
AcDbLine
 10
104.0000000000000284
 20
81.3999999999999915
 30
0.0
 11
104.0000000000000284
 21
89.0999999999999943
 31
0.0
  0
LINE
  5
87
100
AcDbEntity
  8
0
 62
256
370
13
 48
1.0
  6
BYLAYER
100
AcDbLine
 10
136.0000000000000284
 20
81.3999999999999915
 30
0.0
 11
136.0000000000000284
 21
89.0999999999999943
 31
0.0
  0
LINE
  5
88
100
AcDbEntity
  8
0
 62
256
370
13
 48
1.0
  6
BYLAYER
100
AcDbLine
 10
169.0
 20
17.3999999999999986
 30
0.0
 11
169.0
 21
25.1000000000000014
 31
0.0
  0
LINE
  5
89
100
AcDbEntity
  8
0
 62
256
370
13
 48
1.0
  6
BYLAYER
100
AcDbLine
 10
201.0
 20
17.3999999999999986
 30
0.0
 11
201.0
 21
25.1000000000000014
 31
0.0
  0
LINE
  5
8A
100
AcDbEntity
  8
0
 62
256
370
13
 48
1.0
  6
BYLAYER
100
AcDbLine
 10
169.0
 20
49.3999999999999986
 30
0.0
 11
169.0
 21
57.1000000000000014
 31
0.0
  0
LINE
  5
8B
100
AcDbEntity
  8
0
 62
256
370
13
 48
1.0
  6
BYLAYER
100
AcDbLine
 10
201.0
 20
49.3999999999999986
 30
0.0
 11
201.0
 21
57.1000000000000014
 31
0.0
  0
LINE
  5
8C
100
AcDbEntity
  8
0
 62
256
370
13
 48
1.0
  6
BYLAYER
100
AcDbLine
 10
169.0
 20
81.3999999999999915
 30
0.0
 11
169.0
 21
89.0999999999999943
 31
0.0
  0
LINE
  5
8D
100
AcDbEntity
  8
0
 62
256
370
13
 48
1.0
  6
BYLAYER
100
AcDbLine
 10
201.0
 20
81.3999999999999915
 30
0.0
 11
201.0
 21
89.0999999999999943
 31
0.0
  0
LINE
  5
8E
100
AcDbEntity
  8
0
 62
256
370
13
 48
1.0
  6
BYLAYER
100
AcDbLine
 10
232.9999999999999716
 20
17.3999999999999986
 30
0.0
 11
232.9999999999999716
 21
25.1000000000000014
 31
0.0
  0
LINE
  5
8F
100
AcDbEntity
  8
0
 62
256
370
13
 48
1.0
  6
BYLAYER
100
AcDbLine
 10
265.0
 20
17.3999999999999986
 30
0.0
 11
265.0
 21
25.1000000000000014
 31
0.0
  0
LINE
  5
90
100
AcDbEntity
  8
0
 62
256
370
13
 48
1.0
  6
BYLAYER
100
AcDbLine
 10
232.9999999999999716
 20
49.3999999999999986
 30
0.0
 11
232.9999999999999716
 21
57.1000000000000014
 31
0.0
  0
LINE
  5
91
100
AcDbEntity
  8
0
 62
256
370
13
 48
1.0
  6
BYLAYER
100
AcDbLine
 10
265.0
 20
49.3999999999999986
 30
0.0
 11
265.0
 21
57.1000000000000014
 31
0.0
  0
LINE
  5
92
100
AcDbEntity
  8
0
 62
256
370
13
 48
1.0
  6
BYLAYER
100
AcDbLine
 10
232.9999999999999716
 20
81.3999999999999915
 30
0.0
 11
232.9999999999999716
 21
89.0999999999999943
 31
0.0
  0
LINE
  5
93
100
AcDbEntity
  8
0
 62
256
370
13
 48
1.0
  6
BYLAYER
100
AcDbLine
 10
265.0
 20
81.3999999999999915
 30
0.0
 11
265.0
 21
89.0999999999999943
 31
0.0
  0
LINE
  5
94
100
AcDbEntity
  8
0
 62
256
370
13
 48
1.0
  6
BYLAYER
100
AcDbLine
 10
17.5999999999999872
 20
9.9999999999999964
 30
0.0
 11
9.9999999999999911
 21
10.0000000000000018
 31
0.0
  0
LINE
  5
95
100
AcDbEntity
  8
0
 62
256
370
13
 48
1.0
  6
BYLAYER
100
AcDbLine
 10
49.5999999999999943
 20
9.9999999999999947
 30
0.0
 11
42.0
 21
10.0
 31
0.0
  0
LINE
  5
96
100
AcDbEntity
  8
0
 62
256
370
13
 48
1.0
  6
BYLAYER
100
AcDbLine
 10
17.5999999999999943
 20
42.0
 30
0.0
 11
12.4999999999999769
 21
42.0
 31
0.0
  0
LINE
  5
97
100
AcDbEntity
  8
0
 62
256
370
13
 48
1.0
  6
BYLAYER
100
AcDbLine
 10
49.6000000000000014
 20
41.9999999999999929
 30
0.0
 11
44.4999999999999787
 21
42.0
 31
0.0
  0
LINE
  5
98
100
AcDbEntity
  8
0
 62
256
370
13
 48
1.0
  6
BYLAYER
100
AcDbLine
 10
17.5999999999999943
 20
74.0
 30
0.0
 11
12.4999999999999769
 21
74.0
 31
0.0
  0
LINE
  5
99
100
AcDbEntity
  8
0
 62
256
370
13
 48
1.0
  6
BYLAYER
100
AcDbLine
 10
49.6000000000000014
 20
73.9999999999999858
 30
0.0
 11
44.4999999999999787
 21
74.0
 31
0.0
  0
LINE
  5
9A
100
AcDbEntity
  8
0
 62
256
370
13
 48
1.0
  6
BYLAYER
100
AcDbLine
 10
81.5999999999999943
 20
9.9999999999999964
 30
0.0
 11
74.0
 21
10.0000000000000018
 31
0.0
  0
LINE
  5
9B
100
AcDbEntity
  8
0
 62
256
370
13
 48
1.0
  6
BYLAYER
100
AcDbLine
 10
113.6000000000000085
 20
9.9999999999999947
 30
0.0
 11
106.0000000000000142
 21
10.0
 31
0.0
  0
LINE
  5
9C
100
AcDbEntity
  8
0
 62
256
370
13
 48
1.0
  6
BYLAYER
100
AcDbLine
 10
81.6000000000000085
 20
42.0
 30
0.0
 11
76.4999999999999858
 21
42.0
 31
0.0
  0
LINE
  5
9D
100
AcDbEntity
  8
0
 62
256
370
13
 48
1.0
  6
BYLAYER
100
AcDbLine
 10
113.6000000000000227
 20
41.9999999999999929
 30
0.0
 11
108.5
 21
42.0
 31
0.0
  0
LINE
  5
9E
100
AcDbEntity
  8
0
 62
256
370
13
 48
1.0
  6
BYLAYER
100
AcDbLine
 10
81.6000000000000085
 20
74.0
 30
0.0
 11
76.4999999999999858
 21
74.0
 31
0.0
  0
LINE
  5
9F
100
AcDbEntity
  8
0
 62
256
370
13
 48
1.0
  6
BYLAYER
100
AcDbLine
 10
113.6000000000000227
 20
73.9999999999999858
 30
0.0
 11
108.5
 21
74.0
 31
0.0
  0
LINE
  5
A0
100
AcDbEntity
  8
0
 62
256
370
13
 48
1.0
  6
BYLAYER
100
AcDbLine
 10
146.5999999999999943
 20
9.9999999999999964
 30
0.0
 11
139.0
 21
10.0000000000000018
 31
0.0
  0
LINE
  5
A1
100
AcDbEntity
  8
0
 62
256
370
13
 48
1.0
  6
BYLAYER
100
AcDbLine
 10
178.5999999999999943
 20
9.9999999999999947
 30
0.0
 11
171.0
 21
10.0
 31
0.0
  0
LINE
  5
A2
100
AcDbEntity
  8
0
 62
256
370
13
 48
1.0
  6
BYLAYER
100
AcDbLine
 10
146.5999999999999943
 20
42.0
 30
0.0
 11
141.4999999999999716
 21
42.0
 31
0.0
  0
LINE
  5
A3
100
AcDbEntity
  8
0
 62
256
370
13
 48
1.0
  6
BYLAYER
100
AcDbLine
 10
178.5999999999999943
 20
41.9999999999999929
 30
0.0
 11
173.4999999999999716
 21
42.0
 31
0.0
  0
LINE
  5
A4
100
AcDbEntity
  8
0
 62
256
370
13
 48
1.0
  6
BYLAYER
100
AcDbLine
 10
146.5999999999999943
 20
74.0
 30
0.0
 11
141.4999999999999716
 21
74.0
 31
0.0
  0
LINE
  5
A5
100
AcDbEntity
  8
0
 62
256
370
13
 48
1.0
  6
BYLAYER
100
AcDbLine
 10
178.5999999999999943
 20
73.9999999999999858
 30
0.0
 11
173.4999999999999716
 21
74.0
 31
0.0
  0
LINE
  5
A6
100
AcDbEntity
  8
0
 62
256
370
13
 48
1.0
  6
BYLAYER
100
AcDbLine
 10
210.5999999999999659
 20
9.9999999999999947
 30
0.0
 11
202.9999999999999716
 21
10.0
 31
0.0
  0
LINE
  5
A7
100
AcDbEntity
  8
0
 62
256
370
13
 48
1.0
  6
BYLAYER
100
AcDbLine
 10
242.5999999999999659
 20
9.9999999999999929
 30
0.0
 11
234.9999999999999716
 21
9.9999999999999982
 31
0.0
  0
LINE
  5
A8
100
AcDbEntity
  8
0
 62
256
370
13
 48
1.0
  6
BYLAYER
100
AcDbLine
 10
210.5999999999999659
 20
42.0
 30
0.0
 11
205.4999999999999432
 21
42.0
 31
0.0
  0
LINE
  5
A9
100
AcDbEntity
  8
0
 62
256
370
13
 48
1.0
  6
BYLAYER
100
AcDbLine
 10
242.5999999999999659
 20
41.9999999999999929
 30
0.0
 11
237.4999999999999432
 21
42.0
 31
0.0
  0
LINE
  5
AA
100
AcDbEntity
  8
0
 62
256
370
13
 48
1.0
  6
BYLAYER
100
AcDbLine
 10
210.5999999999999659
 20
74.0
 30
0.0
 11
205.4999999999999432
 21
74.0
 31
0.0
  0
LINE
  5
AB
100
AcDbEntity
  8
0
 62
256
370
13
 48
1.0
  6
BYLAYER
100
AcDbLine
 10
242.5999999999999659
 20
73.9999999999999858
 30
0.0
 11
237.4999999999999432
 21
74.0
 31
0.0
  0
LINE
  5
AC
100
AcDbEntity
  8
0
 62
256
370
13
 48
1.0
  6
BYLAYER
100
AcDbLine
 10
32.6000000000000085
 20
10.0000000000000071
 30
0.0
 11
24.8999999999999915
 21
10.0
 31
0.0
  0
LINE
  5
AD
100
AcDbEntity
  8
0
 62
256
370
13
 48
1.0
  6
BYLAYER
100
AcDbLine
 10
64.6000000000000227
 20
10.0000000000000053
 30
0.0
 11
56.8999999999999986
 21
9.9999999999999982
 31
0.0
  0
LINE
  5
AE
100
AcDbEntity
  8
0
 62
256
370
13
 48
1.0
  6
BYLAYER
100
AcDbLine
 10
32.6000000000000156
 20
42.0000000000000071
 30
0.0
 11
24.8999999999999986
 21
42.0
 31
0.0
  0
LINE
  5
AF
100
AcDbEntity
  8
0
 62
256
370
13
 48
1.0
  6
BYLAYER
100
AcDbLine
 10
64.6000000000000369
 20
42.0000000000000071
 30
0.0
 11
56.9000000000000057
 21
42.0
 31
0.0
  0
LINE
  5
B0
100
AcDbEntity
  8
0
 62
256
370
13
 48
1.0
  6
BYLAYER
100
AcDbLine
 10
32.6000000000000156
 20
74.0
 30
0.0
 11
24.8999999999999986
 21
74.0
 31
0.0
  0
LINE
  5
B1
100
AcDbEntity
  8
0
 62
256
370
13
 48
1.0
  6
BYLAYER
100
AcDbLine
 10
64.6000000000000369
 20
74.0
 30
0.0
 11
56.9000000000000057
 21
74.0
 31
0.0
  0
LINE
  5
B2
100
AcDbEntity
  8
0
 62
256
370
13
 48
1.0
  6
BYLAYER
100
AcDbLine
 10
96.6000000000000227
 20
10.0000000000000071
 30
0.0
 11
88.9000000000000057
 21
10.0
 31
0.0
  0
LINE
  5
B3
100
AcDbEntity
  8
0
 62
256
370
13
 48
1.0
  6
BYLAYER
100
AcDbLine
 10
128.6000000000000227
 20
10.0000000000000053
 30
0.0
 11
120.9000000000000057
 21
9.9999999999999982
 31
0.0
  0
LINE
  5
B4
100
AcDbEntity
  8
0
 62
256
370
13
 48
1.0
  6
BYLAYER
100
AcDbLine
 10
96.6000000000000227
 20
42.0000000000000071
 30
0.0
 11
88.9000000000000057
 21
42.0
 31
0.0
  0
LINE
  5
B5
100
AcDbEntity
  8
0
 62
256
370
13
 48
1.0
  6
BYLAYER
100
AcDbLine
 10
128.6000000000000512
 20
42.0000000000000071
 30
0.0
 11
120.9000000000000199
 21
42.0
 31
0.0
  0
LINE
  5
B6
100
AcDbEntity
  8
0
 62
256
370
13
 48
1.0
  6
BYLAYER
100
AcDbLine
 10
96.6000000000000227
 20
74.0
 30
0.0
 11
88.9000000000000057
 21
74.0
 31
0.0
  0
LINE
  5
B7
100
AcDbEntity
  8
0
 62
256
370
13
 48
1.0
  6
BYLAYER
100
AcDbLine
 10
128.6000000000000512
 20
74.0
 30
0.0
 11
120.9000000000000199
 21
74.0
 31
0.0
  0
LINE
  5
B8
100
AcDbEntity
  8
0
 62
256
370
13
 48
1.0
  6
BYLAYER
100
AcDbLine
 10
161.6000000000000227
 20
10.0000000000000071
 30
0.0
 11
153.8999999999999773
 21
10.0
 31
0.0
  0
LINE
  5
B9
100
AcDbEntity
  8
0
 62
256
370
13
 48
1.0
  6
BYLAYER
100
AcDbLine
 10
193.6000000000000227
 20
10.0000000000000053
 30
0.0
 11
185.9000000000000057
 21
9.9999999999999982
 31
0.0
  0
LINE
  5
BA
100
AcDbEntity
  8
0
 62
256
370
13
 48
1.0
  6
BYLAYER
100
AcDbLine
 10
161.6000000000000227
 20
42.0000000000000071
 30
0.0
 11
153.9000000000000057
 21
42.0
 31
0.0
  0
LINE
  5
BB
100
AcDbEntity
  8
0
 62
256
370
13
 48
1.0
  6
BYLAYER
100
AcDbLine
 10
193.6000000000000227
 20
42.0000000000000071
 30
0.0
 11
185.9000000000000057
 21
42.0
 31
0.0
  0
LINE
  5
BC
100
AcDbEntity
  8
0
 62
256
370
13
 48
1.0
  6
BYLAYER
100
AcDbLine
 10
161.6000000000000227
 20
74.0
 30
0.0
 11
153.9000000000000057
 21
74.0
 31
0.0
  0
LINE
  5
BD
100
AcDbEntity
  8
0
 62
256
370
13
 48
1.0
  6
BYLAYER
100
AcDbLine
 10
193.6000000000000227
 20
74.0
 30
0.0
 11
185.9000000000000057
 21
74.0
 31
0.0
  0
LINE
  5
BE
100
AcDbEntity
  8
0
 62
256
370
13
 48
1.0
  6
BYLAYER
100
AcDbLine
 10
225.5999999999999943
 20
10.0000000000000053
 30
0.0
 11
217.8999999999999488
 21
9.9999999999999982
 31
0.0
  0
LINE
  5
BF
100
AcDbEntity
  8
0
 62
256
370
13
 48
1.0
  6
BYLAYER
100
AcDbLine
 10
257.6000000000000227
 20
10.0000000000000036
 30
0.0
 11
249.8999999999999773
 21
9.9999999999999964
 31
0.0
  0
LINE
  5
C0
100
AcDbEntity
  8
0
 62
256
370
13
 48
1.0
  6
BYLAYER
100
AcDbLine
 10
225.5999999999999943
 20
42.0000000000000071
 30
0.0
 11
217.8999999999999773
 21
42.0
 31
0.0
  0
LINE
  5
C1
100
AcDbEntity
  8
0
 62
256
370
13
 48
1.0
  6
BYLAYER
100
AcDbLine
 10
257.6000000000000227
 20
42.0000000000000071
 30
0.0
 11
249.8999999999999773
 21
42.0
 31
0.0
  0
LINE
  5
C2
100
AcDbEntity
  8
0
 62
256
370
13
 48
1.0
  6
BYLAYER
100
AcDbLine
 10
225.5999999999999943
 20
74.0
 30
0.0
 11
217.8999999999999773
 21
74.0
 31
0.0
  0
LINE
  5
C3
100
AcDbEntity
  8
0
 62
256
370
13
 48
1.0
  6
BYLAYER
100
AcDbLine
 10
257.6000000000000227
 20
74.0
 30
0.0
 11
249.8999999999999773
 21
74.0
 31
0.0
  0
LINE
  5
C4
100
AcDbEntity
  8
0
 62
256
370
13
 48
1.0
  6
BYLAYER
100
AcDbLine
 10
17.6000000000000014
 20
40.0
 30
0.0
 11
10.0
 21
40.0
 31
0.0
  0
LINE
  5
C5
100
AcDbEntity
  8
0
 62
256
370
13
 48
1.0
  6
BYLAYER
100
AcDbLine
 10
49.6000000000000085
 20
40.0
 30
0.0
 11
42.0000000000000071
 21
40.0
 31
0.0
  0
LINE
  5
C6
100
AcDbEntity
  8
0
 62
256
370
13
 48
1.0
  6
BYLAYER
100
AcDbLine
 10
17.6000000000000085
 20
72.0
 30
0.0
 11
10.0000000000000089
 21
72.0
 31
0.0
  0
LINE
  5
C7
100
AcDbEntity
  8
0
 62
256
370
13
 48
1.0
  6
BYLAYER
100
AcDbLine
 10
49.6000000000000156
 20
72.0
 30
0.0
 11
42.0000000000000142
 21
72.0
 31
0.0
  0
LINE
  5
C8
100
AcDbEntity
  8
0
 62
256
370
13
 48
1.0
  6
BYLAYER
100
AcDbLine
 10
17.6000000000000085
 20
104.0
 30
0.0
 11
10.0000000000000089
 21
104.0
 31
0.0
  0
LINE
  5
C9
100
AcDbEntity
  8
0
 62
256
370
13
 48
1.0
  6
BYLAYER
100
AcDbLine
 10
49.6000000000000156
 20
104.0
 30
0.0
 11
42.0000000000000142
 21
104.0
 31
0.0
  0
LINE
  5
CA
100
AcDbEntity
  8
0
 62
256
370
13
 48
1.0
  6
BYLAYER
100
AcDbLine
 10
81.6000000000000227
 20
40.0
 30
0.0
 11
74.0000000000000142
 21
40.0
 31
0.0
  0
LINE
  5
CB
100
AcDbEntity
  8
0
 62
256
370
13
 48
1.0
  6
BYLAYER
100
AcDbLine
 10
113.6000000000000227
 20
40.0
 30
0.0
 11
106.0000000000000284
 21
40.0
 31
0.0
  0
LINE
  5
CC
100
AcDbEntity
  8
0
 62
256
370
13
 48
1.0
  6
BYLAYER
100
AcDbLine
 10
81.6000000000000227
 20
72.0
 30
0.0
 11
74.0000000000000284
 21
72.0
 31
0.0
  0
LINE
  5
CD
100
AcDbEntity
  8
0
 62
256
370
13
 48
1.0
  6
BYLAYER
100
AcDbLine
 10
113.6000000000000227
 20
72.0
 30
0.0
 11
106.0000000000000284
 21
72.0
 31
0.0
  0
LINE
  5
CE
100
AcDbEntity
  8
0
 62
256
370
13
 48
1.0
  6
BYLAYER
100
AcDbLine
 10
81.6000000000000227
 20
104.0
 30
0.0
 11
74.0000000000000284
 21
104.0
 31
0.0
  0
LINE
  5
CF
100
AcDbEntity
  8
0
 62
256
370
13
 48
1.0
  6
BYLAYER
100
AcDbLine
 10
113.6000000000000227
 20
104.0
 30
0.0
 11
106.0000000000000284
 21
104.0
 31
0.0
  0
LINE
  5
D0
100
AcDbEntity
  8
0
 62
256
370
13
 48
1.0
  6
BYLAYER
100
AcDbLine
 10
146.5999999999999943
 20
40.0
 30
0.0
 11
139.0
 21
40.0
 31
0.0
  0
LINE
  5
D1
100
AcDbEntity
  8
0
 62
256
370
13
 48
1.0
  6
BYLAYER
100
AcDbLine
 10
178.6000000000000227
 20
40.0
 30
0.0
 11
171.0
 21
40.0
 31
0.0
  0
LINE
  5
D2
100
AcDbEntity
  8
0
 62
256
370
13
 48
1.0
  6
BYLAYER
100
AcDbLine
 10
146.6000000000000227
 20
72.0
 30
0.0
 11
139.0
 21
72.0
 31
0.0
  0
LINE
  5
D3
100
AcDbEntity
  8
0
 62
256
370
13
 48
1.0
  6
BYLAYER
100
AcDbLine
 10
178.6000000000000227
 20
72.0
 30
0.0
 11
171.0
 21
72.0
 31
0.0
  0
LINE
  5
D4
100
AcDbEntity
  8
0
 62
256
370
13
 48
1.0
  6
BYLAYER
100
AcDbLine
 10
146.6000000000000227
 20
104.0
 30
0.0
 11
139.0
 21
104.0
 31
0.0
  0
LINE
  5
D5
100
AcDbEntity
  8
0
 62
256
370
13
 48
1.0
  6
BYLAYER
100
AcDbLine
 10
178.6000000000000227
 20
104.0
 30
0.0
 11
171.0
 21
104.0
 31
0.0
  0
LINE
  5
D6
100
AcDbEntity
  8
0
 62
256
370
13
 48
1.0
  6
BYLAYER
100
AcDbLine
 10
210.5999999999999659
 20
40.0
 30
0.0
 11
202.9999999999999716
 21
40.0
 31
0.0
  0
LINE
  5
D7
100
AcDbEntity
  8
0
 62
256
370
13
 48
1.0
  6
BYLAYER
100
AcDbLine
 10
242.5999999999999943
 20
40.0
 30
0.0
 11
234.9999999999999716
 21
40.0
 31
0.0
  0
LINE
  5
D8
100
AcDbEntity
  8
0
 62
256
370
13
 48
1.0
  6
BYLAYER
100
AcDbLine
 10
210.5999999999999943
 20
72.0
 30
0.0
 11
202.9999999999999716
 21
72.0
 31
0.0
  0
LINE
  5
D9
100
AcDbEntity
  8
0
 62
256
370
13
 48
1.0
  6
BYLAYER
100
AcDbLine
 10
242.5999999999999943
 20
72.0
 30
0.0
 11
234.9999999999999716
 21
72.0
 31
0.0
  0
LINE
  5
DA
100
AcDbEntity
  8
0
 62
256
370
13
 48
1.0
  6
BYLAYER
100
AcDbLine
 10
210.5999999999999943
 20
104.0
 30
0.0
 11
202.9999999999999716
 21
104.0
 31
0.0
  0
LINE
  5
DB
100
AcDbEntity
  8
0
 62
256
370
13
 48
1.0
  6
BYLAYER
100
AcDbLine
 10
242.5999999999999943
 20
104.0
 30
0.0
 11
234.9999999999999716
 21
104.0
 31
0.0
  0
LINE
  5
DC
100
AcDbEntity
  8
0
 62
256
370
13
 48
1.0
  6
BYLAYER
100
AcDbLine
 10
32.6000000000000014
 20
40.0
 30
0.0
 11
24.8999999999999986
 21
40.0
 31
0.0
  0
LINE
  5
DD
100
AcDbEntity
  8
0
 62
256
370
13
 48
1.0
  6
BYLAYER
100
AcDbLine
 10
64.6000000000000085
 20
40.0
 30
0.0
 11
56.9000000000000057
 21
40.0
 31
0.0
  0
LINE
  5
DE
100
AcDbEntity
  8
0
 62
256
370
13
 48
1.0
  6
BYLAYER
100
AcDbLine
 10
32.6000000000000085
 20
72.0
 30
0.0
 11
24.9000000000000057
 21
72.0
 31
0.0
  0
LINE
  5
DF
100
AcDbEntity
  8
0
 62
256
370
13
 48
1.0
  6
BYLAYER
100
AcDbLine
 10
64.6000000000000227
 20
72.0
 30
0.0
 11
56.9000000000000128
 21
72.0
 31
0.0
  0
LINE
  5
E0
100
AcDbEntity
  8
0
 62
256
370
13
 48
1.0
  6
BYLAYER
100
AcDbLine
 10
32.6000000000000085
 20
104.0
 30
0.0
 11
24.9000000000000057
 21
104.0
 31
0.0
  0
LINE
  5
E1
100
AcDbEntity
  8
0
 62
256
370
13
 48
1.0
  6
BYLAYER
100
AcDbLine
 10
64.6000000000000227
 20
104.0
 30
0.0
 11
56.9000000000000128
 21
104.0
 31
0.0
  0
LINE
  5
E2
100
AcDbEntity
  8
0
 62
256
370
13
 48
1.0
  6
BYLAYER
100
AcDbLine
 10
96.6000000000000227
 20
40.0
 30
0.0
 11
88.9000000000000057
 21
40.0
 31
0.0
  0
LINE
  5
E3
100
AcDbEntity
  8
0
 62
256
370
13
 48
1.0
  6
BYLAYER
100
AcDbLine
 10
128.6000000000000227
 20
40.0
 30
0.0
 11
120.9000000000000199
 21
40.0
 31
0.0
  0
LINE
  5
E4
100
AcDbEntity
  8
0
 62
256
370
13
 48
1.0
  6
BYLAYER
100
AcDbLine
 10
96.6000000000000227
 20
72.0
 30
0.0
 11
88.9000000000000199
 21
72.0
 31
0.0
  0
LINE
  5
E5
100
AcDbEntity
  8
0
 62
256
370
13
 48
1.0
  6
BYLAYER
100
AcDbLine
 10
128.6000000000000227
 20
72.0
 30
0.0
 11
120.9000000000000341
 21
72.0
 31
0.0
  0
LINE
  5
E6
100
AcDbEntity
  8
0
 62
256
370
13
 48
1.0
  6
BYLAYER
100
AcDbLine
 10
96.6000000000000227
 20
104.0
 30
0.0
 11
88.9000000000000199
 21
104.0
 31
0.0
  0
LINE
  5
E7
100
AcDbEntity
  8
0
 62
256
370
13
 48
1.0
  6
BYLAYER
100
AcDbLine
 10
128.6000000000000227
 20
104.0
 30
0.0
 11
120.9000000000000341
 21
104.0
 31
0.0
  0
LINE
  5
E8
100
AcDbEntity
  8
0
 62
256
370
13
 48
1.0
  6
BYLAYER
100
AcDbLine
 10
161.5999999999999943
 20
40.0
 30
0.0
 11
153.9000000000000057
 21
40.0
 31
0.0
  0
LINE
  5
E9
100
AcDbEntity
  8
0
 62
256
370
13
 48
1.0
  6
BYLAYER
100
AcDbLine
 10
193.6000000000000227
 20
40.0
 30
0.0
 11
185.9000000000000057
 21
40.0
 31
0.0
  0
LINE
  5
EA
100
AcDbEntity
  8
0
 62
256
370
13
 48
1.0
  6
BYLAYER
100
AcDbLine
 10
161.6000000000000227
 20
72.0
 30
0.0
 11
153.9000000000000057
 21
72.0
 31
0.0
  0
LINE
  5
EB
100
AcDbEntity
  8
0
 62
256
370
13
 48
1.0
  6
BYLAYER
100
AcDbLine
 10
193.6000000000000227
 20
72.0
 30
0.0
 11
185.9000000000000057
 21
72.0
 31
0.0
  0
LINE
  5
EC
100
AcDbEntity
  8
0
 62
256
370
13
 48
1.0
  6
BYLAYER
100
AcDbLine
 10
161.6000000000000227
 20
104.0
 30
0.0
 11
153.9000000000000057
 21
104.0
 31
0.0
  0
LINE
  5
ED
100
AcDbEntity
  8
0
 62
256
370
13
 48
1.0
  6
BYLAYER
100
AcDbLine
 10
193.6000000000000227
 20
104.0
 30
0.0
 11
185.9000000000000057
 21
104.0
 31
0.0
  0
LINE
  5
EE
100
AcDbEntity
  8
0
 62
256
370
13
 48
1.0
  6
BYLAYER
100
AcDbLine
 10
225.5999999999999659
 20
40.0
 30
0.0
 11
217.8999999999999773
 21
40.0
 31
0.0
  0
LINE
  5
EF
100
AcDbEntity
  8
0
 62
256
370
13
 48
1.0
  6
BYLAYER
100
AcDbLine
 10
257.6000000000000227
 20
40.0
 30
0.0
 11
249.8999999999999773
 21
40.0
 31
0.0
  0
LINE
  5
F0
100
AcDbEntity
  8
0
 62
256
370
13
 48
1.0
  6
BYLAYER
100
AcDbLine
 10
225.5999999999999943
 20
72.0
 30
0.0
 11
217.8999999999999773
 21
72.0
 31
0.0
  0
LINE
  5
F1
100
AcDbEntity
  8
0
 62
256
370
13
 48
1.0
  6
BYLAYER
100
AcDbLine
 10
257.6000000000000227
 20
72.0
 30
0.0
 11
249.8999999999999773
 21
72.0
 31
0.0
  0
LINE
  5
F2
100
AcDbEntity
  8
0
 62
256
370
13
 48
1.0
  6
BYLAYER
100
AcDbLine
 10
225.5999999999999943
 20
104.0
 30
0.0
 11
217.8999999999999773
 21
104.0
 31
0.0
  0
LINE
  5
F3
100
AcDbEntity
  8
0
 62
256
370
13
 48
1.0
  6
BYLAYER
100
AcDbLine
 10
257.6000000000000227
 20
104.0
 30
0.0
 11
249.8999999999999773
 21
104.0
 31
0.0
  0
LINE
  5
F4
100
AcDbEntity
  8
0
 62
256
370
13
 48
1.0
  6
BYLAYER
100
AcDbLine
 10
9.9999999999999911
 20
17.3999999999999986
 30
0.0
 11
9.9999999999999929
 21
25.1000000000000014
 31
0.0
  0
LINE
  5
F5
100
AcDbEntity
  8
0
 62
256
370
13
 48
1.0
  6
BYLAYER
100
AcDbLine
 10
42.0
 20
17.3999999999999986
 30
0.0
 11
42.0
 21
25.1000000000000014
 31
0.0
  0
LINE
  5
F6
100
AcDbEntity
  8
0
 62
256
370
13
 48
1.0
  6
BYLAYER
100
AcDbLine
 10
10.0
 20
49.3999999999999986
 30
0.0
 11
10.0000000000000018
 21
57.1000000000000014
 31
0.0
  0
LINE
  5
F7
100
AcDbEntity
  8
0
 62
256
370
13
 48
1.0
  6
BYLAYER
100
AcDbLine
 10
42.0000000000000071
 20
49.3999999999999986
 30
0.0
 11
42.0000000000000071
 21
57.1000000000000014
 31
0.0
  0
LINE
  5
F8
100
AcDbEntity
  8
0
 62
256
370
13
 48
1.0
  6
BYLAYER
100
AcDbLine
 10
10.0
 20
81.3999999999999915
 30
0.0
 11
10.0000000000000018
 21
89.0999999999999943
 31
0.0
  0
LINE
  5
F9
100
AcDbEntity
  8
0
 62
256
370
13
 48
1.0
  6
BYLAYER
100
AcDbLine
 10
42.0000000000000071
 20
81.3999999999999915
 30
0.0
 11
42.0000000000000071
 21
89.0999999999999943
 31
0.0
  0
LINE
  5
FA
100
AcDbEntity
  8
0
 62
256
370
13
 48
1.0
  6
BYLAYER
100
AcDbLine
 10
74.0
 20
17.3999999999999986
 30
0.0
 11
74.0
 21
25.1000000000000014
 31
0.0
  0
LINE
  5
FB
100
AcDbEntity
  8
0
 62
256
370
13
 48
1.0
  6
BYLAYER
100
AcDbLine
 10
106.0000000000000142
 20
17.3999999999999986
 30
0.0
 11
106.0000000000000142
 21
25.1000000000000014
 31
0.0
  0
LINE
  5
FC
100
AcDbEntity
  8
0
 62
256
370
13
 48
1.0
  6
BYLAYER
100
AcDbLine
 10
74.0000000000000142
 20
49.3999999999999986
 30
0.0
 11
74.0000000000000142
 21
57.1000000000000014
 31
0.0
  0
LINE
  5
FD
100
AcDbEntity
  8
0
 62
256
370
13
 48
1.0
  6
BYLAYER
100
AcDbLine
 10
106.0000000000000284
 20
49.3999999999999986
 30
0.0
 11
106.0000000000000284
 21
57.1000000000000014
 31
0.0
  0
LINE
  5
FE
100
AcDbEntity
  8
0
 62
256
370
13
 48
1.0
  6
BYLAYER
100
AcDbLine
 10
74.0000000000000142
 20
81.3999999999999915
 30
0.0
 11
74.0000000000000142
 21
89.0999999999999943
 31
0.0
  0
LINE
  5
FF
100
AcDbEntity
  8
0
 62
256
370
13
 48
1.0
  6
BYLAYER
100
AcDbLine
 10
106.0000000000000284
 20
81.3999999999999915
 30
0.0
 11
106.0000000000000284
 21
89.0999999999999943
 31
0.0
  0
LINE
  5
100
100
AcDbEntity
  8
0
 62
256
370
13
 48
1.0
  6
BYLAYER
100
AcDbLine
 10
139.0
 20
17.3999999999999986
 30
0.0
 11
139.0
 21
25.1000000000000014
 31
0.0
  0
LINE
  5
101
100
AcDbEntity
  8
0
 62
256
370
13
 48
1.0
  6
BYLAYER
100
AcDbLine
 10
171.0
 20
17.3999999999999986
 30
0.0
 11
171.0
 21
25.1000000000000014
 31
0.0
  0
LINE
  5
102
100
AcDbEntity
  8
0
 62
256
370
13
 48
1.0
  6
BYLAYER
100
AcDbLine
 10
139.0
 20
49.3999999999999986
 30
0.0
 11
139.0
 21
57.1000000000000014
 31
0.0
  0
LINE
  5
103
100
AcDbEntity
  8
0
 62
256
370
13
 48
1.0
  6
BYLAYER
100
AcDbLine
 10
171.0
 20
49.3999999999999986
 30
0.0
 11
171.0
 21
57.1000000000000014
 31
0.0
  0
LINE
  5
104
100
AcDbEntity
  8
0
 62
256
370
13
 48
1.0
  6
BYLAYER
100
AcDbLine
 10
139.0
 20
81.3999999999999915
 30
0.0
 11
139.0
 21
89.0999999999999943
 31
0.0
  0
LINE
  5
105
100
AcDbEntity
  8
0
 62
256
370
13
 48
1.0
  6
BYLAYER
100
AcDbLine
 10
171.0
 20
81.3999999999999915
 30
0.0
 11
171.0
 21
89.0999999999999943
 31
0.0
  0
LINE
  5
106
100
AcDbEntity
  8
0
 62
256
370
13
 48
1.0
  6
BYLAYER
100
AcDbLine
 10
202.9999999999999716
 20
17.3999999999999986
 30
0.0
 11
202.9999999999999716
 21
25.1000000000000014
 31
0.0
  0
LINE
  5
107
100
AcDbEntity
  8
0
 62
256
370
13
 48
1.0
  6
BYLAYER
100
AcDbLine
 10
234.9999999999999716
 20
17.3999999999999986
 30
0.0
 11
234.9999999999999716
 21
25.1000000000000014
 31
0.0
  0
LINE
  5
108
100
AcDbEntity
  8
0
 62
256
370
13
 48
1.0
  6
BYLAYER
100
AcDbLine
 10
202.9999999999999716
 20
49.3999999999999986
 30
0.0
 11
202.9999999999999716
 21
57.1000000000000014
 31
0.0
  0
LINE
  5
109
100
AcDbEntity
  8
0
 62
256
370
13
 48
1.0
  6
BYLAYER
100
AcDbLine
 10
234.9999999999999716
 20
49.3999999999999986
 30
0.0
 11
234.9999999999999716
 21
57.1000000000000014
 31
0.0
  0
LINE
  5
10A
100
AcDbEntity
  8
0
 62
256
370
13
 48
1.0
  6
BYLAYER
100
AcDbLine
 10
202.9999999999999716
 20
81.3999999999999915
 30
0.0
 11
202.9999999999999716
 21
89.0999999999999943
 31
0.0
  0
LINE
  5
10B
100
AcDbEntity
  8
0
 62
256
370
13
 48
1.0
  6
BYLAYER
100
AcDbLine
 10
234.9999999999999716
 20
81.3999999999999915
 30
0.0
 11
234.9999999999999716
 21
89.0999999999999943
 31
0.0
  0
LINE
  5
10C
100
AcDbEntity
  8
0
 62
256
370
13
 48
1.0
  6
BYLAYER
100
AcDbLine
 10
9.9999999999999964
 20
32.3999999999999986
 30
0.0
 11
10.0
 21
40.0
 31
0.0
  0
LINE
  5
10D
100
AcDbEntity
  8
0
 62
256
370
13
 48
1.0
  6
BYLAYER
100
AcDbLine
 10
42.0
 20
32.3999999999999986
 30
0.0
 11
42.0000000000000071
 21
40.0
 31
0.0
  0
LINE
  5
10E
100
AcDbEntity
  8
0
 62
256
370
13
 48
1.0
  6
BYLAYER
100
AcDbLine
 10
10.0000000000000053
 20
64.4000000000000057
 30
0.0
 11
10.0000000000000089
 21
72.0
 31
0.0
  0
LINE
  5
10F
100
AcDbEntity
  8
0
 62
256
370
13
 48
1.0
  6
BYLAYER
100
AcDbLine
 10
42.0000000000000071
 20
64.4000000000000057
 30
0.0
 11
42.0000000000000142
 21
72.0
 31
0.0
  0
LINE
  5
110
100
AcDbEntity
  8
0
 62
256
370
13
 48
1.0
  6
BYLAYER
100
AcDbLine
 10
10.0000000000000053
 20
96.4000000000000057
 30
0.0
 11
10.0000000000000089
 21
104.0
 31
0.0
  0
LINE
  5
111
100
AcDbEntity
  8
0
 62
256
370
13
 48
1.0
  6
BYLAYER
100
AcDbLine
 10
42.0000000000000071
 20
96.4000000000000057
 30
0.0
 11
42.0000000000000142
 21
104.0
 31
0.0
  0
LINE
  5
112
100
AcDbEntity
  8
0
 62
256
370
13
 48
1.0
  6
BYLAYER
100
AcDbLine
 10
74.0000000000000142
 20
32.3999999999999986
 30
0.0
 11
74.0000000000000142
 21
40.0
 31
0.0
  0
LINE
  5
113
100
AcDbEntity
  8
0
 62
256
370
13
 48
1.0
  6
BYLAYER
100
AcDbLine
 10
106.0000000000000142
 20
32.3999999999999986
 30
0.0
 11
106.0000000000000284
 21
40.0
 31
0.0
  0
LINE
  5
114
100
AcDbEntity
  8
0
 62
256
370
13
 48
1.0
  6
BYLAYER
100
AcDbLine
 10
74.0000000000000142
 20
64.4000000000000057
 30
0.0
 11
74.0000000000000284
 21
72.0
 31
0.0
  0
LINE
  5
115
100
AcDbEntity
  8
0
 62
256
370
13
 48
1.0
  6
BYLAYER
100
AcDbLine
 10
106.0000000000000284
 20
64.4000000000000057
 30
0.0
 11
106.0000000000000284
 21
72.0
 31
0.0
  0
LINE
  5
116
100
AcDbEntity
  8
0
 62
256
370
13
 48
1.0
  6
BYLAYER
100
AcDbLine
 10
74.0000000000000142
 20
96.4000000000000057
 30
0.0
 11
74.0000000000000284
 21
104.0
 31
0.0
  0
LINE
  5
117
100
AcDbEntity
  8
0
 62
256
370
13
 48
1.0
  6
BYLAYER
100
AcDbLine
 10
106.0000000000000284
 20
96.4000000000000057
 30
0.0
 11
106.0000000000000284
 21
104.0
 31
0.0
  0
LINE
  5
118
100
AcDbEntity
  8
0
 62
256
370
13
 48
1.0
  6
BYLAYER
100
AcDbLine
 10
139.0
 20
32.3999999999999986
 30
0.0
 11
139.0
 21
40.0
 31
0.0
  0
LINE
  5
119
100
AcDbEntity
  8
0
 62
256
370
13
 48
1.0
  6
BYLAYER
100
AcDbLine
 10
171.0
 20
32.3999999999999986
 30
0.0
 11
171.0
 21
40.0
 31
0.0
  0
LINE
  5
11A
100
AcDbEntity
  8
0
 62
256
370
13
 48
1.0
  6
BYLAYER
100
AcDbLine
 10
139.0
 20
64.4000000000000057
 30
0.0
 11
139.0
 21
72.0
 31
0.0
  0
LINE
  5
11B
100
AcDbEntity
  8
0
 62
256
370
13
 48
1.0
  6
BYLAYER
100
AcDbLine
 10
171.0
 20
64.4000000000000057
 30
0.0
 11
171.0
 21
72.0
 31
0.0
  0
LINE
  5
11C
100
AcDbEntity
  8
0
 62
256
370
13
 48
1.0
  6
BYLAYER
100
AcDbLine
 10
139.0
 20
96.4000000000000057
 30
0.0
 11
139.0
 21
104.0
 31
0.0
  0
LINE
  5
11D
100
AcDbEntity
  8
0
 62
256
370
13
 48
1.0
  6
BYLAYER
100
AcDbLine
 10
171.0
 20
96.4000000000000057
 30
0.0
 11
171.0
 21
104.0
 31
0.0
  0
LINE
  5
11E
100
AcDbEntity
  8
0
 62
256
370
13
 48
1.0
  6
BYLAYER
100
AcDbLine
 10
202.9999999999999716
 20
32.3999999999999986
 30
0.0
 11
202.9999999999999716
 21
40.0
 31
0.0
  0
LINE
  5
11F
100
AcDbEntity
  8
0
 62
256
370
13
 48
1.0
  6
BYLAYER
100
AcDbLine
 10
234.9999999999999716
 20
32.3999999999999986
 30
0.0
 11
234.9999999999999716
 21
40.0
 31
0.0
  0
LINE
  5
120
100
AcDbEntity
  8
0
 62
256
370
13
 48
1.0
  6
BYLAYER
100
AcDbLine
 10
202.9999999999999716
 20
64.4000000000000057
 30
0.0
 11
202.9999999999999716
 21
72.0
 31
0.0
  0
LINE
  5
121
100
AcDbEntity
  8
0
 62
256
370
13
 48
1.0
  6
BYLAYER
100
AcDbLine
 10
234.9999999999999716
 20
64.4000000000000057
 30
0.0
 11
234.9999999999999716
 21
72.0
 31
0.0
  0
LINE
  5
122
100
AcDbEntity
  8
0
 62
256
370
13
 48
1.0
  6
BYLAYER
100
AcDbLine
 10
202.9999999999999716
 20
96.4000000000000057
 30
0.0
 11
202.9999999999999716
 21
104.0
 31
0.0
  0
LINE
  5
123
100
AcDbEntity
  8
0
 62
256
370
13
 48
1.0
  6
BYLAYER
100
AcDbLine
 10
234.9999999999999716
 20
96.4000000000000057
 30
0.0
 11
234.9999999999999716
 21
104.0
 31
0.0
  0
MTEXT
  5
124
100
AcDbEntity
  8
text
 62
256
370
-1
 48
1.0
  6
BYLAYER
100
AcDbMText
 10
25.0
 20
25.0000000000000036
 30
0.0
 40
5.0
 41
0.0
 71
5
 72
1
  1
ClasseLab
  7
textstyle0
 50
315.0
 73
2
 44
1.0
  0
MTEXT
  5
125
100
AcDbEntity
  8
text
 62
256
370
-1
 48
1.0
  6
BYLAYER
100
AcDbMText
 10
89.0000000000000142
 20
25.0000000000000036
 30
0.0
 40
5.0
 41
0.0
 71
5
 72
1
  1
ClasseLab
  7
textstyle1
 50
315.0
 73
2
 44
1.0
  0
MTEXT
  5
126
100
AcDbEntity
  8
text
 62
256
370
-1
 48
1.0
  6
BYLAYER
100
AcDbMText
 10
154.0
 20
25.0000000000000036
 30
0.0
 40
5.0
 41
0.0
 71
5
 72
1
  1
ClasseLab
  7
textstyle2
 50
315.0
 73
2
 44
1.0
  0
MTEXT
  5
127
100
AcDbEntity
  8
text
 62
256
370
-1
 48
1.0
  6
BYLAYER
100
AcDbMText
 10
217.9999999999999716
 20
25.0000000000000213
 30
0.0
 40
5.0
 41
0.0
 71
5
 72
1
  1
ClasseLab
  7
textstyle3
 50
315.0
 73
2
 44
1.0
  0
LINE
  5
128
100
AcDbEntity
  8
0
 62
256
370
13
 48
1.0
  6
BYLAYER
100
AcDbLine
 10
24.8999999999999986
 20
37.5
 30
0.0
 11
17.5999999999999979
 21
37.5
 31
0.0
  0
LINE
  5
129
100
AcDbEntity
  8
0
 62
256
370
13
 48
1.0
  6
BYLAYER
100
AcDbLine
 10
56.9000000000000057
 20
37.5
 30
0.0
 11
49.6000000000000085
 21
37.5
 31
0.0
  0
LINE
  5
12A
100
AcDbEntity
  8
0
 62
256
370
13
 48
1.0
  6
BYLAYER
100
AcDbLine
 10
24.9000000000000057
 20
69.5
 30
0.0
 11
17.6000000000000085
 21
69.5
 31
0.0
  0
LINE
  5
12B
100
AcDbEntity
  8
0
 62
256
370
13
 48
1.0
  6
BYLAYER
100
AcDbLine
 10
56.9000000000000128
 20
69.5
 30
0.0
 11
49.6000000000000156
 21
69.5
 31
0.0
  0
LINE
  5
12C
100
AcDbEntity
  8
0
 62
256
370
13
 48
1.0
  6
BYLAYER
100
AcDbLine
 10
24.9000000000000057
 20
101.5
 30
0.0
 11
17.6000000000000085
 21
101.5
 31
0.0
  0
LINE
  5
12D
100
AcDbEntity
  8
0
 62
256
370
13
 48
1.0
  6
BYLAYER
100
AcDbLine
 10
56.9000000000000128
 20
101.5
 30
0.0
 11
49.6000000000000156
 21
101.5
 31
0.0
  0
LINE
  5
12E
100
AcDbEntity
  8
0
 62
256
370
13
 48
1.0
  6
BYLAYER
100
AcDbLine
 10
88.9000000000000057
 20
37.5
 30
0.0
 11
81.6000000000000085
 21
37.5
 31
0.0
  0
LINE
  5
12F
100
AcDbEntity
  8
0
 62
256
370
13
 48
1.0
  6
BYLAYER
100
AcDbLine
 10
120.9000000000000199
 20
37.5
 30
0.0
 11
113.6000000000000227
 21
37.5
 31
0.0
  0
LINE
  5
130
100
AcDbEntity
  8
0
 62
256
370
13
 48
1.0
  6
BYLAYER
100
AcDbLine
 10
88.9000000000000199
 20
69.5
 30
0.0
 11
81.6000000000000227
 21
69.5
 31
0.0
  0
LINE
  5
131
100
AcDbEntity
  8
0
 62
256
370
13
 48
1.0
  6
BYLAYER
100
AcDbLine
 10
120.9000000000000341
 20
69.5
 30
0.0
 11
113.6000000000000227
 21
69.5
 31
0.0
  0
LINE
  5
132
100
AcDbEntity
  8
0
 62
256
370
13
 48
1.0
  6
BYLAYER
100
AcDbLine
 10
88.9000000000000199
 20
101.5
 30
0.0
 11
81.6000000000000227
 21
101.5
 31
0.0
  0
LINE
  5
133
100
AcDbEntity
  8
0
 62
256
370
13
 48
1.0
  6
BYLAYER
100
AcDbLine
 10
120.9000000000000341
 20
101.5
 30
0.0
 11
113.6000000000000227
 21
101.5
 31
0.0
  0
LINE
  5
134
100
AcDbEntity
  8
0
 62
256
370
13
 48
1.0
  6
BYLAYER
100
AcDbLine
 10
153.9000000000000057
 20
37.5
 30
0.0
 11
146.5999999999999943
 21
37.5
 31
0.0
  0
LINE
  5
135
100
AcDbEntity
  8
0
 62
256
370
13
 48
1.0
  6
BYLAYER
100
AcDbLine
 10
185.9000000000000057
 20
37.5
 30
0.0
 11
178.6000000000000227
 21
37.5
 31
0.0
  0
LINE
  5
136
100
AcDbEntity
  8
0
 62
256
370
13
 48
1.0
  6
BYLAYER
100
AcDbLine
 10
153.9000000000000057
 20
69.5
 30
0.0
 11
146.6000000000000227
 21
69.5
 31
0.0
  0
LINE
  5
137
100
AcDbEntity
  8
0
 62
256
370
13
 48
1.0
  6
BYLAYER
100
AcDbLine
 10
185.9000000000000057
 20
69.5
 30
0.0
 11
178.6000000000000227
 21
69.5
 31
0.0
  0
LINE
  5
138
100
AcDbEntity
  8
0
 62
256
370
13
 48
1.0
  6
BYLAYER
100
AcDbLine
 10
153.9000000000000057
 20
101.5
 30
0.0
 11
146.6000000000000227
 21
101.5
 31
0.0
  0
LINE
  5
139
100
AcDbEntity
  8
0
 62
256
370
13
 48
1.0
  6
BYLAYER
100
AcDbLine
 10
185.9000000000000057
 20
101.5
 30
0.0
 11
178.6000000000000227
 21
101.5
 31
0.0
  0
LINE
  5
13A
100
AcDbEntity
  8
0
 62
256
370
13
 48
1.0
  6
BYLAYER
100
AcDbLine
 10
217.8999999999999773
 20
37.5
 30
0.0
 11
210.5999999999999659
 21
37.5
 31
0.0
  0
LINE
  5
13B
100
AcDbEntity
  8
0
 62
256
370
13
 48
1.0
  6
BYLAYER
100
AcDbLine
 10
249.8999999999999773
 20
37.5
 30
0.0
 11
242.5999999999999943
 21
37.5
 31
0.0
  0
LINE
  5
13C
100
AcDbEntity
  8
0
 62
256
370
13
 48
1.0
  6
BYLAYER
100
AcDbLine
 10
217.8999999999999773
 20
69.5
 30
0.0
 11
210.5999999999999943
 21
69.5
 31
0.0
  0
LINE
  5
13D
100
AcDbEntity
  8
0
 62
256
370
13
 48
1.0
  6
BYLAYER
100
AcDbLine
 10
249.8999999999999773
 20
69.5
 30
0.0
 11
242.5999999999999943
 21
69.5
 31
0.0
  0
LINE
  5
13E
100
AcDbEntity
  8
0
 62
256
370
13
 48
1.0
  6
BYLAYER
100
AcDbLine
 10
217.8999999999999773
 20
101.5
 30
0.0
 11
210.5999999999999943
 21
101.5
 31
0.0
  0
LINE
  5
13F
100
AcDbEntity
  8
0
 62
256
370
13
 48
1.0
  6
BYLAYER
100
AcDbLine
 10
249.8999999999999773
 20
101.5
 30
0.0
 11
242.5999999999999943
 21
101.5
 31
0.0
  0
LINE
  5
140
100
AcDbEntity
  8
0
 62
256
370
13
 48
1.0
  6
BYLAYER
100
AcDbLine
 10
12.5
 20
25.1000000000000014
 30
0.0
 11
12.4999999999999964
 21
32.4000000000000057
 31
0.0
  0
LINE
  5
141
100
AcDbEntity
  8
0
 62
256
370
13
 48
1.0
  6
BYLAYER
100
AcDbLine
 10
44.5000000000000071
 20
25.1000000000000014
 30
0.0
 11
44.5
 21
32.4000000000000057
 31
0.0
  0
LINE
  5
142
100
AcDbEntity
  8
0
 62
256
370
13
 48
1.0
  6
BYLAYER
100
AcDbLine
 10
12.5000000000000089
 20
57.1000000000000014
 30
0.0
 11
12.5000000000000053
 21
64.4000000000000057
 31
0.0
  0
LINE
  5
143
100
AcDbEntity
  8
0
 62
256
370
13
 48
1.0
  6
BYLAYER
100
AcDbLine
 10
44.5000000000000142
 20
57.1000000000000014
 30
0.0
 11
44.5000000000000071
 21
64.4000000000000057
 31
0.0
  0
LINE
  5
144
100
AcDbEntity
  8
0
 62
256
370
13
 48
1.0
  6
BYLAYER
100
AcDbLine
 10
12.5000000000000089
 20
89.0999999999999943
 30
0.0
 11
12.5000000000000053
 21
96.4000000000000057
 31
0.0
  0
LINE
  5
145
100
AcDbEntity
  8
0
 62
256
370
13
 48
1.0
  6
BYLAYER
100
AcDbLine
 10
44.5000000000000142
 20
89.0999999999999943
 30
0.0
 11
44.5000000000000071
 21
96.4000000000000057
 31
0.0
  0
LINE
  5
146
100
AcDbEntity
  8
0
 62
256
370
13
 48
1.0
  6
BYLAYER
100
AcDbLine
 10
76.5000000000000142
 20
25.1000000000000014
 30
0.0
 11
76.5000000000000142
 21
32.4000000000000057
 31
0.0
  0
LINE
  5
147
100
AcDbEntity
  8
0
 62
256
370
13
 48
1.0
  6
BYLAYER
100
AcDbLine
 10
108.5000000000000284
 20
25.1000000000000014
 30
0.0
 11
108.5000000000000142
 21
32.4000000000000057
 31
0.0
  0
LINE
  5
148
100
AcDbEntity
  8
0
 62
256
370
13
 48
1.0
  6
BYLAYER
100
AcDbLine
 10
76.5000000000000284
 20
57.1000000000000014
 30
0.0
 11
76.5000000000000142
 21
64.4000000000000057
 31
0.0
  0
LINE
  5
149
100
AcDbEntity
  8
0
 62
256
370
13
 48
1.0
  6
BYLAYER
100
AcDbLine
 10
108.5000000000000284
 20
57.1000000000000014
 30
0.0
 11
108.5000000000000284
 21
64.4000000000000057
 31
0.0
  0
LINE
  5
14A
100
AcDbEntity
  8
0
 62
256
370
13
 48
1.0
  6
BYLAYER
100
AcDbLine
 10
76.5000000000000284
 20
89.0999999999999943
 30
0.0
 11
76.5000000000000142
 21
96.4000000000000057
 31
0.0
  0
LINE
  5
14B
100
AcDbEntity
  8
0
 62
256
370
13
 48
1.0
  6
BYLAYER
100
AcDbLine
 10
108.5000000000000284
 20
89.0999999999999943
 30
0.0
 11
108.5000000000000284
 21
96.4000000000000057
 31
0.0
  0
LINE
  5
14C
100
AcDbEntity
  8
0
 62
256
370
13
 48
1.0
  6
BYLAYER
100
AcDbLine
 10
141.5
 20
25.1000000000000014
 30
0.0
 11
141.5
 21
32.4000000000000057
 31
0.0
  0
LINE
  5
14D
100
AcDbEntity
  8
0
 62
256
370
13
 48
1.0
  6
BYLAYER
100
AcDbLine
 10
173.5
 20
25.1000000000000014
 30
0.0
 11
173.5
 21
32.4000000000000057
 31
0.0
  0
LINE
  5
14E
100
AcDbEntity
  8
0
 62
256
370
13
 48
1.0
  6
BYLAYER
100
AcDbLine
 10
141.5
 20
57.1000000000000014
 30
0.0
 11
141.5
 21
64.4000000000000057
 31
0.0
  0
LINE
  5
14F
100
AcDbEntity
  8
0
 62
256
370
13
 48
1.0
  6
BYLAYER
100
AcDbLine
 10
173.5
 20
57.1000000000000014
 30
0.0
 11
173.5
 21
64.4000000000000057
 31
0.0
  0
LINE
  5
150
100
AcDbEntity
  8
0
 62
256
370
13
 48
1.0
  6
BYLAYER
100
AcDbLine
 10
141.5
 20
89.0999999999999943
 30
0.0
 11
141.5
 21
96.4000000000000057
 31
0.0
  0
LINE
  5
151
100
AcDbEntity
  8
0
 62
256
370
13
 48
1.0
  6
BYLAYER
100
AcDbLine
 10
173.5
 20
89.0999999999999943
 30
0.0
 11
173.5
 21
96.4000000000000057
 31
0.0
  0
LINE
  5
152
100
AcDbEntity
  8
0
 62
256
370
13
 48
1.0
  6
BYLAYER
100
AcDbLine
 10
205.4999999999999716
 20
25.1000000000000014
 30
0.0
 11
205.4999999999999716
 21
32.4000000000000057
 31
0.0
  0
LINE
  5
153
100
AcDbEntity
  8
0
 62
256
370
13
 48
1.0
  6
BYLAYER
100
AcDbLine
 10
237.4999999999999716
 20
25.1000000000000014
 30
0.0
 11
237.4999999999999716
 21
32.4000000000000057
 31
0.0
  0
LINE
  5
154
100
AcDbEntity
  8
0
 62
256
370
13
 48
1.0
  6
BYLAYER
100
AcDbLine
 10
205.4999999999999716
 20
57.1000000000000014
 30
0.0
 11
205.4999999999999716
 21
64.4000000000000057
 31
0.0
  0
LINE
  5
155
100
AcDbEntity
  8
0
 62
256
370
13
 48
1.0
  6
BYLAYER
100
AcDbLine
 10
237.4999999999999716
 20
57.1000000000000014
 30
0.0
 11
237.4999999999999716
 21
64.4000000000000057
 31
0.0
  0
LINE
  5
156
100
AcDbEntity
  8
0
 62
256
370
13
 48
1.0
  6
BYLAYER
100
AcDbLine
 10
205.4999999999999716
 20
89.0999999999999943
 30
0.0
 11
205.4999999999999716
 21
96.4000000000000057
 31
0.0
  0
LINE
  5
157
100
AcDbEntity
  8
0
 62
256
370
13
 48
1.0
  6
BYLAYER
100
AcDbLine
 10
237.4999999999999716
 20
89.0999999999999943
 30
0.0
 11
237.4999999999999716
 21
96.4000000000000057
 31
0.0
  0
LINE
  5
158
100
AcDbEntity
  8
0
 62
256
370
13
 48
1.0
  6
BYLAYER
100
AcDbLine
 10
40.0
 20
37.5
 30
0.0
 11
32.6000000000000014
 21
37.5
 31
0.0
  0
LINE
  5
159
100
AcDbEntity
  8
0
 62
256
370
13
 48
1.0
  6
BYLAYER
100
AcDbLine
 10
72.0
 20
37.5
 30
0.0
 11
64.6000000000000085
 21
37.5
 31
0.0
  0
LINE
  5
15A
100
AcDbEntity
  8
0
 62
256
370
13
 48
1.0
  6
BYLAYER
100
AcDbLine
 10
40.0000000000000071
 20
69.5
 30
0.0
 11
32.6000000000000085
 21
69.5
 31
0.0
  0
LINE
  5
15B
100
AcDbEntity
  8
0
 62
256
370
13
 48
1.0
  6
BYLAYER
100
AcDbLine
 10
72.0000000000000142
 20
69.5
 30
0.0
 11
64.6000000000000227
 21
69.5
 31
0.0
  0
LINE
  5
15C
100
AcDbEntity
  8
0
 62
256
370
13
 48
1.0
  6
BYLAYER
100
AcDbLine
 10
40.0000000000000071
 20
101.5
 30
0.0
 11
32.6000000000000085
 21
101.5
 31
0.0
  0
LINE
  5
15D
100
AcDbEntity
  8
0
 62
256
370
13
 48
1.0
  6
BYLAYER
100
AcDbLine
 10
72.0000000000000142
 20
101.5
 30
0.0
 11
64.6000000000000227
 21
101.5
 31
0.0
  0
LINE
  5
15E
100
AcDbEntity
  8
0
 62
256
370
13
 48
1.0
  6
BYLAYER
100
AcDbLine
 10
104.0000000000000142
 20
37.5
 30
0.0
 11
96.6000000000000227
 21
37.5
 31
0.0
  0
LINE
  5
15F
100
AcDbEntity
  8
0
 62
256
370
13
 48
1.0
  6
BYLAYER
100
AcDbLine
 10
136.0
 20
37.5
 30
0.0
 11
128.6000000000000227
 21
37.5
 31
0.0
  0
LINE
  5
160
100
AcDbEntity
  8
0
 62
256
370
13
 48
1.0
  6
BYLAYER
100
AcDbLine
 10
104.0000000000000284
 20
69.5
 30
0.0
 11
96.6000000000000227
 21
69.5
 31
0.0
  0
LINE
  5
161
100
AcDbEntity
  8
0
 62
256
370
13
 48
1.0
  6
BYLAYER
100
AcDbLine
 10
136.0000000000000284
 20
69.5
 30
0.0
 11
128.6000000000000227
 21
69.5
 31
0.0
  0
LINE
  5
162
100
AcDbEntity
  8
0
 62
256
370
13
 48
1.0
  6
BYLAYER
100
AcDbLine
 10
104.0000000000000284
 20
101.5
 30
0.0
 11
96.6000000000000227
 21
101.5
 31
0.0
  0
LINE
  5
163
100
AcDbEntity
  8
0
 62
256
370
13
 48
1.0
  6
BYLAYER
100
AcDbLine
 10
136.0000000000000284
 20
101.5
 30
0.0
 11
128.6000000000000227
 21
101.5
 31
0.0
  0
LINE
  5
164
100
AcDbEntity
  8
0
 62
256
370
13
 48
1.0
  6
BYLAYER
100
AcDbLine
 10
169.0
 20
37.5
 30
0.0
 11
161.5999999999999943
 21
37.5
 31
0.0
  0
LINE
  5
165
100
AcDbEntity
  8
0
 62
256
370
13
 48
1.0
  6
BYLAYER
100
AcDbLine
 10
201.0
 20
37.5
 30
0.0
 11
193.6000000000000227
 21
37.5
 31
0.0
  0
LINE
  5
166
100
AcDbEntity
  8
0
 62
256
370
13
 48
1.0
  6
BYLAYER
100
AcDbLine
 10
169.0
 20
69.5
 30
0.0
 11
161.6000000000000227
 21
69.5
 31
0.0
  0
LINE
  5
167
100
AcDbEntity
  8
0
 62
256
370
13
 48
1.0
  6
BYLAYER
100
AcDbLine
 10
201.0
 20
69.5
 30
0.0
 11
193.6000000000000227
 21
69.5
 31
0.0
  0
LINE
  5
168
100
AcDbEntity
  8
0
 62
256
370
13
 48
1.0
  6
BYLAYER
100
AcDbLine
 10
169.0
 20
101.5
 30
0.0
 11
161.6000000000000227
 21
101.5
 31
0.0
  0
LINE
  5
169
100
AcDbEntity
  8
0
 62
256
370
13
 48
1.0
  6
BYLAYER
100
AcDbLine
 10
201.0
 20
101.5
 30
0.0
 11
193.6000000000000227
 21
101.5
 31
0.0
  0
LINE
  5
16A
100
AcDbEntity
  8
0
 62
256
370
13
 48
1.0
  6
BYLAYER
100
AcDbLine
 10
232.9999999999999716
 20
37.5
 30
0.0
 11
225.5999999999999659
 21
37.5
 31
0.0
  0
LINE
  5
16B
100
AcDbEntity
  8
0
 62
256
370
13
 48
1.0
  6
BYLAYER
100
AcDbLine
 10
265.0
 20
37.5
 30
0.0
 11
257.6000000000000227
 21
37.5
 31
0.0
  0
LINE
  5
16C
100
AcDbEntity
  8
0
 62
256
370
13
 48
1.0
  6
BYLAYER
100
AcDbLine
 10
232.9999999999999716
 20
69.5
 30
0.0
 11
225.5999999999999943
 21
69.5
 31
0.0
  0
LINE
  5
16D
100
AcDbEntity
  8
0
 62
256
370
13
 48
1.0
  6
BYLAYER
100
AcDbLine
 10
265.0
 20
69.5
 30
0.0
 11
257.6000000000000227
 21
69.5
 31
0.0
  0
LINE
  5
16E
100
AcDbEntity
  8
0
 62
256
370
13
 48
1.0
  6
BYLAYER
100
AcDbLine
 10
232.9999999999999716
 20
101.5
 30
0.0
 11
225.5999999999999943
 21
101.5
 31
0.0
  0
LINE
  5
16F
100
AcDbEntity
  8
0
 62
256
370
13
 48
1.0
  6
BYLAYER
100
AcDbLine
 10
265.0
 20
101.5
 30
0.0
 11
257.6000000000000227
 21
101.5
 31
0.0
  0
LINE
  5
170
100
AcDbEntity
  8
0
 62
256
370
13
 48
1.0
  6
BYLAYER
100
AcDbLine
 10
12.4999999999999769
 20
42.0
 30
0.0
 11
12.4999999999999876
 21
49.3999999999999986
 31
0.0
  0
LINE
  5
171
100
AcDbEntity
  8
0
 62
256
370
13
 48
1.0
  6
BYLAYER
100
AcDbLine
 10
44.4999999999999787
 20
42.0
 30
0.0
 11
44.4999999999999929
 21
49.3999999999999986
 31
0.0
  0
LINE
  5
172
100
AcDbEntity
  8
0
 62
256
370
13
 48
1.0
  6
BYLAYER
100
AcDbLine
 10
12.4999999999999769
 20
74.0
 30
0.0
 11
12.4999999999999876
 21
81.3999999999999915
 31
0.0
  0
LINE
  5
173
100
AcDbEntity
  8
0
 62
256
370
13
 48
1.0
  6
BYLAYER
100
AcDbLine
 10
44.4999999999999787
 20
74.0
 30
0.0
 11
44.4999999999999929
 21
81.3999999999999915
 31
0.0
  0
LINE
  5
174
100
AcDbEntity
  8
0
 62
256
370
13
 48
1.0
  6
BYLAYER
100
AcDbLine
 10
12.4999999999999716
 20
12.4999999999999982
 30
0.0
 11
12.4999999999999787
 21
17.3999999999999986
 31
0.0
  0
LINE
  5
175
100
AcDbEntity
  8
0
 62
256
370
13
 48
1.0
  6
BYLAYER
100
AcDbLine
 10
44.4999999999999787
 20
12.4999999999999982
 30
0.0
 11
44.4999999999999858
 21
17.3999999999999986
 31
0.0
  0
LINE
  5
176
100
AcDbEntity
  8
0
 62
256
370
13
 48
1.0
  6
BYLAYER
100
AcDbLine
 10
76.4999999999999858
 20
42.0
 30
0.0
 11
76.5
 21
49.3999999999999986
 31
0.0
  0
LINE
  5
177
100
AcDbEntity
  8
0
 62
256
370
13
 48
1.0
  6
BYLAYER
100
AcDbLine
 10
108.5
 20
42.0
 30
0.0
 11
108.5
 21
49.3999999999999986
 31
0.0
  0
LINE
  5
178
100
AcDbEntity
  8
0
 62
256
370
13
 48
1.0
  6
BYLAYER
100
AcDbLine
 10
76.4999999999999858
 20
74.0
 30
0.0
 11
76.5
 21
81.3999999999999915
 31
0.0
  0
LINE
  5
179
100
AcDbEntity
  8
0
 62
256
370
13
 48
1.0
  6
BYLAYER
100
AcDbLine
 10
108.5
 20
74.0
 30
0.0
 11
108.5
 21
81.3999999999999915
 31
0.0
  0
LINE
  5
17A
100
AcDbEntity
  8
0
 62
256
370
13
 48
1.0
  6
BYLAYER
100
AcDbLine
 10
76.4999999999999858
 20
12.4999999999999982
 30
0.0
 11
76.5
 21
17.3999999999999986
 31
0.0
  0
LINE
  5
17B
100
AcDbEntity
  8
0
 62
256
370
13
 48
1.0
  6
BYLAYER
100
AcDbLine
 10
108.5
 20
12.4999999999999982
 30
0.0
 11
108.5
 21
17.3999999999999986
 31
0.0
  0
LINE
  5
17C
100
AcDbEntity
  8
0
 62
256
370
13
 48
1.0
  6
BYLAYER
100
AcDbLine
 10
141.4999999999999716
 20
42.0
 30
0.0
 11
141.5
 21
49.3999999999999986
 31
0.0
  0
LINE
  5
17D
100
AcDbEntity
  8
0
 62
256
370
13
 48
1.0
  6
BYLAYER
100
AcDbLine
 10
173.4999999999999716
 20
42.0
 30
0.0
 11
173.5
 21
49.3999999999999986
 31
0.0
  0
LINE
  5
17E
100
AcDbEntity
  8
0
 62
256
370
13
 48
1.0
  6
BYLAYER
100
AcDbLine
 10
141.4999999999999716
 20
74.0
 30
0.0
 11
141.5
 21
81.3999999999999915
 31
0.0
  0
LINE
  5
17F
100
AcDbEntity
  8
0
 62
256
370
13
 48
1.0
  6
BYLAYER
100
AcDbLine
 10
173.4999999999999716
 20
74.0
 30
0.0
 11
173.5
 21
81.3999999999999915
 31
0.0
  0
LINE
  5
180
100
AcDbEntity
  8
0
 62
256
370
13
 48
1.0
  6
BYLAYER
100
AcDbLine
 10
141.4999999999999716
 20
12.4999999999999982
 30
0.0
 11
141.4999999999999716
 21
17.3999999999999986
 31
0.0
  0
LINE
  5
181
100
AcDbEntity
  8
0
 62
256
370
13
 48
1.0
  6
BYLAYER
100
AcDbLine
 10
173.4999999999999716
 20
12.4999999999999982
 30
0.0
 11
173.5
 21
17.3999999999999986
 31
0.0
  0
LINE
  5
182
100
AcDbEntity
  8
0
 62
256
370
13
 48
1.0
  6
BYLAYER
100
AcDbLine
 10
205.4999999999999432
 20
42.0
 30
0.0
 11
205.4999999999999716
 21
49.3999999999999986
 31
0.0
  0
LINE
  5
183
100
AcDbEntity
  8
0
 62
256
370
13
 48
1.0
  6
BYLAYER
100
AcDbLine
 10
237.4999999999999432
 20
42.0
 30
0.0
 11
237.4999999999999716
 21
49.3999999999999986
 31
0.0
  0
LINE
  5
184
100
AcDbEntity
  8
0
 62
256
370
13
 48
1.0
  6
BYLAYER
100
AcDbLine
 10
205.4999999999999432
 20
74.0
 30
0.0
 11
205.4999999999999716
 21
81.3999999999999915
 31
0.0
  0
LINE
  5
185
100
AcDbEntity
  8
0
 62
256
370
13
 48
1.0
  6
BYLAYER
100
AcDbLine
 10
237.4999999999999432
 20
74.0
 30
0.0
 11
237.4999999999999716
 21
81.3999999999999915
 31
0.0
  0
LINE
  5
186
100
AcDbEntity
  8
0
 62
256
370
13
 48
1.0
  6
BYLAYER
100
AcDbLine
 10
205.4999999999999432
 20
12.4999999999999964
 30
0.0
 11
205.4999999999999432
 21
17.3999999999999986
 31
0.0
  0
LINE
  5
187
100
AcDbEntity
  8
0
 62
256
370
13
 48
1.0
  6
BYLAYER
100
AcDbLine
 10
237.4999999999999432
 20
12.4999999999999964
 30
0.0
 11
237.4999999999999716
 21
17.3999999999999986
 31
0.0
  0
LINE
  5
188
100
AcDbEntity
  8
0
 62
256
370
13
 48
1.0
  6
BYLAYER
100
AcDbLine
 10
37.5
 20
25.1000000000000014
 30
0.0
 11
37.5
 21
32.3999999999999986
 31
0.0
  0
LINE
  5
189
100
AcDbEntity
  8
0
 62
256
370
13
 48
1.0
  6
BYLAYER
100
AcDbLine
 10
69.5
 20
25.1000000000000014
 30
0.0
 11
69.5
 21
32.3999999999999986
 31
0.0
  0
LINE
  5
18A
100
AcDbEntity
  8
0
 62
256
370
13
 48
1.0
  6
BYLAYER
100
AcDbLine
 10
37.5000000000000071
 20
57.1000000000000014
 30
0.0
 11
37.5000000000000071
 21
64.4000000000000057
 31
0.0
  0
LINE
  5
18B
100
AcDbEntity
  8
0
 62
256
370
13
 48
1.0
  6
BYLAYER
100
AcDbLine
 10
69.5000000000000142
 20
57.1000000000000014
 30
0.0
 11
69.5000000000000142
 21
64.4000000000000057
 31
0.0
  0
LINE
  5
18C
100
AcDbEntity
  8
0
 62
256
370
13
 48
1.0
  6
BYLAYER
100
AcDbLine
 10
37.5000000000000071
 20
89.0999999999999943
 30
0.0
 11
37.5000000000000071
 21
96.4000000000000057
 31
0.0
  0
LINE
  5
18D
100
AcDbEntity
  8
0
 62
256
370
13
 48
1.0
  6
BYLAYER
100
AcDbLine
 10
69.5000000000000142
 20
89.0999999999999943
 30
0.0
 11
69.5000000000000142
 21
96.4000000000000057
 31
0.0
  0
LINE
  5
18E
100
AcDbEntity
  8
0
 62
256
370
13
 48
1.0
  6
BYLAYER
100
AcDbLine
 10
101.5000000000000142
 20
25.1000000000000014
 30
0.0
 11
101.5000000000000142
 21
32.3999999999999986
 31
0.0
  0
LINE
  5
18F
100
AcDbEntity
  8
0
 62
256
370
13
 48
1.0
  6
BYLAYER
100
AcDbLine
 10
133.5
 20
25.1000000000000014
 30
0.0
 11
133.5
 21
32.3999999999999986
 31
0.0
  0
LINE
  5
190
100
AcDbEntity
  8
0
 62
256
370
13
 48
1.0
  6
BYLAYER
100
AcDbLine
 10
101.5000000000000284
 20
57.1000000000000014
 30
0.0
 11
101.5000000000000284
 21
64.4000000000000057
 31
0.0
  0
LINE
  5
191
100
AcDbEntity
  8
0
 62
256
370
13
 48
1.0
  6
BYLAYER
100
AcDbLine
 10
133.5000000000000284
 20
57.1000000000000014
 30
0.0
 11
133.5000000000000284
 21
64.4000000000000057
 31
0.0
  0
LINE
  5
192
100
AcDbEntity
  8
0
 62
256
370
13
 48
1.0
  6
BYLAYER
100
AcDbLine
 10
101.5000000000000284
 20
89.0999999999999943
 30
0.0
 11
101.5000000000000284
 21
96.4000000000000057
 31
0.0
  0
LINE
  5
193
100
AcDbEntity
  8
0
 62
256
370
13
 48
1.0
  6
BYLAYER
100
AcDbLine
 10
133.5000000000000284
 20
89.0999999999999943
 30
0.0
 11
133.5000000000000284
 21
96.4000000000000057
 31
0.0
  0
LINE
  5
194
100
AcDbEntity
  8
0
 62
256
370
13
 48
1.0
  6
BYLAYER
100
AcDbLine
 10
166.5
 20
25.1000000000000014
 30
0.0
 11
166.5
 21
32.3999999999999986
 31
0.0
  0
LINE
  5
195
100
AcDbEntity
  8
0
 62
256
370
13
 48
1.0
  6
BYLAYER
100
AcDbLine
 10
198.5
 20
25.1000000000000014
 30
0.0
 11
198.5
 21
32.3999999999999986
 31
0.0
  0
LINE
  5
196
100
AcDbEntity
  8
0
 62
256
370
13
 48
1.0
  6
BYLAYER
100
AcDbLine
 10
166.5
 20
57.1000000000000014
 30
0.0
 11
166.5
 21
64.4000000000000057
 31
0.0
  0
LINE
  5
197
100
AcDbEntity
  8
0
 62
256
370
13
 48
1.0
  6
BYLAYER
100
AcDbLine
 10
198.5
 20
57.1000000000000014
 30
0.0
 11
198.5
 21
64.4000000000000057
 31
0.0
  0
LINE
  5
198
100
AcDbEntity
  8
0
 62
256
370
13
 48
1.0
  6
BYLAYER
100
AcDbLine
 10
166.5
 20
89.0999999999999943
 30
0.0
 11
166.5
 21
96.4000000000000057
 31
0.0
  0
LINE
  5
199
100
AcDbEntity
  8
0
 62
256
370
13
 48
1.0
  6
BYLAYER
100
AcDbLine
 10
198.5
 20
89.0999999999999943
 30
0.0
 11
198.5
 21
96.4000000000000057
 31
0.0
  0
LINE
  5
19A
100
AcDbEntity
  8
0
 62
256
370
13
 48
1.0
  6
BYLAYER
100
AcDbLine
 10
230.4999999999999716
 20
25.1000000000000014
 30
0.0
 11
230.4999999999999716
 21
32.3999999999999986
 31
0.0
  0
LINE
  5
19B
100
AcDbEntity
  8
0
 62
256
370
13
 48
1.0
  6
BYLAYER
100
AcDbLine
 10
262.5
 20
25.1000000000000014
 30
0.0
 11
262.5
 21
32.3999999999999986
 31
0.0
  0
LINE
  5
19C
100
AcDbEntity
  8
0
 62
256
370
13
 48
1.0
  6
BYLAYER
100
AcDbLine
 10
230.4999999999999716
 20
57.1000000000000014
 30
0.0
 11
230.4999999999999716
 21
64.4000000000000057
 31
0.0
  0
LINE
  5
19D
100
AcDbEntity
  8
0
 62
256
370
13
 48
1.0
  6
BYLAYER
100
AcDbLine
 10
262.5
 20
57.1000000000000014
 30
0.0
 11
262.5
 21
64.4000000000000057
 31
0.0
  0
LINE
  5
19E
100
AcDbEntity
  8
0
 62
256
370
13
 48
1.0
  6
BYLAYER
100
AcDbLine
 10
230.4999999999999716
 20
89.0999999999999943
 30
0.0
 11
230.4999999999999716
 21
96.4000000000000057
 31
0.0
  0
LINE
  5
19F
100
AcDbEntity
  8
0
 62
256
370
13
 48
1.0
  6
BYLAYER
100
AcDbLine
 10
262.5
 20
89.0999999999999943
 30
0.0
 11
262.5
 21
96.4000000000000057
 31
0.0
  0
LINE
  5
1A0
100
AcDbEntity
  8
0
 62
256
370
13
 48
1.0
  6
BYLAYER
100
AcDbLine
 10
24.8999999999999915
 20
12.4999999999999964
 30
0.0
 11
17.6000000000000085
 21
12.5
 31
0.0
  0
LINE
  5
1A1
100
AcDbEntity
  8
0
 62
256
370
13
 48
1.0
  6
BYLAYER
100
AcDbLine
 10
56.8999999999999986
 20
12.4999999999999947
 30
0.0
 11
49.6000000000000156
 21
12.4999999999999982
 31
0.0
  0
LINE
  5
1A2
100
AcDbEntity
  8
0
 62
256
370
13
 48
1.0
  6
BYLAYER
100
AcDbLine
 10
24.8999999999999986
 20
44.5
 30
0.0
 11
17.6000000000000156
 21
44.5
 31
0.0
  0
LINE
  5
1A3
100
AcDbEntity
  8
0
 62
256
370
13
 48
1.0
  6
BYLAYER
100
AcDbLine
 10
56.9000000000000057
 20
44.4999999999999929
 30
0.0
 11
49.6000000000000227
 21
44.5
 31
0.0
  0
LINE
  5
1A4
100
AcDbEntity
  8
0
 62
256
370
13
 48
1.0
  6
BYLAYER
100
AcDbLine
 10
24.8999999999999986
 20
76.5
 30
0.0
 11
17.6000000000000156
 21
76.5
 31
0.0
  0
LINE
  5
1A5
100
AcDbEntity
  8
0
 62
256
370
13
 48
1.0
  6
BYLAYER
100
AcDbLine
 10
56.9000000000000057
 20
76.4999999999999858
 30
0.0
 11
49.6000000000000227
 21
76.5
 31
0.0
  0
LINE
  5
1A6
100
AcDbEntity
  8
0
 62
256
370
13
 48
1.0
  6
BYLAYER
100
AcDbLine
 10
88.9000000000000057
 20
12.4999999999999964
 30
0.0
 11
81.6000000000000227
 21
12.5
 31
0.0
  0
LINE
  5
1A7
100
AcDbEntity
  8
0
 62
256
370
13
 48
1.0
  6
BYLAYER
100
AcDbLine
 10
120.9000000000000057
 20
12.4999999999999947
 30
0.0
 11
113.6000000000000227
 21
12.4999999999999982
 31
0.0
  0
LINE
  5
1A8
100
AcDbEntity
  8
0
 62
256
370
13
 48
1.0
  6
BYLAYER
100
AcDbLine
 10
88.9000000000000057
 20
44.5
 30
0.0
 11
81.6000000000000227
 21
44.5
 31
0.0
  0
LINE
  5
1A9
100
AcDbEntity
  8
0
 62
256
370
13
 48
1.0
  6
BYLAYER
100
AcDbLine
 10
120.9000000000000199
 20
44.4999999999999929
 30
0.0
 11
113.6000000000000369
 21
44.5
 31
0.0
  0
LINE
  5
1AA
100
AcDbEntity
  8
0
 62
256
370
13
 48
1.0
  6
BYLAYER
100
AcDbLine
 10
88.9000000000000057
 20
76.5
 30
0.0
 11
81.6000000000000227
 21
76.5
 31
0.0
  0
LINE
  5
1AB
100
AcDbEntity
  8
0
 62
256
370
13
 48
1.0
  6
BYLAYER
100
AcDbLine
 10
120.9000000000000199
 20
76.4999999999999858
 30
0.0
 11
113.6000000000000369
 21
76.5
 31
0.0
  0
LINE
  5
1AC
100
AcDbEntity
  8
0
 62
256
370
13
 48
1.0
  6
BYLAYER
100
AcDbLine
 10
153.8999999999999773
 20
12.4999999999999964
 30
0.0
 11
146.6000000000000227
 21
12.5
 31
0.0
  0
LINE
  5
1AD
100
AcDbEntity
  8
0
 62
256
370
13
 48
1.0
  6
BYLAYER
100
AcDbLine
 10
185.9000000000000057
 20
12.4999999999999947
 30
0.0
 11
178.6000000000000227
 21
12.4999999999999982
 31
0.0
  0
LINE
  5
1AE
100
AcDbEntity
  8
0
 62
256
370
13
 48
1.0
  6
BYLAYER
100
AcDbLine
 10
153.9000000000000057
 20
44.5
 30
0.0
 11
146.6000000000000227
 21
44.5
 31
0.0
  0
LINE
  5
1AF
100
AcDbEntity
  8
0
 62
256
370
13
 48
1.0
  6
BYLAYER
100
AcDbLine
 10
185.9000000000000057
 20
44.4999999999999929
 30
0.0
 11
178.6000000000000227
 21
44.5
 31
0.0
  0
LINE
  5
1B0
100
AcDbEntity
  8
0
 62
256
370
13
 48
1.0
  6
BYLAYER
100
AcDbLine
 10
153.9000000000000057
 20
76.5
 30
0.0
 11
146.6000000000000227
 21
76.5
 31
0.0
  0
LINE
  5
1B1
100
AcDbEntity
  8
0
 62
256
370
13
 48
1.0
  6
BYLAYER
100
AcDbLine
 10
185.9000000000000057
 20
76.4999999999999858
 30
0.0
 11
178.6000000000000227
 21
76.5
 31
0.0
  0
LINE
  5
1B2
100
AcDbEntity
  8
0
 62
256
370
13
 48
1.0
  6
BYLAYER
100
AcDbLine
 10
217.8999999999999488
 20
12.4999999999999947
 30
0.0
 11
210.5999999999999943
 21
12.4999999999999982
 31
0.0
  0
LINE
  5
1B3
100
AcDbEntity
  8
0
 62
256
370
13
 48
1.0
  6
BYLAYER
100
AcDbLine
 10
249.8999999999999773
 20
12.4999999999999929
 30
0.0
 11
242.5999999999999943
 21
12.4999999999999964
 31
0.0
  0
LINE
  5
1B4
100
AcDbEntity
  8
0
 62
256
370
13
 48
1.0
  6
BYLAYER
100
AcDbLine
 10
217.8999999999999773
 20
44.5
 30
0.0
 11
210.5999999999999943
 21
44.5
 31
0.0
  0
LINE
  5
1B5
100
AcDbEntity
  8
0
 62
256
370
13
 48
1.0
  6
BYLAYER
100
AcDbLine
 10
249.8999999999999773
 20
44.4999999999999929
 30
0.0
 11
242.5999999999999943
 21
44.5
 31
0.0
  0
LINE
  5
1B6
100
AcDbEntity
  8
0
 62
256
370
13
 48
1.0
  6
BYLAYER
100
AcDbLine
 10
217.8999999999999773
 20
76.5
 30
0.0
 11
210.5999999999999943
 21
76.5
 31
0.0
  0
LINE
  5
1B7
100
AcDbEntity
  8
0
 62
256
370
13
 48
1.0
  6
BYLAYER
100
AcDbLine
 10
249.8999999999999773
 20
76.4999999999999858
 30
0.0
 11
242.5999999999999943
 21
76.5
 31
0.0
  0
LINE
  5
1B8
100
AcDbEntity
  8
0
 62
256
370
13
 48
1.0
  6
BYLAYER
100
AcDbLine
 10
37.5
 20
12.4999999999999911
 30
0.0
 11
37.5
 21
17.3999999999999986
 31
0.0
  0
LINE
  5
1B9
100
AcDbEntity
  8
0
 62
256
370
13
 48
1.0
  6
BYLAYER
100
AcDbLine
 10
69.5
 20
12.4999999999999893
 30
0.0
 11
69.5
 21
17.3999999999999986
 31
0.0
  0
LINE
  5
1BA
100
AcDbEntity
  8
0
 62
256
370
13
 48
1.0
  6
BYLAYER
100
AcDbLine
 10
37.5000000000000071
 20
44.4999999999999929
 30
0.0
 11
37.5000000000000071
 21
49.3999999999999986
 31
0.0
  0
LINE
  5
1BB
100
AcDbEntity
  8
0
 62
256
370
13
 48
1.0
  6
BYLAYER
100
AcDbLine
 10
69.5000000000000142
 20
44.4999999999999858
 30
0.0
 11
69.5000000000000142
 21
49.3999999999999986
 31
0.0
  0
LINE
  5
1BC
100
AcDbEntity
  8
0
 62
256
370
13
 48
1.0
  6
BYLAYER
100
AcDbLine
 10
37.5000000000000071
 20
76.4999999999999858
 30
0.0
 11
37.5000000000000071
 21
81.3999999999999915
 31
0.0
  0
LINE
  5
1BD
100
AcDbEntity
  8
0
 62
256
370
13
 48
1.0
  6
BYLAYER
100
AcDbLine
 10
69.5000000000000142
 20
76.4999999999999716
 30
0.0
 11
69.5000000000000142
 21
81.3999999999999915
 31
0.0
  0
LINE
  5
1BE
100
AcDbEntity
  8
0
 62
256
370
13
 48
1.0
  6
BYLAYER
100
AcDbLine
 10
101.5000000000000142
 20
12.4999999999999911
 30
0.0
 11
101.5000000000000142
 21
17.3999999999999986
 31
0.0
  0
LINE
  5
1BF
100
AcDbEntity
  8
0
 62
256
370
13
 48
1.0
  6
BYLAYER
100
AcDbLine
 10
133.5
 20
12.4999999999999893
 30
0.0
 11
133.5
 21
17.3999999999999986
 31
0.0
  0
LINE
  5
1C0
100
AcDbEntity
  8
0
 62
256
370
13
 48
1.0
  6
BYLAYER
100
AcDbLine
 10
101.5000000000000284
 20
44.4999999999999929
 30
0.0
 11
101.5000000000000284
 21
49.3999999999999986
 31
0.0
  0
LINE
  5
1C1
100
AcDbEntity
  8
0
 62
256
370
13
 48
1.0
  6
BYLAYER
100
AcDbLine
 10
133.5000000000000284
 20
44.4999999999999858
 30
0.0
 11
133.5000000000000284
 21
49.3999999999999986
 31
0.0
  0
LINE
  5
1C2
100
AcDbEntity
  8
0
 62
256
370
13
 48
1.0
  6
BYLAYER
100
AcDbLine
 10
101.5000000000000284
 20
76.4999999999999858
 30
0.0
 11
101.5000000000000284
 21
81.3999999999999915
 31
0.0
  0
LINE
  5
1C3
100
AcDbEntity
  8
0
 62
256
370
13
 48
1.0
  6
BYLAYER
100
AcDbLine
 10
133.5000000000000284
 20
76.4999999999999716
 30
0.0
 11
133.5000000000000284
 21
81.3999999999999915
 31
0.0
  0
LINE
  5
1C4
100
AcDbEntity
  8
0
 62
256
370
13
 48
1.0
  6
BYLAYER
100
AcDbLine
 10
166.5
 20
12.4999999999999911
 30
0.0
 11
166.5
 21
17.3999999999999986
 31
0.0
  0
LINE
  5
1C5
100
AcDbEntity
  8
0
 62
256
370
13
 48
1.0
  6
BYLAYER
100
AcDbLine
 10
198.5
 20
12.4999999999999893
 30
0.0
 11
198.5
 21
17.3999999999999986
 31
0.0
  0
LINE
  5
1C6
100
AcDbEntity
  8
0
 62
256
370
13
 48
1.0
  6
BYLAYER
100
AcDbLine
 10
166.5
 20
44.4999999999999929
 30
0.0
 11
166.5
 21
49.3999999999999986
 31
0.0
  0
LINE
  5
1C7
100
AcDbEntity
  8
0
 62
256
370
13
 48
1.0
  6
BYLAYER
100
AcDbLine
 10
198.5
 20
44.4999999999999858
 30
0.0
 11
198.5
 21
49.3999999999999986
 31
0.0
  0
LINE
  5
1C8
100
AcDbEntity
  8
0
 62
256
370
13
 48
1.0
  6
BYLAYER
100
AcDbLine
 10
166.5
 20
76.4999999999999858
 30
0.0
 11
166.5
 21
81.3999999999999915
 31
0.0
  0
LINE
  5
1C9
100
AcDbEntity
  8
0
 62
256
370
13
 48
1.0
  6
BYLAYER
100
AcDbLine
 10
198.5
 20
76.4999999999999716
 30
0.0
 11
198.5
 21
81.3999999999999915
 31
0.0
  0
LINE
  5
1CA
100
AcDbEntity
  8
0
 62
256
370
13
 48
1.0
  6
BYLAYER
100
AcDbLine
 10
230.4999999999999716
 20
12.4999999999999893
 30
0.0
 11
230.4999999999999716
 21
17.3999999999999986
 31
0.0
  0
LINE
  5
1CB
100
AcDbEntity
  8
0
 62
256
370
13
 48
1.0
  6
BYLAYER
100
AcDbLine
 10
262.5
 20
12.4999999999999876
 30
0.0
 11
262.5
 21
17.3999999999999986
 31
0.0
  0
LINE
  5
1CC
100
AcDbEntity
  8
0
 62
256
370
13
 48
1.0
  6
BYLAYER
100
AcDbLine
 10
230.4999999999999716
 20
44.4999999999999929
 30
0.0
 11
230.4999999999999716
 21
49.3999999999999986
 31
0.0
  0
LINE
  5
1CD
100
AcDbEntity
  8
0
 62
256
370
13
 48
1.0
  6
BYLAYER
100
AcDbLine
 10
262.5
 20
44.4999999999999858
 30
0.0
 11
262.5
 21
49.3999999999999986
 31
0.0
  0
LINE
  5
1CE
100
AcDbEntity
  8
0
 62
256
370
13
 48
1.0
  6
BYLAYER
100
AcDbLine
 10
230.4999999999999716
 20
76.4999999999999858
 30
0.0
 11
230.4999999999999716
 21
81.3999999999999915
 31
0.0
  0
LINE
  5
1CF
100
AcDbEntity
  8
0
 62
256
370
13
 48
1.0
  6
BYLAYER
100
AcDbLine
 10
262.5
 20
76.4999999999999716
 30
0.0
 11
262.5
 21
81.3999999999999915
 31
0.0
  0
LINE
  5
1D0
100
AcDbEntity
  8
0
 62
256
370
13
 48
1.0
  6
BYLAYER
100
AcDbLine
 10
37.5
 20
12.4999999999999911
 30
0.0
 11
32.6000000000000014
 21
12.5000000000000036
 31
0.0
  0
LINE
  5
1D1
100
AcDbEntity
  8
0
 62
256
370
13
 48
1.0
  6
BYLAYER
100
AcDbLine
 10
37.5000000000000071
 20
44.4999999999999929
 30
0.0
 11
32.6000000000000085
 21
44.5
 31
0.0
  0
LINE
  5
1D2
100
AcDbEntity
  8
0
 62
256
370
13
 48
1.0
  6
BYLAYER
100
AcDbLine
 10
69.5000000000000142
 20
44.4999999999999858
 30
0.0
 11
64.6000000000000227
 21
44.5
 31
0.0
  0
LINE
  5
1D3
100
AcDbEntity
  8
0
 62
256
370
13
 48
1.0
  6
BYLAYER
100
AcDbLine
 10
37.5000000000000071
 20
76.4999999999999858
 30
0.0
 11
32.6000000000000085
 21
76.5
 31
0.0
  0
LINE
  5
1D4
100
AcDbEntity
  8
0
 62
256
370
13
 48
1.0
  6
BYLAYER
100
AcDbLine
 10
69.5000000000000142
 20
76.4999999999999716
 30
0.0
 11
64.6000000000000227
 21
76.5
 31
0.0
  0
LINE
  5
1D5
100
AcDbEntity
  8
0
 62
256
370
13
 48
1.0
  6
BYLAYER
100
AcDbLine
 10
101.5000000000000142
 20
12.4999999999999911
 30
0.0
 11
96.6000000000000227
 21
12.5000000000000036
 31
0.0
  0
LINE
  5
1D6
100
AcDbEntity
  8
0
 62
256
370
13
 48
1.0
  6
BYLAYER
100
AcDbLine
 10
101.5000000000000284
 20
44.4999999999999929
 30
0.0
 11
96.6000000000000227
 21
44.5
 31
0.0
  0
LINE
  5
1D7
100
AcDbEntity
  8
0
 62
256
370
13
 48
1.0
  6
BYLAYER
100
AcDbLine
 10
133.5000000000000284
 20
44.4999999999999858
 30
0.0
 11
128.6000000000000227
 21
44.5
 31
0.0
  0
LINE
  5
1D8
100
AcDbEntity
  8
0
 62
256
370
13
 48
1.0
  6
BYLAYER
100
AcDbLine
 10
101.5000000000000284
 20
76.4999999999999858
 30
0.0
 11
96.6000000000000227
 21
76.5
 31
0.0
  0
LINE
  5
1D9
100
AcDbEntity
  8
0
 62
256
370
13
 48
1.0
  6
BYLAYER
100
AcDbLine
 10
133.5000000000000284
 20
76.4999999999999716
 30
0.0
 11
128.6000000000000227
 21
76.5
 31
0.0
  0
LINE
  5
1DA
100
AcDbEntity
  8
0
 62
256
370
13
 48
1.0
  6
BYLAYER
100
AcDbLine
 10
166.5
 20
12.4999999999999911
 30
0.0
 11
161.5999999999999943
 21
12.5000000000000036
 31
0.0
  0
LINE
  5
1DB
100
AcDbEntity
  8
0
 62
256
370
13
 48
1.0
  6
BYLAYER
100
AcDbLine
 10
166.5
 20
44.4999999999999929
 30
0.0
 11
161.6000000000000227
 21
44.5
 31
0.0
  0
LINE
  5
1DC
100
AcDbEntity
  8
0
 62
256
370
13
 48
1.0
  6
BYLAYER
100
AcDbLine
 10
198.5
 20
44.4999999999999858
 30
0.0
 11
193.6000000000000227
 21
44.5
 31
0.0
  0
LINE
  5
1DD
100
AcDbEntity
  8
0
 62
256
370
13
 48
1.0
  6
BYLAYER
100
AcDbLine
 10
166.5
 20
76.4999999999999858
 30
0.0
 11
161.6000000000000227
 21
76.5
 31
0.0
  0
LINE
  5
1DE
100
AcDbEntity
  8
0
 62
256
370
13
 48
1.0
  6
BYLAYER
100
AcDbLine
 10
198.5
 20
76.4999999999999716
 30
0.0
 11
193.6000000000000227
 21
76.5
 31
0.0
  0
LINE
  5
1DF
100
AcDbEntity
  8
0
 62
256
370
13
 48
1.0
  6
BYLAYER
100
AcDbLine
 10
230.4999999999999716
 20
12.4999999999999893
 30
0.0
 11
225.5999999999999659
 21
12.5000000000000018
 31
0.0
  0
LINE
  5
1E0
100
AcDbEntity
  8
0
 62
256
370
13
 48
1.0
  6
BYLAYER
100
AcDbLine
 10
230.4999999999999716
 20
44.4999999999999929
 30
0.0
 11
225.5999999999999943
 21
44.5
 31
0.0
  0
LINE
  5
1E1
100
AcDbEntity
  8
0
 62
256
370
13
 48
1.0
  6
BYLAYER
100
AcDbLine
 10
262.5
 20
44.4999999999999858
 30
0.0
 11
257.6000000000000227
 21
44.5
 31
0.0
  0
LINE
  5
1E2
100
AcDbEntity
  8
0
 62
256
370
13
 48
1.0
  6
BYLAYER
100
AcDbLine
 10
230.4999999999999716
 20
76.4999999999999858
 30
0.0
 11
225.5999999999999943
 21
76.5
 31
0.0
  0
LINE
  5
1E3
100
AcDbEntity
  8
0
 62
256
370
13
 48
1.0
  6
BYLAYER
100
AcDbLine
 10
262.5
 20
76.4999999999999716
 30
0.0
 11
257.6000000000000227
 21
76.5
 31
0.0
  0
LINE
  5
1E4
100
AcDbEntity
  8
0
 62
256
370
13
 48
1.0
  6
BYLAYER
100
AcDbLine
 10
17.6000000000000014
 20
40.0
 30
0.0
 11
17.6000000000000014
 21
37.5
 31
0.0
  0
LINE
  5
1E5
100
AcDbEntity
  8
0
 62
256
370
13
 48
1.0
  6
BYLAYER
100
AcDbLine
 10
49.6000000000000085
 20
40.0
 30
0.0
 11
49.6000000000000085
 21
37.5
 31
0.0
  0
LINE
  5
1E6
100
AcDbEntity
  8
0
 62
256
370
13
 48
1.0
  6
BYLAYER
100
AcDbLine
 10
17.6000000000000085
 20
72.0
 30
0.0
 11
17.6000000000000085
 21
69.5
 31
0.0
  0
LINE
  5
1E7
100
AcDbEntity
  8
0
 62
256
370
13
 48
1.0
  6
BYLAYER
100
AcDbLine
 10
49.6000000000000156
 20
72.0
 30
0.0
 11
49.6000000000000156
 21
69.5
 31
0.0
  0
LINE
  5
1E8
100
AcDbEntity
  8
0
 62
256
370
13
 48
1.0
  6
BYLAYER
100
AcDbLine
 10
17.6000000000000085
 20
104.0
 30
0.0
 11
17.6000000000000085
 21
101.5
 31
0.0
  0
LINE
  5
1E9
100
AcDbEntity
  8
0
 62
256
370
13
 48
1.0
  6
BYLAYER
100
AcDbLine
 10
49.6000000000000156
 20
104.0
 30
0.0
 11
49.6000000000000156
 21
101.5
 31
0.0
  0
LINE
  5
1EA
100
AcDbEntity
  8
0
 62
256
370
13
 48
1.0
  6
BYLAYER
100
AcDbLine
 10
81.6000000000000227
 20
40.0
 30
0.0
 11
81.6000000000000227
 21
37.5
 31
0.0
  0
LINE
  5
1EB
100
AcDbEntity
  8
0
 62
256
370
13
 48
1.0
  6
BYLAYER
100
AcDbLine
 10
113.6000000000000227
 20
40.0
 30
0.0
 11
113.6000000000000227
 21
37.5
 31
0.0
  0
LINE
  5
1EC
100
AcDbEntity
  8
0
 62
256
370
13
 48
1.0
  6
BYLAYER
100
AcDbLine
 10
81.6000000000000227
 20
72.0
 30
0.0
 11
81.6000000000000227
 21
69.5
 31
0.0
  0
LINE
  5
1ED
100
AcDbEntity
  8
0
 62
256
370
13
 48
1.0
  6
BYLAYER
100
AcDbLine
 10
113.6000000000000227
 20
72.0
 30
0.0
 11
113.6000000000000227
 21
69.5
 31
0.0
  0
LINE
  5
1EE
100
AcDbEntity
  8
0
 62
256
370
13
 48
1.0
  6
BYLAYER
100
AcDbLine
 10
81.6000000000000227
 20
104.0
 30
0.0
 11
81.6000000000000227
 21
101.5
 31
0.0
  0
LINE
  5
1EF
100
AcDbEntity
  8
0
 62
256
370
13
 48
1.0
  6
BYLAYER
100
AcDbLine
 10
113.6000000000000227
 20
104.0
 30
0.0
 11
113.6000000000000227
 21
101.5
 31
0.0
  0
LINE
  5
1F0
100
AcDbEntity
  8
0
 62
256
370
13
 48
1.0
  6
BYLAYER
100
AcDbLine
 10
146.5999999999999943
 20
40.0
 30
0.0
 11
146.5999999999999943
 21
37.5
 31
0.0
  0
LINE
  5
1F1
100
AcDbEntity
  8
0
 62
256
370
13
 48
1.0
  6
BYLAYER
100
AcDbLine
 10
178.6000000000000227
 20
40.0
 30
0.0
 11
178.6000000000000227
 21
37.5
 31
0.0
  0
LINE
  5
1F2
100
AcDbEntity
  8
0
 62
256
370
13
 48
1.0
  6
BYLAYER
100
AcDbLine
 10
146.6000000000000227
 20
72.0
 30
0.0
 11
146.6000000000000227
 21
69.5
 31
0.0
  0
LINE
  5
1F3
100
AcDbEntity
  8
0
 62
256
370
13
 48
1.0
  6
BYLAYER
100
AcDbLine
 10
178.6000000000000227
 20
72.0
 30
0.0
 11
178.6000000000000227
 21
69.5
 31
0.0
  0
LINE
  5
1F4
100
AcDbEntity
  8
0
 62
256
370
13
 48
1.0
  6
BYLAYER
100
AcDbLine
 10
146.6000000000000227
 20
104.0
 30
0.0
 11
146.6000000000000227
 21
101.5
 31
0.0
  0
LINE
  5
1F5
100
AcDbEntity
  8
0
 62
256
370
13
 48
1.0
  6
BYLAYER
100
AcDbLine
 10
178.6000000000000227
 20
104.0
 30
0.0
 11
178.6000000000000227
 21
101.5
 31
0.0
  0
LINE
  5
1F6
100
AcDbEntity
  8
0
 62
256
370
13
 48
1.0
  6
BYLAYER
100
AcDbLine
 10
210.5999999999999659
 20
40.0
 30
0.0
 11
210.5999999999999659
 21
37.5
 31
0.0
  0
LINE
  5
1F7
100
AcDbEntity
  8
0
 62
256
370
13
 48
1.0
  6
BYLAYER
100
AcDbLine
 10
242.5999999999999943
 20
40.0
 30
0.0
 11
242.5999999999999943
 21
37.5
 31
0.0
  0
LINE
  5
1F8
100
AcDbEntity
  8
0
 62
256
370
13
 48
1.0
  6
BYLAYER
100
AcDbLine
 10
210.5999999999999943
 20
72.0
 30
0.0
 11
210.5999999999999943
 21
69.5
 31
0.0
  0
LINE
  5
1F9
100
AcDbEntity
  8
0
 62
256
370
13
 48
1.0
  6
BYLAYER
100
AcDbLine
 10
242.5999999999999943
 20
72.0
 30
0.0
 11
242.5999999999999943
 21
69.5
 31
0.0
  0
LINE
  5
1FA
100
AcDbEntity
  8
0
 62
256
370
13
 48
1.0
  6
BYLAYER
100
AcDbLine
 10
210.5999999999999943
 20
104.0
 30
0.0
 11
210.5999999999999943
 21
101.5
 31
0.0
  0
LINE
  5
1FB
100
AcDbEntity
  8
0
 62
256
370
13
 48
1.0
  6
BYLAYER
100
AcDbLine
 10
242.5999999999999943
 20
104.0
 30
0.0
 11
242.5999999999999943
 21
101.5
 31
0.0
  0
LINE
  5
1FC
100
AcDbEntity
  8
0
 62
256
370
13
 48
1.0
  6
BYLAYER
100
AcDbLine
 10
9.9999999999999964
 20
32.3999999999999986
 30
0.0
 11
12.4999999999999982
 21
32.3999999999999986
 31
0.0
  0
LINE
  5
1FD
100
AcDbEntity
  8
0
 62
256
370
13
 48
1.0
  6
BYLAYER
100
AcDbLine
 10
42.0
 20
32.3999999999999986
 30
0.0
 11
44.5000000000000071
 21
32.3999999999999986
 31
0.0
  0
LINE
  5
1FE
100
AcDbEntity
  8
0
 62
256
370
13
 48
1.0
  6
BYLAYER
100
AcDbLine
 10
10.0000000000000053
 20
64.4000000000000057
 30
0.0
 11
12.5000000000000071
 21
64.4000000000000057
 31
0.0
  0
LINE
  5
1FF
100
AcDbEntity
  8
0
 62
256
370
13
 48
1.0
  6
BYLAYER
100
AcDbLine
 10
42.0000000000000071
 20
64.4000000000000057
 30
0.0
 11
44.5000000000000142
 21
64.4000000000000057
 31
0.0
  0
LINE
  5
200
100
AcDbEntity
  8
0
 62
256
370
13
 48
1.0
  6
BYLAYER
100
AcDbLine
 10
10.0000000000000053
 20
96.4000000000000057
 30
0.0
 11
12.5000000000000071
 21
96.4000000000000057
 31
0.0
  0
LINE
  5
201
100
AcDbEntity
  8
0
 62
256
370
13
 48
1.0
  6
BYLAYER
100
AcDbLine
 10
42.0000000000000071
 20
96.4000000000000057
 30
0.0
 11
44.5000000000000142
 21
96.4000000000000057
 31
0.0
  0
LINE
  5
202
100
AcDbEntity
  8
0
 62
256
370
13
 48
1.0
  6
BYLAYER
100
AcDbLine
 10
74.0000000000000142
 20
32.3999999999999986
 30
0.0
 11
76.5000000000000142
 21
32.3999999999999986
 31
0.0
  0
LINE
  5
203
100
AcDbEntity
  8
0
 62
256
370
13
 48
1.0
  6
BYLAYER
100
AcDbLine
 10
106.0000000000000142
 20
32.3999999999999986
 30
0.0
 11
108.5000000000000284
 21
32.3999999999999986
 31
0.0
  0
LINE
  5
204
100
AcDbEntity
  8
0
 62
256
370
13
 48
1.0
  6
BYLAYER
100
AcDbLine
 10
74.0000000000000142
 20
64.4000000000000057
 30
0.0
 11
76.5000000000000284
 21
64.4000000000000057
 31
0.0
  0
LINE
  5
205
100
AcDbEntity
  8
0
 62
256
370
13
 48
1.0
  6
BYLAYER
100
AcDbLine
 10
106.0000000000000284
 20
64.4000000000000057
 30
0.0
 11
108.5000000000000284
 21
64.4000000000000057
 31
0.0
  0
LINE
  5
206
100
AcDbEntity
  8
0
 62
256
370
13
 48
1.0
  6
BYLAYER
100
AcDbLine
 10
74.0000000000000142
 20
96.4000000000000057
 30
0.0
 11
76.5000000000000284
 21
96.4000000000000057
 31
0.0
  0
LINE
  5
207
100
AcDbEntity
  8
0
 62
256
370
13
 48
1.0
  6
BYLAYER
100
AcDbLine
 10
106.0000000000000284
 20
96.4000000000000057
 30
0.0
 11
108.5000000000000284
 21
96.4000000000000057
 31
0.0
  0
LINE
  5
208
100
AcDbEntity
  8
0
 62
256
370
13
 48
1.0
  6
BYLAYER
100
AcDbLine
 10
139.0
 20
32.3999999999999986
 30
0.0
 11
141.5
 21
32.3999999999999986
 31
0.0
  0
LINE
  5
209
100
AcDbEntity
  8
0
 62
256
370
13
 48
1.0
  6
BYLAYER
100
AcDbLine
 10
171.0
 20
32.3999999999999986
 30
0.0
 11
173.5
 21
32.3999999999999986
 31
0.0
  0
LINE
  5
20A
100
AcDbEntity
  8
0
 62
256
370
13
 48
1.0
  6
BYLAYER
100
AcDbLine
 10
139.0
 20
64.4000000000000057
 30
0.0
 11
141.5
 21
64.4000000000000057
 31
0.0
  0
LINE
  5
20B
100
AcDbEntity
  8
0
 62
256
370
13
 48
1.0
  6
BYLAYER
100
AcDbLine
 10
171.0
 20
64.4000000000000057
 30
0.0
 11
173.5
 21
64.4000000000000057
 31
0.0
  0
LINE
  5
20C
100
AcDbEntity
  8
0
 62
256
370
13
 48
1.0
  6
BYLAYER
100
AcDbLine
 10
139.0
 20
96.4000000000000057
 30
0.0
 11
141.5
 21
96.4000000000000057
 31
0.0
  0
LINE
  5
20D
100
AcDbEntity
  8
0
 62
256
370
13
 48
1.0
  6
BYLAYER
100
AcDbLine
 10
171.0
 20
96.4000000000000057
 30
0.0
 11
173.5
 21
96.4000000000000057
 31
0.0
  0
LINE
  5
20E
100
AcDbEntity
  8
0
 62
256
370
13
 48
1.0
  6
BYLAYER
100
AcDbLine
 10
202.9999999999999716
 20
32.3999999999999986
 30
0.0
 11
205.4999999999999716
 21
32.3999999999999986
 31
0.0
  0
LINE
  5
20F
100
AcDbEntity
  8
0
 62
256
370
13
 48
1.0
  6
BYLAYER
100
AcDbLine
 10
234.9999999999999716
 20
32.3999999999999986
 30
0.0
 11
237.4999999999999716
 21
32.3999999999999986
 31
0.0
  0
LINE
  5
210
100
AcDbEntity
  8
0
 62
256
370
13
 48
1.0
  6
BYLAYER
100
AcDbLine
 10
202.9999999999999716
 20
64.4000000000000057
 30
0.0
 11
205.4999999999999716
 21
64.4000000000000057
 31
0.0
  0
LINE
  5
211
100
AcDbEntity
  8
0
 62
256
370
13
 48
1.0
  6
BYLAYER
100
AcDbLine
 10
234.9999999999999716
 20
64.4000000000000057
 30
0.0
 11
237.4999999999999716
 21
64.4000000000000057
 31
0.0
  0
LINE
  5
212
100
AcDbEntity
  8
0
 62
256
370
13
 48
1.0
  6
BYLAYER
100
AcDbLine
 10
202.9999999999999716
 20
96.4000000000000057
 30
0.0
 11
205.4999999999999716
 21
96.4000000000000057
 31
0.0
  0
LINE
  5
213
100
AcDbEntity
  8
0
 62
256
370
13
 48
1.0
  6
BYLAYER
100
AcDbLine
 10
234.9999999999999716
 20
96.4000000000000057
 30
0.0
 11
237.4999999999999716
 21
96.4000000000000057
 31
0.0
  0
LINE
  5
214
100
AcDbEntity
  8
0
 62
256
370
13
 48
1.0
  6
BYLAYER
100
AcDbLine
 10
24.8999999999999986
 20
40.0
 30
0.0
 11
24.8999999999999986
 21
37.5
 31
0.0
  0
LINE
  5
215
100
AcDbEntity
  8
0
 62
256
370
13
 48
1.0
  6
BYLAYER
100
AcDbLine
 10
56.9000000000000057
 20
40.0
 30
0.0
 11
56.9000000000000057
 21
37.5
 31
0.0
  0
LINE
  5
216
100
AcDbEntity
  8
0
 62
256
370
13
 48
1.0
  6
BYLAYER
100
AcDbLine
 10
24.9000000000000057
 20
72.0
 30
0.0
 11
24.9000000000000057
 21
69.5
 31
0.0
  0
LINE
  5
217
100
AcDbEntity
  8
0
 62
256
370
13
 48
1.0
  6
BYLAYER
100
AcDbLine
 10
56.9000000000000128
 20
72.0
 30
0.0
 11
56.9000000000000128
 21
69.5
 31
0.0
  0
LINE
  5
218
100
AcDbEntity
  8
0
 62
256
370
13
 48
1.0
  6
BYLAYER
100
AcDbLine
 10
24.9000000000000057
 20
104.0
 30
0.0
 11
24.9000000000000057
 21
101.5
 31
0.0
  0
LINE
  5
219
100
AcDbEntity
  8
0
 62
256
370
13
 48
1.0
  6
BYLAYER
100
AcDbLine
 10
56.9000000000000128
 20
104.0
 30
0.0
 11
56.9000000000000128
 21
101.5
 31
0.0
  0
LINE
  5
21A
100
AcDbEntity
  8
0
 62
256
370
13
 48
1.0
  6
BYLAYER
100
AcDbLine
 10
88.9000000000000057
 20
40.0
 30
0.0
 11
88.9000000000000057
 21
37.5
 31
0.0
  0
LINE
  5
21B
100
AcDbEntity
  8
0
 62
256
370
13
 48
1.0
  6
BYLAYER
100
AcDbLine
 10
120.9000000000000199
 20
40.0
 30
0.0
 11
120.9000000000000199
 21
37.5
 31
0.0
  0
LINE
  5
21C
100
AcDbEntity
  8
0
 62
256
370
13
 48
1.0
  6
BYLAYER
100
AcDbLine
 10
88.9000000000000199
 20
72.0
 30
0.0
 11
88.9000000000000199
 21
69.5
 31
0.0
  0
LINE
  5
21D
100
AcDbEntity
  8
0
 62
256
370
13
 48
1.0
  6
BYLAYER
100
AcDbLine
 10
120.9000000000000341
 20
72.0
 30
0.0
 11
120.9000000000000341
 21
69.5
 31
0.0
  0
LINE
  5
21E
100
AcDbEntity
  8
0
 62
256
370
13
 48
1.0
  6
BYLAYER
100
AcDbLine
 10
88.9000000000000199
 20
104.0
 30
0.0
 11
88.9000000000000199
 21
101.5
 31
0.0
  0
LINE
  5
21F
100
AcDbEntity
  8
0
 62
256
370
13
 48
1.0
  6
BYLAYER
100
AcDbLine
 10
120.9000000000000341
 20
104.0
 30
0.0
 11
120.9000000000000341
 21
101.5
 31
0.0
  0
LINE
  5
220
100
AcDbEntity
  8
0
 62
256
370
13
 48
1.0
  6
BYLAYER
100
AcDbLine
 10
153.9000000000000057
 20
40.0
 30
0.0
 11
153.9000000000000057
 21
37.5
 31
0.0
  0
LINE
  5
221
100
AcDbEntity
  8
0
 62
256
370
13
 48
1.0
  6
BYLAYER
100
AcDbLine
 10
185.9000000000000057
 20
40.0
 30
0.0
 11
185.9000000000000057
 21
37.5
 31
0.0
  0
LINE
  5
222
100
AcDbEntity
  8
0
 62
256
370
13
 48
1.0
  6
BYLAYER
100
AcDbLine
 10
153.9000000000000057
 20
72.0
 30
0.0
 11
153.9000000000000057
 21
69.5
 31
0.0
  0
LINE
  5
223
100
AcDbEntity
  8
0
 62
256
370
13
 48
1.0
  6
BYLAYER
100
AcDbLine
 10
185.9000000000000057
 20
72.0
 30
0.0
 11
185.9000000000000057
 21
69.5
 31
0.0
  0
LINE
  5
224
100
AcDbEntity
  8
0
 62
256
370
13
 48
1.0
  6
BYLAYER
100
AcDbLine
 10
153.9000000000000057
 20
104.0
 30
0.0
 11
153.9000000000000057
 21
101.5
 31
0.0
  0
LINE
  5
225
100
AcDbEntity
  8
0
 62
256
370
13
 48
1.0
  6
BYLAYER
100
AcDbLine
 10
185.9000000000000057
 20
104.0
 30
0.0
 11
185.9000000000000057
 21
101.5
 31
0.0
  0
LINE
  5
226
100
AcDbEntity
  8
0
 62
256
370
13
 48
1.0
  6
BYLAYER
100
AcDbLine
 10
217.8999999999999773
 20
40.0
 30
0.0
 11
217.8999999999999773
 21
37.5
 31
0.0
  0
LINE
  5
227
100
AcDbEntity
  8
0
 62
256
370
13
 48
1.0
  6
BYLAYER
100
AcDbLine
 10
249.8999999999999773
 20
40.0
 30
0.0
 11
249.8999999999999773
 21
37.5
 31
0.0
  0
LINE
  5
228
100
AcDbEntity
  8
0
 62
256
370
13
 48
1.0
  6
BYLAYER
100
AcDbLine
 10
217.8999999999999773
 20
72.0
 30
0.0
 11
217.8999999999999773
 21
69.5
 31
0.0
  0
LINE
  5
229
100
AcDbEntity
  8
0
 62
256
370
13
 48
1.0
  6
BYLAYER
100
AcDbLine
 10
249.8999999999999773
 20
72.0
 30
0.0
 11
249.8999999999999773
 21
69.5
 31
0.0
  0
LINE
  5
22A
100
AcDbEntity
  8
0
 62
256
370
13
 48
1.0
  6
BYLAYER
100
AcDbLine
 10
217.8999999999999773
 20
104.0
 30
0.0
 11
217.8999999999999773
 21
101.5
 31
0.0
  0
LINE
  5
22B
100
AcDbEntity
  8
0
 62
256
370
13
 48
1.0
  6
BYLAYER
100
AcDbLine
 10
249.8999999999999773
 20
104.0
 30
0.0
 11
249.8999999999999773
 21
101.5
 31
0.0
  0
LINE
  5
22C
100
AcDbEntity
  8
0
 62
256
370
13
 48
1.0
  6
BYLAYER
100
AcDbLine
 10
9.9999999999999929
 20
25.1000000000000014
 30
0.0
 11
12.5
 21
25.1000000000000014
 31
0.0
  0
LINE
  5
22D
100
AcDbEntity
  8
0
 62
256
370
13
 48
1.0
  6
BYLAYER
100
AcDbLine
 10
42.0
 20
25.1000000000000014
 30
0.0
 11
44.5000000000000071
 21
25.1000000000000014
 31
0.0
  0
LINE
  5
22E
100
AcDbEntity
  8
0
 62
256
370
13
 48
1.0
  6
BYLAYER
100
AcDbLine
 10
10.0000000000000018
 20
57.1000000000000014
 30
0.0
 11
12.5000000000000089
 21
57.1000000000000014
 31
0.0
  0
LINE
  5
22F
100
AcDbEntity
  8
0
 62
256
370
13
 48
1.0
  6
BYLAYER
100
AcDbLine
 10
42.0000000000000071
 20
57.1000000000000014
 30
0.0
 11
44.5000000000000142
 21
57.1000000000000014
 31
0.0
  0
LINE
  5
230
100
AcDbEntity
  8
0
 62
256
370
13
 48
1.0
  6
BYLAYER
100
AcDbLine
 10
10.0000000000000018
 20
89.0999999999999943
 30
0.0
 11
12.5000000000000089
 21
89.0999999999999943
 31
0.0
  0
LINE
  5
231
100
AcDbEntity
  8
0
 62
256
370
13
 48
1.0
  6
BYLAYER
100
AcDbLine
 10
42.0000000000000071
 20
89.0999999999999943
 30
0.0
 11
44.5000000000000142
 21
89.0999999999999943
 31
0.0
  0
LINE
  5
232
100
AcDbEntity
  8
0
 62
256
370
13
 48
1.0
  6
BYLAYER
100
AcDbLine
 10
74.0
 20
25.1000000000000014
 30
0.0
 11
76.5000000000000142
 21
25.1000000000000014
 31
0.0
  0
LINE
  5
233
100
AcDbEntity
  8
0
 62
256
370
13
 48
1.0
  6
BYLAYER
100
AcDbLine
 10
106.0000000000000142
 20
25.1000000000000014
 30
0.0
 11
108.5000000000000284
 21
25.1000000000000014
 31
0.0
  0
LINE
  5
234
100
AcDbEntity
  8
0
 62
256
370
13
 48
1.0
  6
BYLAYER
100
AcDbLine
 10
74.0000000000000142
 20
57.1000000000000014
 30
0.0
 11
76.5000000000000284
 21
57.1000000000000014
 31
0.0
  0
LINE
  5
235
100
AcDbEntity
  8
0
 62
256
370
13
 48
1.0
  6
BYLAYER
100
AcDbLine
 10
106.0000000000000284
 20
57.1000000000000014
 30
0.0
 11
108.5000000000000284
 21
57.1000000000000014
 31
0.0
  0
LINE
  5
236
100
AcDbEntity
  8
0
 62
256
370
13
 48
1.0
  6
BYLAYER
100
AcDbLine
 10
74.0000000000000142
 20
89.0999999999999943
 30
0.0
 11
76.5000000000000284
 21
89.0999999999999943
 31
0.0
  0
LINE
  5
237
100
AcDbEntity
  8
0
 62
256
370
13
 48
1.0
  6
BYLAYER
100
AcDbLine
 10
106.0000000000000284
 20
89.0999999999999943
 30
0.0
 11
108.5000000000000284
 21
89.0999999999999943
 31
0.0
  0
LINE
  5
238
100
AcDbEntity
  8
0
 62
256
370
13
 48
1.0
  6
BYLAYER
100
AcDbLine
 10
139.0
 20
25.1000000000000014
 30
0.0
 11
141.5
 21
25.1000000000000014
 31
0.0
  0
LINE
  5
239
100
AcDbEntity
  8
0
 62
256
370
13
 48
1.0
  6
BYLAYER
100
AcDbLine
 10
171.0
 20
25.1000000000000014
 30
0.0
 11
173.5
 21
25.1000000000000014
 31
0.0
  0
LINE
  5
23A
100
AcDbEntity
  8
0
 62
256
370
13
 48
1.0
  6
BYLAYER
100
AcDbLine
 10
139.0
 20
57.1000000000000014
 30
0.0
 11
141.5
 21
57.1000000000000014
 31
0.0
  0
LINE
  5
23B
100
AcDbEntity
  8
0
 62
256
370
13
 48
1.0
  6
BYLAYER
100
AcDbLine
 10
171.0
 20
57.1000000000000014
 30
0.0
 11
173.5
 21
57.1000000000000014
 31
0.0
  0
LINE
  5
23C
100
AcDbEntity
  8
0
 62
256
370
13
 48
1.0
  6
BYLAYER
100
AcDbLine
 10
139.0
 20
89.0999999999999943
 30
0.0
 11
141.5
 21
89.0999999999999943
 31
0.0
  0
LINE
  5
23D
100
AcDbEntity
  8
0
 62
256
370
13
 48
1.0
  6
BYLAYER
100
AcDbLine
 10
171.0
 20
89.0999999999999943
 30
0.0
 11
173.5
 21
89.0999999999999943
 31
0.0
  0
LINE
  5
23E
100
AcDbEntity
  8
0
 62
256
370
13
 48
1.0
  6
BYLAYER
100
AcDbLine
 10
202.9999999999999716
 20
25.1000000000000014
 30
0.0
 11
205.4999999999999716
 21
25.1000000000000014
 31
0.0
  0
LINE
  5
23F
100
AcDbEntity
  8
0
 62
256
370
13
 48
1.0
  6
BYLAYER
100
AcDbLine
 10
234.9999999999999716
 20
25.1000000000000014
 30
0.0
 11
237.4999999999999716
 21
25.1000000000000014
 31
0.0
  0
LINE
  5
240
100
AcDbEntity
  8
0
 62
256
370
13
 48
1.0
  6
BYLAYER
100
AcDbLine
 10
202.9999999999999716
 20
57.1000000000000014
 30
0.0
 11
205.4999999999999716
 21
57.1000000000000014
 31
0.0
  0
LINE
  5
241
100
AcDbEntity
  8
0
 62
256
370
13
 48
1.0
  6
BYLAYER
100
AcDbLine
 10
234.9999999999999716
 20
57.1000000000000014
 30
0.0
 11
237.4999999999999716
 21
57.1000000000000014
 31
0.0
  0
LINE
  5
242
100
AcDbEntity
  8
0
 62
256
370
13
 48
1.0
  6
BYLAYER
100
AcDbLine
 10
202.9999999999999716
 20
89.0999999999999943
 30
0.0
 11
205.4999999999999716
 21
89.0999999999999943
 31
0.0
  0
LINE
  5
243
100
AcDbEntity
  8
0
 62
256
370
13
 48
1.0
  6
BYLAYER
100
AcDbLine
 10
234.9999999999999716
 20
89.0999999999999943
 30
0.0
 11
237.4999999999999716
 21
89.0999999999999943
 31
0.0
  0
LINE
  5
244
100
AcDbEntity
  8
0
 62
256
370
13
 48
1.0
  6
BYLAYER
100
AcDbLine
 10
32.6000000000000014
 20
40.0
 30
0.0
 11
32.6000000000000014
 21
37.5
 31
0.0
  0
LINE
  5
245
100
AcDbEntity
  8
0
 62
256
370
13
 48
1.0
  6
BYLAYER
100
AcDbLine
 10
64.6000000000000085
 20
40.0
 30
0.0
 11
64.6000000000000085
 21
37.5
 31
0.0
  0
LINE
  5
246
100
AcDbEntity
  8
0
 62
256
370
13
 48
1.0
  6
BYLAYER
100
AcDbLine
 10
32.6000000000000085
 20
72.0
 30
0.0
 11
32.6000000000000085
 21
69.5
 31
0.0
  0
LINE
  5
247
100
AcDbEntity
  8
0
 62
256
370
13
 48
1.0
  6
BYLAYER
100
AcDbLine
 10
64.6000000000000227
 20
72.0
 30
0.0
 11
64.6000000000000227
 21
69.5
 31
0.0
  0
LINE
  5
248
100
AcDbEntity
  8
0
 62
256
370
13
 48
1.0
  6
BYLAYER
100
AcDbLine
 10
32.6000000000000085
 20
104.0
 30
0.0
 11
32.6000000000000085
 21
101.5
 31
0.0
  0
LINE
  5
249
100
AcDbEntity
  8
0
 62
256
370
13
 48
1.0
  6
BYLAYER
100
AcDbLine
 10
64.6000000000000227
 20
104.0
 30
0.0
 11
64.6000000000000227
 21
101.5
 31
0.0
  0
LINE
  5
24A
100
AcDbEntity
  8
0
 62
256
370
13
 48
1.0
  6
BYLAYER
100
AcDbLine
 10
96.6000000000000227
 20
40.0
 30
0.0
 11
96.6000000000000227
 21
37.5
 31
0.0
  0
LINE
  5
24B
100
AcDbEntity
  8
0
 62
256
370
13
 48
1.0
  6
BYLAYER
100
AcDbLine
 10
128.6000000000000227
 20
40.0
 30
0.0
 11
128.6000000000000227
 21
37.5
 31
0.0
  0
LINE
  5
24C
100
AcDbEntity
  8
0
 62
256
370
13
 48
1.0
  6
BYLAYER
100
AcDbLine
 10
96.6000000000000227
 20
72.0
 30
0.0
 11
96.6000000000000227
 21
69.5
 31
0.0
  0
LINE
  5
24D
100
AcDbEntity
  8
0
 62
256
370
13
 48
1.0
  6
BYLAYER
100
AcDbLine
 10
128.6000000000000227
 20
72.0
 30
0.0
 11
128.6000000000000227
 21
69.5
 31
0.0
  0
LINE
  5
24E
100
AcDbEntity
  8
0
 62
256
370
13
 48
1.0
  6
BYLAYER
100
AcDbLine
 10
96.6000000000000227
 20
104.0
 30
0.0
 11
96.6000000000000227
 21
101.5
 31
0.0
  0
LINE
  5
24F
100
AcDbEntity
  8
0
 62
256
370
13
 48
1.0
  6
BYLAYER
100
AcDbLine
 10
128.6000000000000227
 20
104.0
 30
0.0
 11
128.6000000000000227
 21
101.5
 31
0.0
  0
LINE
  5
250
100
AcDbEntity
  8
0
 62
256
370
13
 48
1.0
  6
BYLAYER
100
AcDbLine
 10
161.5999999999999943
 20
40.0
 30
0.0
 11
161.5999999999999943
 21
37.5
 31
0.0
  0
LINE
  5
251
100
AcDbEntity
  8
0
 62
256
370
13
 48
1.0
  6
BYLAYER
100
AcDbLine
 10
193.6000000000000227
 20
40.0
 30
0.0
 11
193.6000000000000227
 21
37.5
 31
0.0
  0
LINE
  5
252
100
AcDbEntity
  8
0
 62
256
370
13
 48
1.0
  6
BYLAYER
100
AcDbLine
 10
161.6000000000000227
 20
72.0
 30
0.0
 11
161.6000000000000227
 21
69.5
 31
0.0
  0
LINE
  5
253
100
AcDbEntity
  8
0
 62
256
370
13
 48
1.0
  6
BYLAYER
100
AcDbLine
 10
193.6000000000000227
 20
72.0
 30
0.0
 11
193.6000000000000227
 21
69.5
 31
0.0
  0
LINE
  5
254
100
AcDbEntity
  8
0
 62
256
370
13
 48
1.0
  6
BYLAYER
100
AcDbLine
 10
161.6000000000000227
 20
104.0
 30
0.0
 11
161.6000000000000227
 21
101.5
 31
0.0
  0
LINE
  5
255
100
AcDbEntity
  8
0
 62
256
370
13
 48
1.0
  6
BYLAYER
100
AcDbLine
 10
193.6000000000000227
 20
104.0
 30
0.0
 11
193.6000000000000227
 21
101.5
 31
0.0
  0
LINE
  5
256
100
AcDbEntity
  8
0
 62
256
370
13
 48
1.0
  6
BYLAYER
100
AcDbLine
 10
225.5999999999999659
 20
40.0
 30
0.0
 11
225.5999999999999659
 21
37.5
 31
0.0
  0
LINE
  5
257
100
AcDbEntity
  8
0
 62
256
370
13
 48
1.0
  6
BYLAYER
100
AcDbLine
 10
257.6000000000000227
 20
40.0
 30
0.0
 11
257.6000000000000227
 21
37.5
 31
0.0
  0
LINE
  5
258
100
AcDbEntity
  8
0
 62
256
370
13
 48
1.0
  6
BYLAYER
100
AcDbLine
 10
225.5999999999999943
 20
72.0
 30
0.0
 11
225.5999999999999943
 21
69.5
 31
0.0
  0
LINE
  5
259
100
AcDbEntity
  8
0
 62
256
370
13
 48
1.0
  6
BYLAYER
100
AcDbLine
 10
257.6000000000000227
 20
72.0
 30
0.0
 11
257.6000000000000227
 21
69.5
 31
0.0
  0
LINE
  5
25A
100
AcDbEntity
  8
0
 62
256
370
13
 48
1.0
  6
BYLAYER
100
AcDbLine
 10
225.5999999999999943
 20
104.0
 30
0.0
 11
225.5999999999999943
 21
101.5
 31
0.0
  0
LINE
  5
25B
100
AcDbEntity
  8
0
 62
256
370
13
 48
1.0
  6
BYLAYER
100
AcDbLine
 10
257.6000000000000227
 20
104.0
 30
0.0
 11
257.6000000000000227
 21
101.5
 31
0.0
  0
LINE
  5
25C
100
AcDbEntity
  8
0
 62
256
370
13
 48
1.0
  6
BYLAYER
100
AcDbLine
 10
9.9999999999999911
 20
17.3999999999999986
 30
0.0
 11
12.4999999999999787
 21
17.3999999999999986
 31
0.0
  0
LINE
  5
25D
100
AcDbEntity
  8
0
 62
256
370
13
 48
1.0
  6
BYLAYER
100
AcDbLine
 10
42.0
 20
17.3999999999999986
 30
0.0
 11
44.4999999999999858
 21
17.3999999999999986
 31
0.0
  0
LINE
  5
25E
100
AcDbEntity
  8
0
 62
256
370
13
 48
1.0
  6
BYLAYER
100
AcDbLine
 10
10.0
 20
49.3999999999999986
 30
0.0
 11
12.4999999999999876
 21
49.3999999999999986
 31
0.0
  0
LINE
  5
25F
100
AcDbEntity
  8
0
 62
256
370
13
 48
1.0
  6
BYLAYER
100
AcDbLine
 10
42.0000000000000071
 20
49.3999999999999986
 30
0.0
 11
44.4999999999999929
 21
49.3999999999999986
 31
0.0
  0
LINE
  5
260
100
AcDbEntity
  8
0
 62
256
370
13
 48
1.0
  6
BYLAYER
100
AcDbLine
 10
10.0
 20
81.3999999999999915
 30
0.0
 11
12.4999999999999876
 21
81.3999999999999915
 31
0.0
  0
LINE
  5
261
100
AcDbEntity
  8
0
 62
256
370
13
 48
1.0
  6
BYLAYER
100
AcDbLine
 10
42.0000000000000071
 20
81.3999999999999915
 30
0.0
 11
44.4999999999999929
 21
81.3999999999999915
 31
0.0
  0
LINE
  5
262
100
AcDbEntity
  8
0
 62
256
370
13
 48
1.0
  6
BYLAYER
100
AcDbLine
 10
74.0
 20
17.3999999999999986
 30
0.0
 11
76.5
 21
17.3999999999999986
 31
0.0
  0
LINE
  5
263
100
AcDbEntity
  8
0
 62
256
370
13
 48
1.0
  6
BYLAYER
100
AcDbLine
 10
106.0000000000000142
 20
17.3999999999999986
 30
0.0
 11
108.5
 21
17.3999999999999986
 31
0.0
  0
LINE
  5
264
100
AcDbEntity
  8
0
 62
256
370
13
 48
1.0
  6
BYLAYER
100
AcDbLine
 10
74.0000000000000142
 20
49.3999999999999986
 30
0.0
 11
76.5
 21
49.3999999999999986
 31
0.0
  0
LINE
  5
265
100
AcDbEntity
  8
0
 62
256
370
13
 48
1.0
  6
BYLAYER
100
AcDbLine
 10
106.0000000000000284
 20
49.3999999999999986
 30
0.0
 11
108.5
 21
49.3999999999999986
 31
0.0
  0
LINE
  5
266
100
AcDbEntity
  8
0
 62
256
370
13
 48
1.0
  6
BYLAYER
100
AcDbLine
 10
74.0000000000000142
 20
81.3999999999999915
 30
0.0
 11
76.5
 21
81.3999999999999915
 31
0.0
  0
LINE
  5
267
100
AcDbEntity
  8
0
 62
256
370
13
 48
1.0
  6
BYLAYER
100
AcDbLine
 10
106.0000000000000284
 20
81.3999999999999915
 30
0.0
 11
108.5
 21
81.3999999999999915
 31
0.0
  0
LINE
  5
268
100
AcDbEntity
  8
0
 62
256
370
13
 48
1.0
  6
BYLAYER
100
AcDbLine
 10
139.0
 20
17.3999999999999986
 30
0.0
 11
141.4999999999999716
 21
17.3999999999999986
 31
0.0
  0
LINE
  5
269
100
AcDbEntity
  8
0
 62
256
370
13
 48
1.0
  6
BYLAYER
100
AcDbLine
 10
171.0
 20
17.3999999999999986
 30
0.0
 11
173.5
 21
17.3999999999999986
 31
0.0
  0
LINE
  5
26A
100
AcDbEntity
  8
0
 62
256
370
13
 48
1.0
  6
BYLAYER
100
AcDbLine
 10
139.0
 20
49.3999999999999986
 30
0.0
 11
141.5
 21
49.3999999999999986
 31
0.0
  0
LINE
  5
26B
100
AcDbEntity
  8
0
 62
256
370
13
 48
1.0
  6
BYLAYER
100
AcDbLine
 10
171.0
 20
49.3999999999999986
 30
0.0
 11
173.5
 21
49.3999999999999986
 31
0.0
  0
LINE
  5
26C
100
AcDbEntity
  8
0
 62
256
370
13
 48
1.0
  6
BYLAYER
100
AcDbLine
 10
139.0
 20
81.3999999999999915
 30
0.0
 11
141.5
 21
81.3999999999999915
 31
0.0
  0
LINE
  5
26D
100
AcDbEntity
  8
0
 62
256
370
13
 48
1.0
  6
BYLAYER
100
AcDbLine
 10
171.0
 20
81.3999999999999915
 30
0.0
 11
173.5
 21
81.3999999999999915
 31
0.0
  0
LINE
  5
26E
100
AcDbEntity
  8
0
 62
256
370
13
 48
1.0
  6
BYLAYER
100
AcDbLine
 10
202.9999999999999716
 20
17.3999999999999986
 30
0.0
 11
205.4999999999999432
 21
17.3999999999999986
 31
0.0
  0
LINE
  5
26F
100
AcDbEntity
  8
0
 62
256
370
13
 48
1.0
  6
BYLAYER
100
AcDbLine
 10
234.9999999999999716
 20
17.3999999999999986
 30
0.0
 11
237.4999999999999716
 21
17.3999999999999986
 31
0.0
  0
LINE
  5
270
100
AcDbEntity
  8
0
 62
256
370
13
 48
1.0
  6
BYLAYER
100
AcDbLine
 10
202.9999999999999716
 20
49.3999999999999986
 30
0.0
 11
205.4999999999999716
 21
49.3999999999999986
 31
0.0
  0
LINE
  5
271
100
AcDbEntity
  8
0
 62
256
370
13
 48
1.0
  6
BYLAYER
100
AcDbLine
 10
234.9999999999999716
 20
49.3999999999999986
 30
0.0
 11
237.4999999999999716
 21
49.3999999999999986
 31
0.0
  0
LINE
  5
272
100
AcDbEntity
  8
0
 62
256
370
13
 48
1.0
  6
BYLAYER
100
AcDbLine
 10
202.9999999999999716
 20
81.3999999999999915
 30
0.0
 11
205.4999999999999716
 21
81.3999999999999915
 31
0.0
  0
LINE
  5
273
100
AcDbEntity
  8
0
 62
256
370
13
 48
1.0
  6
BYLAYER
100
AcDbLine
 10
234.9999999999999716
 20
81.3999999999999915
 30
0.0
 11
237.4999999999999716
 21
81.3999999999999915
 31
0.0
  0
LINE
  5
274
100
AcDbEntity
  8
0
 62
256
370
13
 48
1.0
  6
BYLAYER
100
AcDbLine
 10
37.5
 20
32.3999999999999986
 30
0.0
 11
40.0
 21
32.3999999999999986
 31
0.0
  0
LINE
  5
275
100
AcDbEntity
  8
0
 62
256
370
13
 48
1.0
  6
BYLAYER
100
AcDbLine
 10
69.5
 20
32.3999999999999986
 30
0.0
 11
72.0
 21
32.3999999999999986
 31
0.0
  0
LINE
  5
276
100
AcDbEntity
  8
0
 62
256
370
13
 48
1.0
  6
BYLAYER
100
AcDbLine
 10
37.5000000000000071
 20
64.4000000000000057
 30
0.0
 11
40.0000000000000071
 21
64.4000000000000057
 31
0.0
  0
LINE
  5
277
100
AcDbEntity
  8
0
 62
256
370
13
 48
1.0
  6
BYLAYER
100
AcDbLine
 10
69.5000000000000142
 20
64.4000000000000057
 30
0.0
 11
72.0000000000000142
 21
64.4000000000000057
 31
0.0
  0
LINE
  5
278
100
AcDbEntity
  8
0
 62
256
370
13
 48
1.0
  6
BYLAYER
100
AcDbLine
 10
37.5000000000000071
 20
96.4000000000000057
 30
0.0
 11
40.0000000000000071
 21
96.4000000000000057
 31
0.0
  0
LINE
  5
279
100
AcDbEntity
  8
0
 62
256
370
13
 48
1.0
  6
BYLAYER
100
AcDbLine
 10
69.5000000000000142
 20
96.4000000000000057
 30
0.0
 11
72.0000000000000142
 21
96.4000000000000057
 31
0.0
  0
LINE
  5
27A
100
AcDbEntity
  8
0
 62
256
370
13
 48
1.0
  6
BYLAYER
100
AcDbLine
 10
101.5000000000000142
 20
32.3999999999999986
 30
0.0
 11
104.0000000000000142
 21
32.3999999999999986
 31
0.0
  0
LINE
  5
27B
100
AcDbEntity
  8
0
 62
256
370
13
 48
1.0
  6
BYLAYER
100
AcDbLine
 10
133.5
 20
32.3999999999999986
 30
0.0
 11
136.0
 21
32.3999999999999986
 31
0.0
  0
LINE
  5
27C
100
AcDbEntity
  8
0
 62
256
370
13
 48
1.0
  6
BYLAYER
100
AcDbLine
 10
101.5000000000000284
 20
64.4000000000000057
 30
0.0
 11
104.0000000000000284
 21
64.4000000000000057
 31
0.0
  0
LINE
  5
27D
100
AcDbEntity
  8
0
 62
256
370
13
 48
1.0
  6
BYLAYER
100
AcDbLine
 10
133.5000000000000284
 20
64.4000000000000057
 30
0.0
 11
136.0000000000000284
 21
64.4000000000000057
 31
0.0
  0
LINE
  5
27E
100
AcDbEntity
  8
0
 62
256
370
13
 48
1.0
  6
BYLAYER
100
AcDbLine
 10
101.5000000000000284
 20
96.4000000000000057
 30
0.0
 11
104.0000000000000284
 21
96.4000000000000057
 31
0.0
  0
LINE
  5
27F
100
AcDbEntity
  8
0
 62
256
370
13
 48
1.0
  6
BYLAYER
100
AcDbLine
 10
133.5000000000000284
 20
96.4000000000000057
 30
0.0
 11
136.0000000000000284
 21
96.4000000000000057
 31
0.0
  0
LINE
  5
280
100
AcDbEntity
  8
0
 62
256
370
13
 48
1.0
  6
BYLAYER
100
AcDbLine
 10
166.5
 20
32.3999999999999986
 30
0.0
 11
169.0
 21
32.3999999999999986
 31
0.0
  0
LINE
  5
281
100
AcDbEntity
  8
0
 62
256
370
13
 48
1.0
  6
BYLAYER
100
AcDbLine
 10
198.5
 20
32.3999999999999986
 30
0.0
 11
201.0
 21
32.3999999999999986
 31
0.0
  0
LINE
  5
282
100
AcDbEntity
  8
0
 62
256
370
13
 48
1.0
  6
BYLAYER
100
AcDbLine
 10
166.5
 20
64.4000000000000057
 30
0.0
 11
169.0
 21
64.4000000000000057
 31
0.0
  0
LINE
  5
283
100
AcDbEntity
  8
0
 62
256
370
13
 48
1.0
  6
BYLAYER
100
AcDbLine
 10
198.5
 20
64.4000000000000057
 30
0.0
 11
201.0
 21
64.4000000000000057
 31
0.0
  0
LINE
  5
284
100
AcDbEntity
  8
0
 62
256
370
13
 48
1.0
  6
BYLAYER
100
AcDbLine
 10
166.5
 20
96.4000000000000057
 30
0.0
 11
169.0
 21
96.4000000000000057
 31
0.0
  0
LINE
  5
285
100
AcDbEntity
  8
0
 62
256
370
13
 48
1.0
  6
BYLAYER
100
AcDbLine
 10
198.5
 20
96.4000000000000057
 30
0.0
 11
201.0
 21
96.4000000000000057
 31
0.0
  0
LINE
  5
286
100
AcDbEntity
  8
0
 62
256
370
13
 48
1.0
  6
BYLAYER
100
AcDbLine
 10
230.4999999999999716
 20
32.3999999999999986
 30
0.0
 11
232.9999999999999716
 21
32.3999999999999986
 31
0.0
  0
LINE
  5
287
100
AcDbEntity
  8
0
 62
256
370
13
 48
1.0
  6
BYLAYER
100
AcDbLine
 10
262.5
 20
32.3999999999999986
 30
0.0
 11
265.0
 21
32.3999999999999986
 31
0.0
  0
LINE
  5
288
100
AcDbEntity
  8
0
 62
256
370
13
 48
1.0
  6
BYLAYER
100
AcDbLine
 10
230.4999999999999716
 20
64.4000000000000057
 30
0.0
 11
232.9999999999999716
 21
64.4000000000000057
 31
0.0
  0
LINE
  5
289
100
AcDbEntity
  8
0
 62
256
370
13
 48
1.0
  6
BYLAYER
100
AcDbLine
 10
262.5
 20
64.4000000000000057
 30
0.0
 11
265.0
 21
64.4000000000000057
 31
0.0
  0
LINE
  5
28A
100
AcDbEntity
  8
0
 62
256
370
13
 48
1.0
  6
BYLAYER
100
AcDbLine
 10
230.4999999999999716
 20
96.4000000000000057
 30
0.0
 11
232.9999999999999716
 21
96.4000000000000057
 31
0.0
  0
LINE
  5
28B
100
AcDbEntity
  8
0
 62
256
370
13
 48
1.0
  6
BYLAYER
100
AcDbLine
 10
262.5
 20
96.4000000000000057
 30
0.0
 11
265.0
 21
96.4000000000000057
 31
0.0
  0
LINE
  5
28C
100
AcDbEntity
  8
0
 62
256
370
13
 48
1.0
  6
BYLAYER
100
AcDbLine
 10
17.6000000000000085
 20
12.5
 30
0.0
 11
17.5999999999999872
 21
9.9999999999999964
 31
0.0
  0
LINE
  5
28D
100
AcDbEntity
  8
0
 62
256
370
13
 48
1.0
  6
BYLAYER
100
AcDbLine
 10
49.6000000000000156
 20
12.4999999999999982
 30
0.0
 11
49.5999999999999943
 21
9.9999999999999947
 31
0.0
  0
LINE
  5
28E
100
AcDbEntity
  8
0
 62
256
370
13
 48
1.0
  6
BYLAYER
100
AcDbLine
 10
17.6000000000000156
 20
44.5
 30
0.0
 11
17.5999999999999943
 21
42.0
 31
0.0
  0
LINE
  5
28F
100
AcDbEntity
  8
0
 62
256
370
13
 48
1.0
  6
BYLAYER
100
AcDbLine
 10
49.6000000000000227
 20
44.5
 30
0.0
 11
49.6000000000000014
 21
41.9999999999999929
 31
0.0
  0
LINE
  5
290
100
AcDbEntity
  8
0
 62
256
370
13
 48
1.0
  6
BYLAYER
100
AcDbLine
 10
17.6000000000000156
 20
76.5
 30
0.0
 11
17.5999999999999943
 21
74.0
 31
0.0
  0
LINE
  5
291
100
AcDbEntity
  8
0
 62
256
370
13
 48
1.0
  6
BYLAYER
100
AcDbLine
 10
49.6000000000000227
 20
76.5
 30
0.0
 11
49.6000000000000014
 21
73.9999999999999858
 31
0.0
  0
LINE
  5
292
100
AcDbEntity
  8
0
 62
256
370
13
 48
1.0
  6
BYLAYER
100
AcDbLine
 10
81.6000000000000227
 20
12.5
 30
0.0
 11
81.5999999999999943
 21
9.9999999999999964
 31
0.0
  0
LINE
  5
293
100
AcDbEntity
  8
0
 62
256
370
13
 48
1.0
  6
BYLAYER
100
AcDbLine
 10
113.6000000000000227
 20
12.4999999999999982
 30
0.0
 11
113.6000000000000085
 21
9.9999999999999947
 31
0.0
  0
LINE
  5
294
100
AcDbEntity
  8
0
 62
256
370
13
 48
1.0
  6
BYLAYER
100
AcDbLine
 10
81.6000000000000227
 20
44.5
 30
0.0
 11
81.6000000000000085
 21
42.0
 31
0.0
  0
LINE
  5
295
100
AcDbEntity
  8
0
 62
256
370
13
 48
1.0
  6
BYLAYER
100
AcDbLine
 10
113.6000000000000369
 20
44.5
 30
0.0
 11
113.6000000000000227
 21
41.9999999999999929
 31
0.0
  0
LINE
  5
296
100
AcDbEntity
  8
0
 62
256
370
13
 48
1.0
  6
BYLAYER
100
AcDbLine
 10
81.6000000000000227
 20
76.5
 30
0.0
 11
81.6000000000000085
 21
74.0
 31
0.0
  0
LINE
  5
297
100
AcDbEntity
  8
0
 62
256
370
13
 48
1.0
  6
BYLAYER
100
AcDbLine
 10
113.6000000000000369
 20
76.5
 30
0.0
 11
113.6000000000000227
 21
73.9999999999999858
 31
0.0
  0
LINE
  5
298
100
AcDbEntity
  8
0
 62
256
370
13
 48
1.0
  6
BYLAYER
100
AcDbLine
 10
146.6000000000000227
 20
12.5
 30
0.0
 11
146.5999999999999943
 21
9.9999999999999964
 31
0.0
  0
LINE
  5
299
100
AcDbEntity
  8
0
 62
256
370
13
 48
1.0
  6
BYLAYER
100
AcDbLine
 10
178.6000000000000227
 20
12.4999999999999982
 30
0.0
 11
178.5999999999999943
 21
9.9999999999999947
 31
0.0
  0
LINE
  5
29A
100
AcDbEntity
  8
0
 62
256
370
13
 48
1.0
  6
BYLAYER
100
AcDbLine
 10
146.6000000000000227
 20
44.5
 30
0.0
 11
146.5999999999999943
 21
42.0
 31
0.0
  0
LINE
  5
29B
100
AcDbEntity
  8
0
 62
256
370
13
 48
1.0
  6
BYLAYER
100
AcDbLine
 10
178.6000000000000227
 20
44.5
 30
0.0
 11
178.5999999999999943
 21
41.9999999999999929
 31
0.0
  0
LINE
  5
29C
100
AcDbEntity
  8
0
 62
256
370
13
 48
1.0
  6
BYLAYER
100
AcDbLine
 10
146.6000000000000227
 20
76.5
 30
0.0
 11
146.5999999999999943
 21
74.0
 31
0.0
  0
LINE
  5
29D
100
AcDbEntity
  8
0
 62
256
370
13
 48
1.0
  6
BYLAYER
100
AcDbLine
 10
178.6000000000000227
 20
76.5
 30
0.0
 11
178.5999999999999943
 21
73.9999999999999858
 31
0.0
  0
LINE
  5
29E
100
AcDbEntity
  8
0
 62
256
370
13
 48
1.0
  6
BYLAYER
100
AcDbLine
 10
210.5999999999999943
 20
12.4999999999999982
 30
0.0
 11
210.5999999999999659
 21
9.9999999999999947
 31
0.0
  0
LINE
  5
29F
100
AcDbEntity
  8
0
 62
256
370
13
 48
1.0
  6
BYLAYER
100
AcDbLine
 10
242.5999999999999943
 20
12.4999999999999964
 30
0.0
 11
242.5999999999999659
 21
9.9999999999999929
 31
0.0
  0
LINE
  5
2A0
100
AcDbEntity
  8
0
 62
256
370
13
 48
1.0
  6
BYLAYER
100
AcDbLine
 10
210.5999999999999943
 20
44.5
 30
0.0
 11
210.5999999999999659
 21
42.0
 31
0.0
  0
LINE
  5
2A1
100
AcDbEntity
  8
0
 62
256
370
13
 48
1.0
  6
BYLAYER
100
AcDbLine
 10
242.5999999999999943
 20
44.5
 30
0.0
 11
242.5999999999999659
 21
41.9999999999999929
 31
0.0
  0
LINE
  5
2A2
100
AcDbEntity
  8
0
 62
256
370
13
 48
1.0
  6
BYLAYER
100
AcDbLine
 10
210.5999999999999943
 20
76.5
 30
0.0
 11
210.5999999999999659
 21
74.0
 31
0.0
  0
LINE
  5
2A3
100
AcDbEntity
  8
0
 62
256
370
13
 48
1.0
  6
BYLAYER
100
AcDbLine
 10
242.5999999999999943
 20
76.5
 30
0.0
 11
242.5999999999999659
 21
73.9999999999999858
 31
0.0
  0
LINE
  5
2A4
100
AcDbEntity
  8
0
 62
256
370
13
 48
1.0
  6
BYLAYER
100
AcDbLine
 10
37.5
 20
25.1000000000000014
 30
0.0
 11
40.0
 21
25.1000000000000014
 31
0.0
  0
LINE
  5
2A5
100
AcDbEntity
  8
0
 62
256
370
13
 48
1.0
  6
BYLAYER
100
AcDbLine
 10
69.5
 20
25.1000000000000014
 30
0.0
 11
72.0
 21
25.1000000000000014
 31
0.0
  0
LINE
  5
2A6
100
AcDbEntity
  8
0
 62
256
370
13
 48
1.0
  6
BYLAYER
100
AcDbLine
 10
37.5000000000000071
 20
57.1000000000000014
 30
0.0
 11
40.0000000000000071
 21
57.1000000000000014
 31
0.0
  0
LINE
  5
2A7
100
AcDbEntity
  8
0
 62
256
370
13
 48
1.0
  6
BYLAYER
100
AcDbLine
 10
69.5000000000000142
 20
57.1000000000000014
 30
0.0
 11
72.0000000000000142
 21
57.1000000000000014
 31
0.0
  0
LINE
  5
2A8
100
AcDbEntity
  8
0
 62
256
370
13
 48
1.0
  6
BYLAYER
100
AcDbLine
 10
37.5000000000000071
 20
89.0999999999999943
 30
0.0
 11
40.0000000000000071
 21
89.0999999999999943
 31
0.0
  0
LINE
  5
2A9
100
AcDbEntity
  8
0
 62
256
370
13
 48
1.0
  6
BYLAYER
100
AcDbLine
 10
69.5000000000000142
 20
89.0999999999999943
 30
0.0
 11
72.0000000000000142
 21
89.0999999999999943
 31
0.0
  0
LINE
  5
2AA
100
AcDbEntity
  8
0
 62
256
370
13
 48
1.0
  6
BYLAYER
100
AcDbLine
 10
101.5000000000000142
 20
25.1000000000000014
 30
0.0
 11
104.0000000000000142
 21
25.1000000000000014
 31
0.0
  0
LINE
  5
2AB
100
AcDbEntity
  8
0
 62
256
370
13
 48
1.0
  6
BYLAYER
100
AcDbLine
 10
133.5
 20
25.1000000000000014
 30
0.0
 11
136.0
 21
25.1000000000000014
 31
0.0
  0
LINE
  5
2AC
100
AcDbEntity
  8
0
 62
256
370
13
 48
1.0
  6
BYLAYER
100
AcDbLine
 10
101.5000000000000284
 20
57.1000000000000014
 30
0.0
 11
104.0000000000000284
 21
57.1000000000000014
 31
0.0
  0
LINE
  5
2AD
100
AcDbEntity
  8
0
 62
256
370
13
 48
1.0
  6
BYLAYER
100
AcDbLine
 10
133.5000000000000284
 20
57.1000000000000014
 30
0.0
 11
136.0000000000000284
 21
57.1000000000000014
 31
0.0
  0
LINE
  5
2AE
100
AcDbEntity
  8
0
 62
256
370
13
 48
1.0
  6
BYLAYER
100
AcDbLine
 10
101.5000000000000284
 20
89.0999999999999943
 30
0.0
 11
104.0000000000000284
 21
89.0999999999999943
 31
0.0
  0
LINE
  5
2AF
100
AcDbEntity
  8
0
 62
256
370
13
 48
1.0
  6
BYLAYER
100
AcDbLine
 10
133.5000000000000284
 20
89.0999999999999943
 30
0.0
 11
136.0000000000000284
 21
89.0999999999999943
 31
0.0
  0
LINE
  5
2B0
100
AcDbEntity
  8
0
 62
256
370
13
 48
1.0
  6
BYLAYER
100
AcDbLine
 10
166.5
 20
25.1000000000000014
 30
0.0
 11
169.0
 21
25.1000000000000014
 31
0.0
  0
LINE
  5
2B1
100
AcDbEntity
  8
0
 62
256
370
13
 48
1.0
  6
BYLAYER
100
AcDbLine
 10
198.5
 20
25.1000000000000014
 30
0.0
 11
201.0
 21
25.1000000000000014
 31
0.0
  0
LINE
  5
2B2
100
AcDbEntity
  8
0
 62
256
370
13
 48
1.0
  6
BYLAYER
100
AcDbLine
 10
166.5
 20
57.1000000000000014
 30
0.0
 11
169.0
 21
57.1000000000000014
 31
0.0
  0
LINE
  5
2B3
100
AcDbEntity
  8
0
 62
256
370
13
 48
1.0
  6
BYLAYER
100
AcDbLine
 10
198.5
 20
57.1000000000000014
 30
0.0
 11
201.0
 21
57.1000000000000014
 31
0.0
  0
LINE
  5
2B4
100
AcDbEntity
  8
0
 62
256
370
13
 48
1.0
  6
BYLAYER
100
AcDbLine
 10
166.5
 20
89.0999999999999943
 30
0.0
 11
169.0
 21
89.0999999999999943
 31
0.0
  0
LINE
  5
2B5
100
AcDbEntity
  8
0
 62
256
370
13
 48
1.0
  6
BYLAYER
100
AcDbLine
 10
198.5
 20
89.0999999999999943
 30
0.0
 11
201.0
 21
89.0999999999999943
 31
0.0
  0
LINE
  5
2B6
100
AcDbEntity
  8
0
 62
256
370
13
 48
1.0
  6
BYLAYER
100
AcDbLine
 10
230.4999999999999716
 20
25.1000000000000014
 30
0.0
 11
232.9999999999999716
 21
25.1000000000000014
 31
0.0
  0
LINE
  5
2B7
100
AcDbEntity
  8
0
 62
256
370
13
 48
1.0
  6
BYLAYER
100
AcDbLine
 10
262.5
 20
25.1000000000000014
 30
0.0
 11
265.0
 21
25.1000000000000014
 31
0.0
  0
LINE
  5
2B8
100
AcDbEntity
  8
0
 62
256
370
13
 48
1.0
  6
BYLAYER
100
AcDbLine
 10
230.4999999999999716
 20
57.1000000000000014
 30
0.0
 11
232.9999999999999716
 21
57.1000000000000014
 31
0.0
  0
LINE
  5
2B9
100
AcDbEntity
  8
0
 62
256
370
13
 48
1.0
  6
BYLAYER
100
AcDbLine
 10
262.5
 20
57.1000000000000014
 30
0.0
 11
265.0
 21
57.1000000000000014
 31
0.0
  0
LINE
  5
2BA
100
AcDbEntity
  8
0
 62
256
370
13
 48
1.0
  6
BYLAYER
100
AcDbLine
 10
230.4999999999999716
 20
89.0999999999999943
 30
0.0
 11
232.9999999999999716
 21
89.0999999999999943
 31
0.0
  0
LINE
  5
2BB
100
AcDbEntity
  8
0
 62
256
370
13
 48
1.0
  6
BYLAYER
100
AcDbLine
 10
262.5
 20
89.0999999999999943
 30
0.0
 11
265.0
 21
89.0999999999999943
 31
0.0
  0
LINE
  5
2BC
100
AcDbEntity
  8
0
 62
256
370
13
 48
1.0
  6
BYLAYER
100
AcDbLine
 10
24.8999999999999915
 20
12.4999999999999964
 30
0.0
 11
24.8999999999999915
 21
10.0
 31
0.0
  0
LINE
  5
2BD
100
AcDbEntity
  8
0
 62
256
370
13
 48
1.0
  6
BYLAYER
100
AcDbLine
 10
56.8999999999999986
 20
12.4999999999999947
 30
0.0
 11
56.8999999999999986
 21
9.9999999999999982
 31
0.0
  0
LINE
  5
2BE
100
AcDbEntity
  8
0
 62
256
370
13
 48
1.0
  6
BYLAYER
100
AcDbLine
 10
24.8999999999999986
 20
44.5
 30
0.0
 11
24.8999999999999986
 21
42.0
 31
0.0
  0
LINE
  5
2BF
100
AcDbEntity
  8
0
 62
256
370
13
 48
1.0
  6
BYLAYER
100
AcDbLine
 10
56.9000000000000057
 20
44.4999999999999929
 30
0.0
 11
56.9000000000000057
 21
42.0
 31
0.0
  0
LINE
  5
2C0
100
AcDbEntity
  8
0
 62
256
370
13
 48
1.0
  6
BYLAYER
100
AcDbLine
 10
24.8999999999999986
 20
76.5
 30
0.0
 11
24.8999999999999986
 21
74.0
 31
0.0
  0
LINE
  5
2C1
100
AcDbEntity
  8
0
 62
256
370
13
 48
1.0
  6
BYLAYER
100
AcDbLine
 10
56.9000000000000057
 20
76.4999999999999858
 30
0.0
 11
56.9000000000000057
 21
74.0
 31
0.0
  0
LINE
  5
2C2
100
AcDbEntity
  8
0
 62
256
370
13
 48
1.0
  6
BYLAYER
100
AcDbLine
 10
88.9000000000000057
 20
12.4999999999999964
 30
0.0
 11
88.9000000000000057
 21
10.0
 31
0.0
  0
LINE
  5
2C3
100
AcDbEntity
  8
0
 62
256
370
13
 48
1.0
  6
BYLAYER
100
AcDbLine
 10
120.9000000000000057
 20
12.4999999999999947
 30
0.0
 11
120.9000000000000057
 21
9.9999999999999982
 31
0.0
  0
LINE
  5
2C4
100
AcDbEntity
  8
0
 62
256
370
13
 48
1.0
  6
BYLAYER
100
AcDbLine
 10
88.9000000000000057
 20
44.5
 30
0.0
 11
88.9000000000000057
 21
42.0
 31
0.0
  0
LINE
  5
2C5
100
AcDbEntity
  8
0
 62
256
370
13
 48
1.0
  6
BYLAYER
100
AcDbLine
 10
120.9000000000000199
 20
44.4999999999999929
 30
0.0
 11
120.9000000000000199
 21
42.0
 31
0.0
  0
LINE
  5
2C6
100
AcDbEntity
  8
0
 62
256
370
13
 48
1.0
  6
BYLAYER
100
AcDbLine
 10
88.9000000000000057
 20
76.5
 30
0.0
 11
88.9000000000000057
 21
74.0
 31
0.0
  0
LINE
  5
2C7
100
AcDbEntity
  8
0
 62
256
370
13
 48
1.0
  6
BYLAYER
100
AcDbLine
 10
120.9000000000000199
 20
76.4999999999999858
 30
0.0
 11
120.9000000000000199
 21
74.0
 31
0.0
  0
LINE
  5
2C8
100
AcDbEntity
  8
0
 62
256
370
13
 48
1.0
  6
BYLAYER
100
AcDbLine
 10
153.8999999999999773
 20
12.4999999999999964
 30
0.0
 11
153.8999999999999773
 21
10.0
 31
0.0
  0
LINE
  5
2C9
100
AcDbEntity
  8
0
 62
256
370
13
 48
1.0
  6
BYLAYER
100
AcDbLine
 10
185.9000000000000057
 20
12.4999999999999947
 30
0.0
 11
185.9000000000000057
 21
9.9999999999999982
 31
0.0
  0
LINE
  5
2CA
100
AcDbEntity
  8
0
 62
256
370
13
 48
1.0
  6
BYLAYER
100
AcDbLine
 10
153.9000000000000057
 20
44.5
 30
0.0
 11
153.9000000000000057
 21
42.0
 31
0.0
  0
LINE
  5
2CB
100
AcDbEntity
  8
0
 62
256
370
13
 48
1.0
  6
BYLAYER
100
AcDbLine
 10
185.9000000000000057
 20
44.4999999999999929
 30
0.0
 11
185.9000000000000057
 21
42.0
 31
0.0
  0
LINE
  5
2CC
100
AcDbEntity
  8
0
 62
256
370
13
 48
1.0
  6
BYLAYER
100
AcDbLine
 10
153.9000000000000057
 20
76.5
 30
0.0
 11
153.9000000000000057
 21
74.0
 31
0.0
  0
LINE
  5
2CD
100
AcDbEntity
  8
0
 62
256
370
13
 48
1.0
  6
BYLAYER
100
AcDbLine
 10
185.9000000000000057
 20
76.4999999999999858
 30
0.0
 11
185.9000000000000057
 21
74.0
 31
0.0
  0
LINE
  5
2CE
100
AcDbEntity
  8
0
 62
256
370
13
 48
1.0
  6
BYLAYER
100
AcDbLine
 10
217.8999999999999488
 20
12.4999999999999947
 30
0.0
 11
217.8999999999999488
 21
9.9999999999999982
 31
0.0
  0
LINE
  5
2CF
100
AcDbEntity
  8
0
 62
256
370
13
 48
1.0
  6
BYLAYER
100
AcDbLine
 10
249.8999999999999773
 20
12.4999999999999929
 30
0.0
 11
249.8999999999999773
 21
9.9999999999999964
 31
0.0
  0
LINE
  5
2D0
100
AcDbEntity
  8
0
 62
256
370
13
 48
1.0
  6
BYLAYER
100
AcDbLine
 10
217.8999999999999773
 20
44.5
 30
0.0
 11
217.8999999999999773
 21
42.0
 31
0.0
  0
LINE
  5
2D1
100
AcDbEntity
  8
0
 62
256
370
13
 48
1.0
  6
BYLAYER
100
AcDbLine
 10
249.8999999999999773
 20
44.4999999999999929
 30
0.0
 11
249.8999999999999773
 21
42.0
 31
0.0
  0
LINE
  5
2D2
100
AcDbEntity
  8
0
 62
256
370
13
 48
1.0
  6
BYLAYER
100
AcDbLine
 10
217.8999999999999773
 20
76.5
 30
0.0
 11
217.8999999999999773
 21
74.0
 31
0.0
  0
LINE
  5
2D3
100
AcDbEntity
  8
0
 62
256
370
13
 48
1.0
  6
BYLAYER
100
AcDbLine
 10
249.8999999999999773
 20
76.4999999999999858
 30
0.0
 11
249.8999999999999773
 21
74.0
 31
0.0
  0
LINE
  5
2D4
100
AcDbEntity
  8
0
 62
256
370
13
 48
1.0
  6
BYLAYER
100
AcDbLine
 10
37.5
 20
17.3999999999999986
 30
0.0
 11
40.0
 21
17.3999999999999986
 31
0.0
  0
LINE
  5
2D5
100
AcDbEntity
  8
0
 62
256
370
13
 48
1.0
  6
BYLAYER
100
AcDbLine
 10
69.5
 20
17.3999999999999986
 30
0.0
 11
72.0
 21
17.3999999999999986
 31
0.0
  0
LINE
  5
2D6
100
AcDbEntity
  8
0
 62
256
370
13
 48
1.0
  6
BYLAYER
100
AcDbLine
 10
37.5000000000000071
 20
49.3999999999999986
 30
0.0
 11
40.0000000000000071
 21
49.3999999999999986
 31
0.0
  0
LINE
  5
2D7
100
AcDbEntity
  8
0
 62
256
370
13
 48
1.0
  6
BYLAYER
100
AcDbLine
 10
69.5000000000000142
 20
49.3999999999999986
 30
0.0
 11
72.0000000000000142
 21
49.3999999999999986
 31
0.0
  0
LINE
  5
2D8
100
AcDbEntity
  8
0
 62
256
370
13
 48
1.0
  6
BYLAYER
100
AcDbLine
 10
37.5000000000000071
 20
81.3999999999999915
 30
0.0
 11
40.0000000000000071
 21
81.3999999999999915
 31
0.0
  0
LINE
  5
2D9
100
AcDbEntity
  8
0
 62
256
370
13
 48
1.0
  6
BYLAYER
100
AcDbLine
 10
69.5000000000000142
 20
81.3999999999999915
 30
0.0
 11
72.0000000000000142
 21
81.3999999999999915
 31
0.0
  0
LINE
  5
2DA
100
AcDbEntity
  8
0
 62
256
370
13
 48
1.0
  6
BYLAYER
100
AcDbLine
 10
101.5000000000000142
 20
17.3999999999999986
 30
0.0
 11
104.0000000000000142
 21
17.3999999999999986
 31
0.0
  0
LINE
  5
2DB
100
AcDbEntity
  8
0
 62
256
370
13
 48
1.0
  6
BYLAYER
100
AcDbLine
 10
133.5
 20
17.3999999999999986
 30
0.0
 11
136.0
 21
17.3999999999999986
 31
0.0
  0
LINE
  5
2DC
100
AcDbEntity
  8
0
 62
256
370
13
 48
1.0
  6
BYLAYER
100
AcDbLine
 10
101.5000000000000284
 20
49.3999999999999986
 30
0.0
 11
104.0000000000000284
 21
49.3999999999999986
 31
0.0
  0
LINE
  5
2DD
100
AcDbEntity
  8
0
 62
256
370
13
 48
1.0
  6
BYLAYER
100
AcDbLine
 10
133.5000000000000284
 20
49.3999999999999986
 30
0.0
 11
136.0000000000000284
 21
49.3999999999999986
 31
0.0
  0
LINE
  5
2DE
100
AcDbEntity
  8
0
 62
256
370
13
 48
1.0
  6
BYLAYER
100
AcDbLine
 10
101.5000000000000284
 20
81.3999999999999915
 30
0.0
 11
104.0000000000000284
 21
81.3999999999999915
 31
0.0
  0
LINE
  5
2DF
100
AcDbEntity
  8
0
 62
256
370
13
 48
1.0
  6
BYLAYER
100
AcDbLine
 10
133.5000000000000284
 20
81.3999999999999915
 30
0.0
 11
136.0000000000000284
 21
81.3999999999999915
 31
0.0
  0
LINE
  5
2E0
100
AcDbEntity
  8
0
 62
256
370
13
 48
1.0
  6
BYLAYER
100
AcDbLine
 10
166.5
 20
17.3999999999999986
 30
0.0
 11
169.0
 21
17.3999999999999986
 31
0.0
  0
LINE
  5
2E1
100
AcDbEntity
  8
0
 62
256
370
13
 48
1.0
  6
BYLAYER
100
AcDbLine
 10
198.5
 20
17.3999999999999986
 30
0.0
 11
201.0
 21
17.3999999999999986
 31
0.0
  0
LINE
  5
2E2
100
AcDbEntity
  8
0
 62
256
370
13
 48
1.0
  6
BYLAYER
100
AcDbLine
 10
166.5
 20
49.3999999999999986
 30
0.0
 11
169.0
 21
49.3999999999999986
 31
0.0
  0
LINE
  5
2E3
100
AcDbEntity
  8
0
 62
256
370
13
 48
1.0
  6
BYLAYER
100
AcDbLine
 10
198.5
 20
49.3999999999999986
 30
0.0
 11
201.0
 21
49.3999999999999986
 31
0.0
  0
LINE
  5
2E4
100
AcDbEntity
  8
0
 62
256
370
13
 48
1.0
  6
BYLAYER
100
AcDbLine
 10
166.5
 20
81.3999999999999915
 30
0.0
 11
169.0
 21
81.3999999999999915
 31
0.0
  0
LINE
  5
2E5
100
AcDbEntity
  8
0
 62
256
370
13
 48
1.0
  6
BYLAYER
100
AcDbLine
 10
198.5
 20
81.3999999999999915
 30
0.0
 11
201.0
 21
81.3999999999999915
 31
0.0
  0
LINE
  5
2E6
100
AcDbEntity
  8
0
 62
256
370
13
 48
1.0
  6
BYLAYER
100
AcDbLine
 10
230.4999999999999716
 20
17.3999999999999986
 30
0.0
 11
232.9999999999999716
 21
17.3999999999999986
 31
0.0
  0
LINE
  5
2E7
100
AcDbEntity
  8
0
 62
256
370
13
 48
1.0
  6
BYLAYER
100
AcDbLine
 10
262.5
 20
17.3999999999999986
 30
0.0
 11
265.0
 21
17.3999999999999986
 31
0.0
  0
LINE
  5
2E8
100
AcDbEntity
  8
0
 62
256
370
13
 48
1.0
  6
BYLAYER
100
AcDbLine
 10
230.4999999999999716
 20
49.3999999999999986
 30
0.0
 11
232.9999999999999716
 21
49.3999999999999986
 31
0.0
  0
LINE
  5
2E9
100
AcDbEntity
  8
0
 62
256
370
13
 48
1.0
  6
BYLAYER
100
AcDbLine
 10
262.5
 20
49.3999999999999986
 30
0.0
 11
265.0
 21
49.3999999999999986
 31
0.0
  0
LINE
  5
2EA
100
AcDbEntity
  8
0
 62
256
370
13
 48
1.0
  6
BYLAYER
100
AcDbLine
 10
230.4999999999999716
 20
81.3999999999999915
 30
0.0
 11
232.9999999999999716
 21
81.3999999999999915
 31
0.0
  0
LINE
  5
2EB
100
AcDbEntity
  8
0
 62
256
370
13
 48
1.0
  6
BYLAYER
100
AcDbLine
 10
262.5
 20
81.3999999999999915
 30
0.0
 11
265.0
 21
81.3999999999999915
 31
0.0
  0
LINE
  5
2EC
100
AcDbEntity
  8
0
 62
256
370
13
 48
1.0
  6
BYLAYER
100
AcDbLine
 10
32.6000000000000014
 20
12.5000000000000036
 30
0.0
 11
32.6000000000000085
 21
10.0000000000000071
 31
0.0
  0
LINE
  5
2ED
100
AcDbEntity
  8
0
 62
256
370
13
 48
1.0
  6
BYLAYER
100
AcDbLine
 10
64.6000000000000085
 20
12.5000000000000018
 30
0.0
 11
64.6000000000000227
 21
10.0000000000000053
 31
0.0
  0
LINE
  5
2EE
100
AcDbEntity
  8
0
 62
256
370
13
 48
1.0
  6
BYLAYER
100
AcDbLine
 10
32.6000000000000085
 20
44.5
 30
0.0
 11
32.6000000000000156
 21
42.0000000000000071
 31
0.0
  0
LINE
  5
2EF
100
AcDbEntity
  8
0
 62
256
370
13
 48
1.0
  6
BYLAYER
100
AcDbLine
 10
64.6000000000000227
 20
44.5
 30
0.0
 11
64.6000000000000369
 21
42.0000000000000071
 31
0.0
  0
LINE
  5
2F0
100
AcDbEntity
  8
0
 62
256
370
13
 48
1.0
  6
BYLAYER
100
AcDbLine
 10
32.6000000000000085
 20
76.5
 30
0.0
 11
32.6000000000000156
 21
74.0
 31
0.0
  0
LINE
  5
2F1
100
AcDbEntity
  8
0
 62
256
370
13
 48
1.0
  6
BYLAYER
100
AcDbLine
 10
64.6000000000000227
 20
76.5
 30
0.0
 11
64.6000000000000369
 21
74.0
 31
0.0
  0
LINE
  5
2F2
100
AcDbEntity
  8
0
 62
256
370
13
 48
1.0
  6
BYLAYER
100
AcDbLine
 10
96.6000000000000227
 20
12.5000000000000036
 30
0.0
 11
96.6000000000000227
 21
10.0000000000000071
 31
0.0
  0
LINE
  5
2F3
100
AcDbEntity
  8
0
 62
256
370
13
 48
1.0
  6
BYLAYER
100
AcDbLine
 10
128.6000000000000227
 20
12.5000000000000018
 30
0.0
 11
128.6000000000000227
 21
10.0000000000000053
 31
0.0
  0
LINE
  5
2F4
100
AcDbEntity
  8
0
 62
256
370
13
 48
1.0
  6
BYLAYER
100
AcDbLine
 10
96.6000000000000227
 20
44.5
 30
0.0
 11
96.6000000000000227
 21
42.0000000000000071
 31
0.0
  0
LINE
  5
2F5
100
AcDbEntity
  8
0
 62
256
370
13
 48
1.0
  6
BYLAYER
100
AcDbLine
 10
128.6000000000000227
 20
44.5
 30
0.0
 11
128.6000000000000512
 21
42.0000000000000071
 31
0.0
  0
LINE
  5
2F6
100
AcDbEntity
  8
0
 62
256
370
13
 48
1.0
  6
BYLAYER
100
AcDbLine
 10
96.6000000000000227
 20
76.5
 30
0.0
 11
96.6000000000000227
 21
74.0
 31
0.0
  0
LINE
  5
2F7
100
AcDbEntity
  8
0
 62
256
370
13
 48
1.0
  6
BYLAYER
100
AcDbLine
 10
128.6000000000000227
 20
76.5
 30
0.0
 11
128.6000000000000512
 21
74.0
 31
0.0
  0
LINE
  5
2F8
100
AcDbEntity
  8
0
 62
256
370
13
 48
1.0
  6
BYLAYER
100
AcDbLine
 10
161.5999999999999943
 20
12.5000000000000036
 30
0.0
 11
161.6000000000000227
 21
10.0000000000000071
 31
0.0
  0
LINE
  5
2F9
100
AcDbEntity
  8
0
 62
256
370
13
 48
1.0
  6
BYLAYER
100
AcDbLine
 10
193.6000000000000227
 20
12.5000000000000018
 30
0.0
 11
193.6000000000000227
 21
10.0000000000000053
 31
0.0
  0
LINE
  5
2FA
100
AcDbEntity
  8
0
 62
256
370
13
 48
1.0
  6
BYLAYER
100
AcDbLine
 10
161.6000000000000227
 20
44.5
 30
0.0
 11
161.6000000000000227
 21
42.0000000000000071
 31
0.0
  0
LINE
  5
2FB
100
AcDbEntity
  8
0
 62
256
370
13
 48
1.0
  6
BYLAYER
100
AcDbLine
 10
193.6000000000000227
 20
44.5
 30
0.0
 11
193.6000000000000227
 21
42.0000000000000071
 31
0.0
  0
LINE
  5
2FC
100
AcDbEntity
  8
0
 62
256
370
13
 48
1.0
  6
BYLAYER
100
AcDbLine
 10
161.6000000000000227
 20
76.5
 30
0.0
 11
161.6000000000000227
 21
74.0
 31
0.0
  0
LINE
  5
2FD
100
AcDbEntity
  8
0
 62
256
370
13
 48
1.0
  6
BYLAYER
100
AcDbLine
 10
193.6000000000000227
 20
76.5
 30
0.0
 11
193.6000000000000227
 21
74.0
 31
0.0
  0
LINE
  5
2FE
100
AcDbEntity
  8
0
 62
256
370
13
 48
1.0
  6
BYLAYER
100
AcDbLine
 10
225.5999999999999659
 20
12.5000000000000018
 30
0.0
 11
225.5999999999999943
 21
10.0000000000000053
 31
0.0
  0
LINE
  5
2FF
100
AcDbEntity
  8
0
 62
256
370
13
 48
1.0
  6
BYLAYER
100
AcDbLine
 10
257.6000000000000227
 20
12.5
 30
0.0
 11
257.6000000000000227
 21
10.0000000000000036
 31
0.0
  0
LINE
  5
300
100
AcDbEntity
  8
0
 62
256
370
13
 48
1.0
  6
BYLAYER
100
AcDbLine
 10
225.5999999999999943
 20
44.5
 30
0.0
 11
225.5999999999999943
 21
42.0000000000000071
 31
0.0
  0
LINE
  5
301
100
AcDbEntity
  8
0
 62
256
370
13
 48
1.0
  6
BYLAYER
100
AcDbLine
 10
257.6000000000000227
 20
44.5
 30
0.0
 11
257.6000000000000227
 21
42.0000000000000071
 31
0.0
  0
LINE
  5
302
100
AcDbEntity
  8
0
 62
256
370
13
 48
1.0
  6
BYLAYER
100
AcDbLine
 10
225.5999999999999943
 20
76.5
 30
0.0
 11
225.5999999999999943
 21
74.0
 31
0.0
  0
LINE
  5
303
100
AcDbEntity
  8
0
 62
256
370
13
 48
1.0
  6
BYLAYER
100
AcDbLine
 10
257.6000000000000227
 20
76.5
 30
0.0
 11
257.6000000000000227
 21
74.0
 31
0.0
  0
LINE
  5
304
100
AcDbEntity
  8
icons
 62
256
370
9
 48
1.0
  6
BYLAYER
100
AcDbLine
 10
22.4600000000000009
 20
51.9199999999999946
 30
0.0
 11
22.4600000000000009
 21
57.0
 31
0.0
  0
LINE
  5
305
100
AcDbEntity
  8
icons
 62
256
370
9
 48
1.0
  6
BYLAYER
100
AcDbLine
 10
22.4600000000000009
 20
57.0
 30
0.0
 11
24.1533333333333324
 21
57.0
 31
0.0
  0
LINE
  5
306
100
AcDbEntity
  8
icons
 62
256
370
9
 48
1.0
  6
BYLAYER
100
AcDbLine
 10
24.1533333333333324
 20
57.0
 30
0.0
 11
25.846666666666664
 21
57.0
 31
0.0
  0
LINE
  5
307
100
AcDbEntity
  8
icons
 62
256
370
9
 48
1.0
  6
BYLAYER
100
AcDbLine
 10
25.846666666666664
 20
57.0
 30
0.0
 11
27.5400000000000063
 21
57.0
 31
0.0
  0
LINE
  5
308
100
AcDbEntity
  8
icons
 62
256
370
9
 48
1.0
  6
BYLAYER
100
AcDbLine
 10
27.5400000000000063
 20
57.0
 30
0.0
 11
27.5400000000000063
 21
51.9199999999999946
 31
0.0
  0
LINE
  5
309
100
AcDbEntity
  8
icons
 62
256
370
9
 48
1.0
  6
BYLAYER
100
AcDbLine
 10
27.5400000000000063
 20
51.9199999999999946
 30
0.0
 11
30.0799999999999983
 21
51.9199999999999946
 31
0.0
  0
LINE
  5
30A
100
AcDbEntity
  8
icons
 62
256
370
9
 48
1.0
  6
BYLAYER
100
AcDbLine
 10
30.0799999999999983
 20
51.9199999999999946
 30
0.0
 11
30.0799999999999983
 21
58.7695333333333352
 31
0.0
  0
LINE
  5
30B
100
AcDbEntity
  8
icons
 62
256
370
9
 48
1.0
  6
BYLAYER
100
AcDbLine
 10
30.0799999999999983
 20
58.7695333333333352
 30
0.0
 11
25.0000000000000036
 21
63.8495333333333193
 31
0.0
  0
LINE
  5
30C
100
AcDbEntity
  8
icons
 62
256
370
9
 48
1.0
  6
BYLAYER
100
AcDbLine
 10
25.0000000000000036
 20
63.8495333333333193
 30
0.0
 11
19.9200000000000088
 21
58.7695333333333352
 31
0.0
  0
LINE
  5
30D
100
AcDbEntity
  8
icons
 62
256
370
9
 48
1.0
  6
BYLAYER
100
AcDbLine
 10
19.9200000000000088
 20
58.7695333333333352
 30
0.0
 11
19.9200000000000088
 21
51.9199999999999946
 31
0.0
  0
LINE
  5
30E
100
AcDbEntity
  8
icons
 62
256
370
9
 48
1.0
  6
BYLAYER
100
AcDbLine
 10
19.9200000000000088
 20
51.9199999999999946
 30
0.0
 11
22.4600000000000009
 21
51.9199999999999946
 31
0.0
  0
LINE
  5
30F
100
AcDbEntity
  8
icons
 62
256
370
9
 48
1.0
  6
BYLAYER
100
AcDbLine
 10
25.0000000000000036
 20
66.2371333333333325
 30
0.0
 11
33.3904666666666685
 21
57.8466666666666711
 31
0.0
  0
LINE
  5
310
100
AcDbEntity
  8
icons
 62
256
370
9
 48
1.0
  6
BYLAYER
100
AcDbLine
 10
33.3904666666666685
 20
57.8466666666666711
 30
0.0
 11
31.7733333333333405
 21
57.8466666666666711
 31
0.0
  0
LINE
  5
311
100
AcDbEntity
  8
icons
 62
256
370
9
 48
1.0
  6
BYLAYER
100
AcDbLine
 10
31.7733333333333405
 20
57.8466666666666711
 30
0.0
 11
31.7733333333333405
 21
50.2266666666666524
 31
0.0
  0
LINE
  5
312
100
AcDbEntity
  8
icons
 62
256
370
9
 48
1.0
  6
BYLAYER
100
AcDbLine
 10
31.7733333333333405
 20
50.2266666666666524
 30
0.0
 11
25.846666666666664
 21
50.2266666666666524
 31
0.0
  0
LINE
  5
313
100
AcDbEntity
  8
icons
 62
256
370
9
 48
1.0
  6
BYLAYER
100
AcDbLine
 10
25.846666666666664
 20
50.2266666666666524
 30
0.0
 11
25.846666666666664
 21
55.3066666666666578
 31
0.0
  0
LINE
  5
314
100
AcDbEntity
  8
icons
 62
256
370
9
 48
1.0
  6
BYLAYER
100
AcDbLine
 10
25.846666666666664
 20
55.3066666666666578
 30
0.0
 11
24.1533333333333324
 21
55.3066666666666578
 31
0.0
  0
LINE
  5
315
100
AcDbEntity
  8
icons
 62
256
370
9
 48
1.0
  6
BYLAYER
100
AcDbLine
 10
24.1533333333333324
 20
55.3066666666666578
 30
0.0
 11
24.1533333333333324
 21
50.2266666666666524
 31
0.0
  0
LINE
  5
316
100
AcDbEntity
  8
icons
 62
256
370
9
 48
1.0
  6
BYLAYER
100
AcDbLine
 10
24.1533333333333324
 20
50.2266666666666524
 30
0.0
 11
18.2266666666666666
 21
50.2266666666666524
 31
0.0
  0
LINE
  5
317
100
AcDbEntity
  8
icons
 62
256
370
9
 48
1.0
  6
BYLAYER
100
AcDbLine
 10
18.2266666666666666
 20
50.2266666666666524
 30
0.0
 11
18.2266666666666666
 21
57.8466666666666711
 31
0.0
  0
LINE
  5
318
100
AcDbEntity
  8
icons
 62
256
370
9
 48
1.0
  6
BYLAYER
100
AcDbLine
 10
18.2266666666666666
 20
57.8466666666666711
 30
0.0
 11
16.6095333333333386
 21
57.8466666666666711
 31
0.0
  0
LINE
  5
319
100
AcDbEntity
  8
icons
 62
256
370
9
 48
1.0
  6
BYLAYER
100
AcDbLine
 10
16.6095333333333386
 20
57.8466666666666711
 30
0.0
 11
25.0000000000000036
 21
66.2371333333333325
 31
0.0
  0
LINE
  5
31A
100
AcDbEntity
  8
icons
 62
256
370
9
 48
1.0
  6
BYLAYER
100
AcDbLine
 10
252.4659535284175433
 20
36.1104963465202076
 30
0.0
 11
249.6976421911262491
 21
33.3421850092289276
 31
0.0
  0
LINE
  5
31B
100
AcDbEntity
  8
icons
 62
256
370
9
 48
1.0
  6
BYLAYER
100
AcDbLine
 10
241.6578149907693671
 20
25.3023578088720384
 30
0.0
 11
239.4596788736990902
 21
23.104221691801758
 31
0.0
  0
LINE
  5
31C
100
AcDbEntity
  8
icons
 62
256
370
9
 48
1.0
  6
BYLAYER
100
AcDbLine
 10
187.921578748443352
 20
36.7643324788994477
 30
0.0
 11
185.1532674111520578
 21
33.9960211416081677
 31
0.0
  0
LINE
  5
31D
100
AcDbEntity
  8
icons
 62
256
370
9
 48
1.0
  6
BYLAYER
100
AcDbLine
 10
177.1134402107951757
 20
25.956193941251275
 30
0.0
 11
174.9153040937248988
 21
23.7580578241809945
 31
0.0
  0
LINE
  5
31E
100
AcDbEntity
  8
icons
 62
256
370
9
 48
1.0
  6
BYLAYER
100
AcDbLine
 10
122.5292666755165953
 20
36.5908780702179399
 30
0.0
 11
119.7609553382253011
 21
33.8225667329266599
 31
0.0
  0
LINE
  5
31F
100
AcDbEntity
  8
icons
 62
256
370
9
 48
1.0
  6
BYLAYER
100
AcDbLine
 10
111.7211281378684191
 20
25.7827395325697708
 30
0.0
 11
109.5229920207981422
 21
23.5846034154994868
 31
0.0
  0
LINE
  5
320
100
AcDbEntity
  8
icons
 62
256
370
9
 48
1.0
  6
BYLAYER
100
AcDbLine
 10
58.3511354633603219
 20
36.7643324788994192
 30
0.0
 11
55.5828241260690277
 21
33.9960211416081393
 31
0.0
  0
LINE
  5
321
100
AcDbEntity
  8
icons
 62
256
370
9
 48
1.0
  6
BYLAYER
100
AcDbLine
 10
47.5429969257121456
 20
25.9561939412512501
 30
0.0
 11
45.3448608086418687
 21
23.7580578241809661
 31
0.0
  0
LINE
  5
322
100
AcDbEntity
  8
icons
 62
256
370
9
 48
1.0
  6
BYLAYER
100
AcDbLine
 10
246.2479038111688112
 20
16.3159967543320299
 30
0.0
 11
249.0272379914047178
 21
19.0953309345679401
 31
0.0
  0
LINE
  5
323
100
AcDbEntity
  8
icons
 62
256
370
9
 48
1.0
  6
BYLAYER
100
AcDbLine
 10
255.904669065430312
 20
25.9727620085935378
 30
0.0
 11
259.2541784658873212
 21
29.3222714090504724
 31
0.0
  0
LINE
  5
324
100
AcDbEntity
  8
icons
 62
256
370
9
 48
1.0
  6
BYLAYER
100
AcDbLine
 10
181.7035290311946198
 20
16.9698328867112664
 30
0.0
 11
184.4828632114305265
 21
19.7491670669471766
 31
0.0
  0
LINE
  5
325
100
AcDbEntity
  8
icons
 62
256
370
9
 48
1.0
  6
BYLAYER
100
AcDbLine
 10
191.3602942854561206
 20
26.6265981409727743
 30
0.0
 11
194.7098036859131298
 21
29.9761075414297089
 31
0.0
  0
LINE
  5
326
100
AcDbEntity
  8
icons
 62
256
370
9
 48
1.0
  6
BYLAYER
100
AcDbLine
 10
116.3112169582678632
 20
16.7963784780297587
 30
0.0
 11
119.0905511385037698
 21
19.5757126582656724
 31
0.0
  0
LINE
  5
327
100
AcDbEntity
  8
icons
 62
256
370
9
 48
1.0
  6
BYLAYER
100
AcDbLine
 10
125.967982212529364
 20
26.4531437322912666
 30
0.0
 11
129.3174916129863732
 21
29.8026531327482047
 31
0.0
  0
LINE
  5
328
100
AcDbEntity
  8
icons
 62
256
370
9
 48
1.0
  6
BYLAYER
100
AcDbLine
 10
52.1330857461115897
 20
16.969832886711238
 30
0.0
 11
54.9124199263474964
 21
19.7491670669471517
 31
0.0
  0
LINE
  5
329
100
AcDbEntity
  8
icons
 62
256
370
9
 48
1.0
  6
BYLAYER
100
AcDbLine
 10
61.7898510003730905
 20
26.6265981409727459
 30
0.0
 11
65.1393604008300997
 21
29.976107541429684
 31
0.0
  0
LINE
  5
32A
100
AcDbEntity
  8
icons
 62
256
370
9
 48
1.0
  6
BYLAYER
100
AcDbLine
 10
259.2541784658873212
 20
29.3222714090504724
 30
0.0
 11
259.2524222922841091
 21
29.3240275826536596
 31
0.0
  0
LINE
  5
32B
100
AcDbEntity
  8
icons
 62
256
370
9
 48
1.0
  6
BYLAYER
100
AcDbLine
 10
252.4677084248287429
 20
36.1087414501089938
 30
0.0
 11
252.4659535284175433
 21
36.1104963465202076
 31
0.0
  0
LINE
  5
32C
100
AcDbEntity
  8
icons
 62
256
370
9
 48
1.0
  6
BYLAYER
100
AcDbLine
 10
194.7098036859131298
 20
29.9761075414297089
 30
0.0
 11
194.7080475123099177
 21
29.9778637150328962
 31
0.0
  0
LINE
  5
32D
100
AcDbEntity
  8
icons
 62
256
370
9
 48
1.0
  6
BYLAYER
100
AcDbLine
 10
187.9233336448545515
 20
36.7625775824882339
 30
0.0
 11
187.921578748443352
 21
36.7643324788994477
 31
0.0
  0
LINE
  5
32E
100
AcDbEntity
  8
icons
 62
256
370
9
 48
1.0
  6
BYLAYER
100
AcDbLine
 10
129.3174916129863732
 20
29.8026531327482047
 30
0.0
 11
129.3157354393831611
 21
29.8044093063513884
 31
0.0
  0
LINE
  5
32F
100
AcDbEntity
  8
icons
 62
256
370
9
 48
1.0
  6
BYLAYER
100
AcDbLine
 10
122.5310215719277949
 20
36.5891231738067262
 30
0.0
 11
122.5292666755165953
 21
36.5908780702179399
 31
0.0
  0
LINE
  5
330
100
AcDbEntity
  8
icons
 62
256
370
9
 48
1.0
  6
BYLAYER
100
AcDbLine
 10
65.1393604008300997
 20
29.976107541429684
 30
0.0
 11
65.1376042272268876
 21
29.9778637150328677
 31
0.0
  0
LINE
  5
331
100
AcDbEntity
  8
icons
 62
256
370
9
 48
1.0
  6
BYLAYER
100
AcDbLine
 10
58.3528903597715214
 20
36.7625775824882055
 30
0.0
 11
58.3511354633603219
 21
36.7643324788994192
 31
0.0
  0
LINE
  5
332
100
AcDbEntity
  8
icons
 62
256
370
9
 48
1.0
  6
BYLAYER
100
AcDbLine
 10
243.9955451275297946
 20
14.0636389012678809
 30
0.0
 11
246.2582870049319013
 21
16.3263807786699822
 31
0.0
  0
LINE
  5
333
100
AcDbEntity
  8
icons
 62
256
370
9
 48
1.0
  6
BYLAYER
100
AcDbLine
 10
179.4511703475556033
 20
14.7174750336471174
 30
0.0
 11
181.7139122249577099
 21
16.9802169110492187
 31
0.0
  0
LINE
  5
334
100
AcDbEntity
  8
icons
 62
256
370
9
 48
1.0
  6
BYLAYER
100
AcDbLine
 10
114.0588582746288466
 20
14.5440206249656114
 30
0.0
 11
116.3216001520309533
 21
16.806762502367711
 31
0.0
  0
LINE
  5
335
100
AcDbEntity
  8
icons
 62
256
370
9
 48
1.0
  6
BYLAYER
100
AcDbLine
 10
49.8807270624725732
 20
14.7174750336470925
 30
0.0
 11
52.1434689398746798
 21
16.9802169110491903
 31
0.0
  0
LINE
  5
336
100
AcDbEntity
  8
icons
 62
256
370
9
 48
1.0
  6
BYLAYER
100
AcDbLine
 10
246.2582870049319013
 20
16.3263807786699822
 30
0.0
 11
248.5210285917127919
 21
18.5891223654508586
 31
0.0
  0
LINE
  5
337
100
AcDbEntity
  8
icons
 62
256
370
9
 48
1.0
  6
BYLAYER
100
AcDbLine
 10
181.7139122249577099
 20
16.9802169110492187
 30
0.0
 11
183.9766538117386006
 21
19.2429584978300952
 31
0.0
  0
LINE
  5
338
100
AcDbEntity
  8
icons
 62
256
370
9
 48
1.0
  6
BYLAYER
100
AcDbLine
 10
116.3216001520309533
 20
16.806762502367711
 30
0.0
 11
118.5843417388118439
 21
19.0695040891485874
 31
0.0
  0
LINE
  5
339
100
AcDbEntity
  8
icons
 62
256
370
9
 48
1.0
  6
BYLAYER
100
AcDbLine
 10
52.1434689398746798
 20
16.9802169110491903
 30
0.0
 11
54.4062105266555704
 21
19.2429584978300667
 31
0.0
  0
LINE
  5
33A
100
AcDbEntity
  8
icons
 62
256
370
9
 48
1.0
  6
BYLAYER
100
AcDbLine
 10
239.4700618935221428
 20
23.1146058900797513
 30
0.0
 11
241.7328039075219976
 21
18.589122289299052
 31
0.0
  0
LINE
  5
33B
100
AcDbEntity
  8
icons
 62
256
370
9
 48
1.0
  6
BYLAYER
100
AcDbLine
 10
174.9256871135479514
 20
23.7684420224589879
 30
0.0
 11
177.1884291275478063
 21
19.2429584216782885
 31
0.0
  0
LINE
  5
33C
100
AcDbEntity
  8
icons
 62
256
370
9
 48
1.0
  6
BYLAYER
100
AcDbLine
 10
109.5333750406211948
 20
23.5949876137774837
 30
0.0
 11
111.7961170546210496
 21
19.0695040129967808
 31
0.0
  0
LINE
  5
33D
100
AcDbEntity
  8
icons
 62
256
370
9
 48
1.0
  6
BYLAYER
100
AcDbLine
 10
45.3552438284649213
 20
23.768442022458963
 30
0.0
 11
47.6179858424647762
 21
19.2429584216782601
 31
0.0
  0
LINE
  5
33E
100
AcDbEntity
  8
icons
 62
256
370
9
 48
1.0
  6
BYLAYER
100
AcDbLine
 10
241.7328039075219976
 20
18.589122289299052
 30
0.0
 11
243.9955451275297946
 21
14.0636389012678809
 31
0.0
  0
LINE
  5
33F
100
AcDbEntity
  8
icons
 62
256
370
9
 48
1.0
  6
BYLAYER
100
AcDbLine
 10
177.1884291275478063
 20
19.2429584216782885
 30
0.0
 11
179.4511703475556033
 21
14.7174750336471174
 31
0.0
  0
LINE
  5
340
100
AcDbEntity
  8
icons
 62
256
370
9
 48
1.0
  6
BYLAYER
100
AcDbLine
 10
111.7961170546210496
 20
19.0695040129967808
 30
0.0
 11
114.0588582746288466
 21
14.5440206249656114
 31
0.0
  0
LINE
  5
341
100
AcDbEntity
  8
icons
 62
256
370
9
 48
1.0
  6
BYLAYER
100
AcDbLine
 10
47.6179858424647762
 20
19.2429584216782601
 30
0.0
 11
49.8807270624725732
 21
14.7174750336470925
 31
0.0
  0
ELLIPSE
  5
342
100
AcDbEntity
  8
icons
 62
256
370
9
 48
1.0
  6
BYLAYER
100
AcDbEllipse
 10
255.9146407298591157
 20
32.7709598876840573
 30
0.0
 11
3.3941124687348632
 21
-3.3941124687348645
 31
0.0
 40
0.4999999999999998
 41
6.2510209148190681
 42
0.0
  0
ELLIPSE
  5
343
100
AcDbEntity
  8
icons
 62
256
370
9
 48
1.0
  6
BYLAYER
100
AcDbEllipse
 10
255.9146407298591157
 20
32.7709598876840573
 30
0.0
 11
3.3941124687348632
 21
-3.3941124687348645
 31
0.0
 40
0.4999999999999998
 41
1.5707961386032006
 42
3.1737570459503073
  0
ELLIPSE
  5
344
100
AcDbEntity
  8
icons
 62
256
370
9
 48
1.0
  6
BYLAYER
100
AcDbEllipse
 10
191.3702659498849243
 20
33.4247960200632974
 30
0.0
 11
3.3941124687348632
 21
-3.3941124687348645
 31
0.0
 40
0.4999999999999998
 41
6.2510209148190681
 42
0.0
  0
ELLIPSE
  5
345
100
AcDbEntity
  8
icons
 62
256
370
9
 48
1.0
  6
BYLAYER
100
AcDbEllipse
 10
191.3702659498849243
 20
33.4247960200632974
 30
0.0
 11
3.3941124687348632
 21
-3.3941124687348645
 31
0.0
 40
0.4999999999999998
 41
1.5707961386032006
 42
3.1737570459503073
  0
ELLIPSE
  5
346
100
AcDbEntity
  8
icons
 62
256
370
9
 48
1.0
  6
BYLAYER
100
AcDbEllipse
 10
125.9779538769581677
 20
33.2513416113817897
 30
0.0
 11
3.3941124687348632
 21
-3.3941124687348645
 31
0.0
 40
0.4999999999999998
 41
6.2510209148190681
 42
0.0
  0
ELLIPSE
  5
347
100
AcDbEntity
  8
icons
 62
256
370
9
 48
1.0
  6
BYLAYER
100
AcDbEllipse
 10
125.9779538769581677
 20
33.2513416113817897
 30
0.0
 11
3.3941124687348632
 21
-3.3941124687348645
 31
0.0
 40
0.4999999999999998
 41
1.5707961386032006
 42
3.1737570459503073
  0
ELLIPSE
  5
348
100
AcDbEntity
  8
icons
 62
256
370
9
 48
1.0
  6
BYLAYER
100
AcDbEllipse
 10
61.7998226648018942
 20
33.424796020063269
 30
0.0
 11
3.3941124687348632
 21
-3.3941124687348645
 31
0.0
 40
0.4999999999999998
 41
6.2510209148190681
 42
0.0
  0
ELLIPSE
  5
349
100
AcDbEntity
  8
icons
 62
256
370
9
 48
1.0
  6
BYLAYER
100
AcDbEllipse
 10
61.7998226648018942
 20
33.424796020063269
 30
0.0
 11
3.3941124687348632
 21
-3.3941124687348645
 31
0.0
 40
0.4999999999999998
 41
1.5707961386032006
 42
3.1737570459503073
  0
LINE
  5
34A
100
AcDbEntity
  8
icons
 62
256
370
9
 48
1.0
  6
BYLAYER
100
AcDbLine
 10
259.3087530389450421
 20
29.3768472593001739
 30
0.0
 11
261.0058092733124795
 21
31.0739034936675935
 31
0.0
  0
LINE
  5
34B
100
AcDbEntity
  8
icons
 62
256
370
9
 48
1.0
  6
BYLAYER
100
AcDbLine
 10
194.7643782589708508
 20
30.0306833916794105
 30
0.0
 11
196.4614344933382881
 21
31.7277396260468301
 31
0.0
  0
LINE
  5
34C
100
AcDbEntity
  8
icons
 62
256
370
9
 48
1.0
  6
BYLAYER
100
AcDbLine
 10
129.3720661860440941
 20
29.8572289829979027
 30
0.0
 11
131.0691224204115315
 21
31.5542852173653259
 31
0.0
  0
LINE
  5
34D
100
AcDbEntity
  8
icons
 62
256
370
9
 48
1.0
  6
BYLAYER
100
AcDbLine
 10
65.1939349738878207
 20
30.0306833916793821
 30
0.0
 11
66.890991208255258
 21
31.7277396260468052
 31
0.0
  0
LINE
  5
34E
100
AcDbEntity
  8
icons
 62
256
370
9
 48
1.0
  6
BYLAYER
100
AcDbLine
 10
261.0058092733124795
 20
31.0739034936675935
 30
0.0
 11
257.6116968045776048
 21
34.4680159624024611
 31
0.0
  0
LINE
  5
34F
100
AcDbEntity
  8
icons
 62
256
370
9
 48
1.0
  6
BYLAYER
100
AcDbLine
 10
196.4614344933382881
 20
31.7277396260468301
 30
0.0
 11
193.0673220246034134
 21
35.1218520947817012
 31
0.0
  0
LINE
  5
350
100
AcDbEntity
  8
icons
 62
256
370
9
 48
1.0
  6
BYLAYER
100
AcDbLine
 10
131.0691224204115315
 20
31.5542852173653259
 30
0.0
 11
127.6750099516766568
 21
34.9483976861001935
 31
0.0
  0
LINE
  5
351
100
AcDbEntity
  8
icons
 62
256
370
9
 48
1.0
  6
BYLAYER
100
AcDbLine
 10
66.890991208255258
 20
31.7277396260468052
 30
0.0
 11
63.4968787395203833
 21
35.1218520947816728
 31
0.0
  0
CIRCLE
  5
352
100
AcDbEntity
  8
icons
 62
256
370
9
 48
1.0
  6
BYLAYER
100
AcDbCircle
 10
254.829995337028322
 20
35.2228495152295125
 30
0.0
 40
0.7468922159082372
  0
CIRCLE
  5
353
100
AcDbEntity
  8
icons
 62
256
370
9
 48
1.0
  6
BYLAYER
100
AcDbCircle
 10
190.2856205570541306
 20
35.8766856476087526
 30
0.0
 40
0.7468922159082372
  0
CIRCLE
  5
354
100
AcDbEntity
  8
icons
 62
256
370
9
 48
1.0
  6
BYLAYER
100
AcDbCircle
 10
124.893308484127374
 20
35.7032312389272448
 30
0.0
 40
0.7468922159082372
  0
CIRCLE
  5
355
100
AcDbEntity
  8
icons
 62
256
370
9
 48
1.0
  6
BYLAYER
100
AcDbCircle
 10
60.7151772719711005
 20
35.8766856476087241
 30
0.0
 40
0.7468922159082372
  0
ELLIPSE
  5
356
100
AcDbEntity
  8
icons
 62
256
370
9
 48
1.0
  6
BYLAYER
100
AcDbEllipse
 10
248.7525424254821189
 20
26.247457574516158
 30
0.0
 11
5.0610462880949179
 21
-5.0610462915969991
 31
0.0
 40
0.9999998738213495
 41
0.0
 42
6.2831853071795862
  0
ELLIPSE
  5
357
100
AcDbEntity
  8
icons
 62
256
370
9
 48
1.0
  6
BYLAYER
100
AcDbEllipse
 10
184.2081676455079275
 20
26.9012937068953946
 30
0.0
 11
5.0610462880949179
 21
-5.0610462915969991
 31
0.0
 40
0.9999998738213495
 41
0.0
 42
6.2831853071795862
  0
ELLIPSE
  5
358
100
AcDbEntity
  8
icons
 62
256
370
9
 48
1.0
  6
BYLAYER
100
AcDbEllipse
 10
118.8158555725811709
 20
26.7278392982138868
 30
0.0
 11
5.0610462880949179
 21
-5.0610462915969991
 31
0.0
 40
0.9999998738213495
 41
0.0
 42
6.2831853071795862
  0
ELLIPSE
  5
359
100
AcDbEntity
  8
icons
 62
256
370
9
 48
1.0
  6
BYLAYER
100
AcDbEllipse
 10
54.6377243604248974
 20
26.9012937068953661
 30
0.0
 11
5.0610462880949179
 21
-5.0610462915969991
 31
0.0
 40
0.9999998738213495
 41
0.0
 42
6.2831853071795862
  0
ELLIPSE
  5
35A
100
AcDbEntity
  8
icons
 62
256
370
9
 48
1.0
  6
BYLAYER
100
AcDbEllipse
 10
247.2516384533174403
 20
16.2083802385954598
 30
0.0
 11
0.8045952194777931
 21
0.804595219477793
 31
0.0
 40
0.9998387626815677
 41
3.914205449373199
 42
5.5105725113961794
  0
ELLIPSE
  5
35B
100
AcDbEntity
  8
icons
 62
256
370
9
 48
1.0
  6
BYLAYER
100
AcDbEllipse
 10
182.7072636733432489
 20
16.8622163709746964
 30
0.0
 11
0.8045952194777931
 21
0.804595219477793
 31
0.0
 40
0.9998387626815677
 41
3.914205449373199
 42
5.5105725113961794
  0
ELLIPSE
  5
35C
100
AcDbEntity
  8
icons
 62
256
370
9
 48
1.0
  6
BYLAYER
100
AcDbEllipse
 10
117.3149516004164923
 20
16.6887619622931922
 30
0.0
 11
0.8045952194777931
 21
0.804595219477793
 31
0.0
 40
0.9998387626815677
 41
3.914205449373199
 42
5.5105725113961794
  0
ELLIPSE
  5
35D
100
AcDbEntity
  8
icons
 62
256
370
9
 48
1.0
  6
BYLAYER
100
AcDbEllipse
 10
53.1368203882602188
 20
16.8622163709746715
 30
0.0
 11
0.8045952194777931
 21
0.804595219477793
 31
0.0
 40
0.9998387626815677
 41
3.914205449373199
 42
5.5105725113961794
  0
LINE
  5
35E
100
AcDbEntity
  8
icons
 62
256
370
9
 48
1.0
  6
BYLAYER
100
AcDbLine
 10
245.6777289419755448
 20
15.7458227157136346
 30
0.0
 11
246.7949287772356968
 21
14.6286228804534932
 31
0.0
  0
LINE
  5
35F
100
AcDbEntity
  8
icons
 62
256
370
9
 48
1.0
  6
BYLAYER
100
AcDbLine
 10
181.1333541620013534
 20
16.3996588480928693
 30
0.0
 11
182.2505539972615054
 21
15.2824590128327298
 31
0.0
  0
LINE
  5
360
100
AcDbEntity
  8
icons
 62
256
370
9
 48
1.0
  6
BYLAYER
100
AcDbLine
 10
115.7410420890745968
 20
16.2262044394113616
 30
0.0
 11
116.8582419243347488
 21
15.1090046041512238
 31
0.0
  0
LINE
  5
361
100
AcDbEntity
  8
icons
 62
256
370
9
 48
1.0
  6
BYLAYER
100
AcDbLine
 10
51.5629108769183233
 20
16.3996588480928409
 30
0.0
 11
52.6801107121784753
 21
15.2824590128327049
 31
0.0
  0
LINE
  5
362
100
AcDbEntity
  8
icons
 62
256
370
9
 48
1.0
  6
BYLAYER
100
AcDbLine
 10
246.7949287772356968
 20
14.6286228804534932
 30
0.0
 11
248.8313962584766159
 21
16.6650903616944106
 31
0.0
  0
LINE
  5
363
100
AcDbEntity
  8
icons
 62
256
370
9
 48
1.0
  6
BYLAYER
100
AcDbLine
 10
182.2505539972615054
 20
15.2824590128327298
 30
0.0
 11
184.2870214785024245
 21
17.3189264940736471
 31
0.0
  0
LINE
  5
364
100
AcDbEntity
  8
icons
 62
256
370
9
 48
1.0
  6
BYLAYER
100
AcDbLine
 10
116.8582419243347488
 20
15.1090046041512238
 30
0.0
 11
118.8947094055756679
 21
17.145472085392143
 31
0.0
  0
LINE
  5
365
100
AcDbEntity
  8
icons
 62
256
370
9
 48
1.0
  6
BYLAYER
100
AcDbLine
 10
52.6801107121784753
 20
15.2824590128327049
 30
0.0
 11
54.7165781934193944
 21
17.3189264940736223
 31
0.0
  0
LINE
  5
366
100
AcDbEntity
  8
icons
 62
256
370
9
 48
1.0
  6
BYLAYER
100
AcDbLine
 10
248.8313962584766159
 20
16.6650903616944106
 30
0.0
 11
247.7141964232164639
 21
17.7822901969545448
 31
0.0
  0
LINE
  5
367
100
AcDbEntity
  8
icons
 62
256
370
9
 48
1.0
  6
BYLAYER
100
AcDbLine
 10
184.2870214785024245
 20
17.3189264940736471
 30
0.0
 11
183.1698216432422726
 21
18.4361263293337814
 31
0.0
  0
LINE
  5
368
100
AcDbEntity
  8
icons
 62
256
370
9
 48
1.0
  6
BYLAYER
100
AcDbLine
 10
118.8947094055756679
 20
17.145472085392143
 30
0.0
 11
117.7775095703155159
 21
18.2626719206522736
 31
0.0
  0
LINE
  5
369
100
AcDbEntity
  8
icons
 62
256
370
9
 48
1.0
  6
BYLAYER
100
AcDbLine
 10
54.7165781934193944
 20
17.3189264940736223
 30
0.0
 11
53.5993783581592425
 21
18.4361263293337529
 31
0.0
  0
ARC
  5
36A
100
AcDbEntity
  8
icons
 62
256
370
9
 48
1.0
  6
BYLAYER
100
AcDbCircle
 10
258.7916200807007954
 20
27.7483618659787936
 30
0.0
 40
1.1377777606726667
100
AcDbArc
 50
269.2628882884101245
 51
0.7371117115898815
  0
ARC
  5
36B
100
AcDbEntity
  8
icons
 62
256
370
9
 48
1.0
  6
BYLAYER
100
AcDbCircle
 10
194.247245300726604
 20
28.4021979983580302
 30
0.0
 40
1.1377777606726667
100
AcDbArc
 50
269.2628882884101245
 51
0.7371117115898815
  0
ARC
  5
36C
100
AcDbEntity
  8
icons
 62
256
370
9
 48
1.0
  6
BYLAYER
100
AcDbCircle
 10
128.8549332277998474
 20
28.228743589676526
 30
0.0
 40
1.1377777606726667
100
AcDbArc
 50
269.2628882884101245
 51
0.7371117115898815
  0
ARC
  5
36D
100
AcDbEntity
  8
icons
 62
256
370
9
 48
1.0
  6
BYLAYER
100
AcDbCircle
 10
64.6768020156435739
 20
28.4021979983580053
 30
0.0
 40
1.1377777606726667
100
AcDbArc
 50
269.2628882884101245
 51
0.7371117115898815
  0
LINE
  5
36E
100
AcDbEntity
  8
icons
 62
256
370
9
 48
1.0
  6
BYLAYER
100
AcDbLine
 10
257.2177109846463736
 20
27.2858039278095603
 30
0.0
 11
258.3349097979529461
 21
26.1686051145030483
 31
0.0
  0
LINE
  5
36F
100
AcDbEntity
  8
icons
 62
256
370
9
 48
1.0
  6
BYLAYER
100
AcDbLine
 10
192.6733362046721822
 20
27.9396400601887969
 30
0.0
 11
193.7905350179787547
 21
26.8224412468822848
 31
0.0
  0
LINE
  5
370
100
AcDbEntity
  8
icons
 62
256
370
9
 48
1.0
  6
BYLAYER
100
AcDbLine
 10
127.2810241317454256
 20
27.7661856515072927
 30
0.0
 11
128.3982229450519981
 21
26.6489868382007771
 31
0.0
  0
LINE
  5
371
100
AcDbEntity
  8
icons
 62
256
370
9
 48
1.0
  6
BYLAYER
100
AcDbLine
 10
63.1028929195891521
 20
27.939640060188772
 30
0.0
 11
64.2200917328957246
 21
26.8224412468822564
 31
0.0
  0
LINE
  5
372
100
AcDbEntity
  8
icons
 62
256
370
9
 48
1.0
  6
BYLAYER
100
AcDbLine
 10
258.3349097979529461
 20
26.1686051145030483
 30
0.0
 11
260.3713772791937799
 21
28.2050725957439639
 31
0.0
  0
LINE
  5
373
100
AcDbEntity
  8
icons
 62
256
370
9
 48
1.0
  6
BYLAYER
100
AcDbLine
 10
193.7905350179787547
 20
26.8224412468822848
 30
0.0
 11
195.8270024992195886
 21
28.8589087281232004
 31
0.0
  0
LINE
  5
374
100
AcDbEntity
  8
icons
 62
256
370
9
 48
1.0
  6
BYLAYER
100
AcDbLine
 10
128.3982229450519981
 20
26.6489868382007771
 30
0.0
 11
130.4346904262928319
 21
28.6854543194416962
 31
0.0
  0
LINE
  5
375
100
AcDbEntity
  8
icons
 62
256
370
9
 48
1.0
  6
BYLAYER
100
AcDbLine
 10
64.2200917328957246
 20
26.8224412468822564
 30
0.0
 11
66.2565592141365585
 21
28.8589087281231755
 31
0.0
  0
LINE
  5
376
100
AcDbEntity
  8
icons
 62
256
370
9
 48
1.0
  6
BYLAYER
100
AcDbLine
 10
260.3713772791937799
 20
28.2050725957439639
 30
0.0
 11
259.2524222922841091
 21
29.3240275826536703
 31
0.0
  0
LINE
  5
377
100
AcDbEntity
  8
icons
 62
256
370
9
 48
1.0
  6
BYLAYER
100
AcDbLine
 10
195.8270024992195886
 20
28.8589087281232004
 30
0.0
 11
194.7080475123099177
 21
29.9778637150329068
 31
0.0
  0
LINE
  5
378
100
AcDbEntity
  8
icons
 62
256
370
9
 48
1.0
  6
BYLAYER
100
AcDbLine
 10
130.4346904262928319
 20
28.6854543194416962
 30
0.0
 11
129.3157354393831611
 21
29.8044093063514026
 31
0.0
  0
LINE
  5
379
100
AcDbEntity
  8
icons
 62
256
370
9
 48
1.0
  6
BYLAYER
100
AcDbLine
 10
66.2565592141365585
 20
28.8589087281231755
 30
0.0
 11
65.1376042272268876
 21
29.9778637150328819
 31
0.0
  0
LINE
  5
37A
100
AcDbEntity
  8
icons
 62
256
370
9
 48
1.0
  6
BYLAYER
100
AcDbLine
 10
248.2244098749806653
 20
26.7755901253830437
 30
0.0
 11
243.6914961373872188
 21
31.3085038661131669
 31
0.0
  0
LINE
  5
37B
100
AcDbEntity
  8
icons
 62
256
370
9
 48
1.0
  6
BYLAYER
100
AcDbLine
 10
249.490566814310597
 20
26.132705739329829
 30
0.0
 11
255.8157295621309117
 21
25.130898375311407
 31
0.0
  0
LINE
  5
37C
100
AcDbEntity
  8
icons
 62
256
370
9
 48
1.0
  6
BYLAYER
100
AcDbLine
 10
247.2245243365890133
 20
25.4727313275725002
 30
0.0
 11
242.3759132757702162
 21
23.0022405994982044
 31
0.0
  0
LINE
  5
37D
100
AcDbEntity
  8
icons
 62
256
370
9
 48
1.0
  6
BYLAYER
100
AcDbLine
 10
248.8832970630121224
 20
25.4083954646210763
 30
0.0
 11
249.869101619799352
 21
19.1842704370947423
 31
0.0
  0
LINE
  5
37E
100
AcDbEntity
  8
icons
 62
256
370
9
 48
1.0
  6
BYLAYER
100
AcDbLine
 10
249.2262130250332461
 20
27.1846206849891558
 30
0.0
 11
251.9977594049125287
 21
32.6240867219824935
 31
0.0
  0
LINE
  5
37F
100
AcDbEntity
  8
icons
 62
256
370
9
 48
1.0
  6
BYLAYER
100
AcDbLine
 10
183.680035095006474
 20
27.4294262577622803
 30
0.0
 11
179.1471213574130275
 21
31.9623399984924035
 31
0.0
  0
LINE
  5
380
100
AcDbEntity
  8
icons
 62
256
370
9
 48
1.0
  6
BYLAYER
100
AcDbLine
 10
184.9461920343364056
 20
26.7865418717090655
 30
0.0
 11
191.2713547821567204
 21
25.7847345076906436
 31
0.0
  0
LINE
  5
381
100
AcDbEntity
  8
icons
 62
256
370
9
 48
1.0
  6
BYLAYER
100
AcDbLine
 10
182.6801495566148219
 20
26.1265674599517368
 30
0.0
 11
177.8315384957960248
 21
23.656076731877441
 31
0.0
  0
LINE
  5
382
100
AcDbEntity
  8
icons
 62
256
370
9
 48
1.0
  6
BYLAYER
100
AcDbLine
 10
184.338922283037931
 20
26.0622315970003129
 30
0.0
 11
185.3247268398251606
 21
19.8381065694739789
 31
0.0
  0
LINE
  5
383
100
AcDbEntity
  8
icons
 62
256
370
9
 48
1.0
  6
BYLAYER
100
AcDbLine
 10
184.6818382450590548
 20
27.8384568173683924
 30
0.0
 11
187.4533846249383373
 21
33.2779228543617336
 31
0.0
  0
LINE
  5
384
100
AcDbEntity
  8
icons
 62
256
370
9
 48
1.0
  6
BYLAYER
100
AcDbLine
 10
118.2877230220797173
 20
27.2559718490807725
 30
0.0
 11
113.7548092844862708
 21
31.7888855898108957
 31
0.0
  0
LINE
  5
385
100
AcDbEntity
  8
icons
 62
256
370
9
 48
1.0
  6
BYLAYER
100
AcDbLine
 10
119.553879961409649
 20
26.6130874630275613
 30
0.0
 11
125.8790427092299637
 21
25.6112800990091358
 31
0.0
  0
LINE
  5
386
100
AcDbEntity
  8
icons
 62
256
370
9
 48
1.0
  6
BYLAYER
100
AcDbLine
 10
117.2878374836880653
 20
25.9531130512702291
 30
0.0
 11
112.4392264228692682
 21
23.4826223231959332
 31
0.0
  0
LINE
  5
387
100
AcDbEntity
  8
icons
 62
256
370
9
 48
1.0
  6
BYLAYER
100
AcDbLine
 10
118.9466102101111744
 20
25.8887771883188051
 30
0.0
 11
119.932414766898404
 21
19.6646521607924711
 31
0.0
  0
LINE
  5
388
100
AcDbEntity
  8
icons
 62
256
370
9
 48
1.0
  6
BYLAYER
100
AcDbLine
 10
119.2895261721322981
 20
27.6650024086868882
 30
0.0
 11
122.0610725520115807
 21
33.1044684456802258
 31
0.0
  0
LINE
  5
389
100
AcDbEntity
  8
icons
 62
256
370
9
 48
1.0
  6
BYLAYER
100
AcDbLine
 10
54.1095918099234439
 20
27.4294262577622519
 30
0.0
 11
49.5766780723299973
 21
31.9623399984923751
 31
0.0
  0
LINE
  5
38A
100
AcDbEntity
  8
icons
 62
256
370
9
 48
1.0
  6
BYLAYER
100
AcDbLine
 10
55.3757487492533755
 20
26.7865418717090407
 30
0.0
 11
61.7009114970736903
 21
25.7847345076906151
 31
0.0
  0
LINE
  5
38B
100
AcDbEntity
  8
icons
 62
256
370
9
 48
1.0
  6
BYLAYER
100
AcDbLine
 10
53.1097062715317918
 20
26.1265674599517084
 30
0.0
 11
48.2610952107129947
 21
23.6560767318774126
 31
0.0
  0
LINE
  5
38C
100
AcDbEntity
  8
icons
 62
256
370
9
 48
1.0
  6
BYLAYER
100
AcDbLine
 10
54.7684789979549009
 20
26.0622315970002845
 30
0.0
 11
55.7542835547421305
 21
19.8381065694739505
 31
0.0
  0
LINE
  5
38D
100
AcDbEntity
  8
icons
 62
256
370
9
 48
1.0
  6
BYLAYER
100
AcDbLine
 10
55.1113949599760247
 20
27.8384568173683675
 30
0.0
 11
57.8829413398553072
 21
33.2779228543617052
 31
0.0
  0
MTEXT
  5
38E
100
AcDbEntity
  8
icons
 62
256
370
9
 48
1.0
  6
BYLAYER
100
AcDbMText
 10
248.7500000000000284
 20
26.249999999999897
 30
0.0
 40
1.6000000000000001
 41
0.0
 71
5
 72
1
  1
OoRoBoT
  7
textstyle4
 50
45.0
 73
2
 44
1.0
  0
MTEXT
  5
38F
100
AcDbEntity
  8
icons
 62
256
370
9
 48
1.0
  6
BYLAYER
100
AcDbMText
 10
184.2056252200258371
 20
26.9038361323790305
 30
0.0
 40
1.6000000000000001
 41
0.0
 71
5
 72
1
  1
OoRoBoT
  7
textstyle5
 50
45.0
 73
2
 44
1.0
  0
MTEXT
  5
390
100
AcDbEntity
  8
icons
 62
256
370
9
 48
1.0
  6
BYLAYER
100
AcDbMText
 10
118.8133131470990804
 20
26.7303817236974339
 30
0.0
 40
1.6000000000000001
 41
0.0
 71
5
 72
1
  1
OoRoBoT
  7
textstyle6
 50
45.0
 73
2
 44
1.0
  0
MTEXT
  5
391
100
AcDbEntity
  8
icons
 62
256
370
9
 48
1.0
  6
BYLAYER
100
AcDbMText
 10
54.6351819349428069
 20
26.9038361323789346
 30
0.0
 40
1.6000000000000001
 41
0.0
 71
5
 72
1
  1
OoRoBoT
  7
textstyle7
 50
45.0
 73
2
 44
1.0
  0
LINE
  5
392
100
AcDbEntity
  8
0
 62
256
370
13
 48
1.0
  6
BYLAYER
100
AcDbLine
 10
12.4999999999999751
 20
12.4999999999999964
 30
0.0
 11
9.9999999999999929
 21
12.4999999999999947
 31
0.0
  0
LINE
  5
393
100
AcDbEntity
  8
0
 62
256
370
13
 48
1.0
  6
BYLAYER
100
AcDbLine
 10
76.4999999999999858
 20
12.4999999999999964
 30
0.0
 11
74.0
 21
12.4999999999999947
 31
0.0
  0
LINE
  5
394
100
AcDbEntity
  8
0
 62
256
370
13
 48
1.0
  6
BYLAYER
100
AcDbLine
 10
141.4999999999999716
 20
12.4999999999999964
 30
0.0
 11
139.0
 21
12.4999999999999947
 31
0.0
  0
LINE
  5
395
100
AcDbEntity
  8
0
 62
256
370
13
 48
1.0
  6
BYLAYER
100
AcDbLine
 10
205.4999999999999432
 20
12.4999999999999947
 30
0.0
 11
202.9999999999999716
 21
12.4999999999999929
 31
0.0
  0
LINE
  5
396
100
AcDbEntity
  8
0
 62
256
370
13
 48
1.0
  6
BYLAYER
100
AcDbLine
 10
9.9999999999999929
 20
12.4999999999999947
 30
0.0
 11
9.9999999999999911
 21
10.0000000000000018
 31
0.0
  0
LINE
  5
397
100
AcDbEntity
  8
0
 62
256
370
13
 48
1.0
  6
BYLAYER
100
AcDbLine
 10
74.0
 20
12.4999999999999947
 30
0.0
 11
74.0
 21
10.0000000000000018
 31
0.0
  0
LINE
  5
398
100
AcDbEntity
  8
0
 62
256
370
13
 48
1.0
  6
BYLAYER
100
AcDbLine
 10
139.0
 20
12.4999999999999947
 30
0.0
 11
139.0
 21
10.0000000000000018
 31
0.0
  0
LINE
  5
399
100
AcDbEntity
  8
0
 62
256
370
13
 48
1.0
  6
BYLAYER
100
AcDbLine
 10
202.9999999999999716
 20
12.4999999999999929
 30
0.0
 11
202.9999999999999716
 21
10.0
 31
0.0
  0
LINE
  5
39A
100
AcDbEntity
  8
0
 62
256
370
13
 48
1.0
  6
BYLAYER
100
AcDbLine
 10
41.9999999999999929
 20
12.4999999999999982
 30
0.0
 11
44.4999999999999716
 21
12.4999999999999982
 31
0.0
  0
LINE
  5
39B
100
AcDbEntity
  8
0
 62
256
370
13
 48
1.0
  6
BYLAYER
100
AcDbLine
 10
106.0
 20
12.4999999999999982
 30
0.0
 11
108.4999999999999858
 21
12.4999999999999982
 31
0.0
  0
LINE
  5
39C
100
AcDbEntity
  8
0
 62
256
370
13
 48
1.0
  6
BYLAYER
100
AcDbLine
 10
171.0
 20
12.4999999999999982
 30
0.0
 11
173.4999999999999716
 21
12.4999999999999982
 31
0.0
  0
LINE
  5
39D
100
AcDbEntity
  8
0
 62
256
370
13
 48
1.0
  6
BYLAYER
100
AcDbLine
 10
234.9999999999999716
 20
12.4999999999999964
 30
0.0
 11
237.4999999999999432
 21
12.4999999999999964
 31
0.0
  0
LINE
  5
39E
100
AcDbEntity
  8
0
 62
256
370
13
 48
1.0
  6
BYLAYER
100
AcDbLine
 10
64.6000000000000085
 20
12.5000000000000018
 30
0.0
 11
69.5
 21
12.4999999999999893
 31
0.0
  0
LINE
  5
39F
100
AcDbEntity
  8
0
 62
256
370
13
 48
1.0
  6
BYLAYER
100
AcDbLine
 10
128.6000000000000227
 20
12.5000000000000018
 30
0.0
 11
133.5
 21
12.4999999999999893
 31
0.0
  0
LINE
  5
3A0
100
AcDbEntity
  8
0
 62
256
370
13
 48
1.0
  6
BYLAYER
100
AcDbLine
 10
193.6000000000000227
 20
12.5000000000000018
 30
0.0
 11
198.5
 21
12.4999999999999893
 31
0.0
  0
LINE
  5
3A1
100
AcDbEntity
  8
0
 62
256
370
13
 48
1.0
  6
BYLAYER
100
AcDbLine
 10
257.6000000000000227
 20
12.5
 30
0.0
 11
262.5
 21
12.4999999999999876
 31
0.0
  0
LINE
  5
3A2
100
AcDbEntity
  8
0
 62
256
370
13
 48
1.0
  6
BYLAYER
100
AcDbLine
 10
41.9999999999999929
 20
12.4999999999999982
 30
0.0
 11
42.0
 21
10.0
 31
0.0
  0
LINE
  5
3A3
100
AcDbEntity
  8
0
 62
256
370
13
 48
1.0
  6
BYLAYER
100
AcDbLine
 10
106.0
 20
12.4999999999999982
 30
0.0
 11
106.0000000000000142
 21
10.0
 31
0.0
  0
LINE
  5
3A4
100
AcDbEntity
  8
0
 62
256
370
13
 48
1.0
  6
BYLAYER
100
AcDbLine
 10
171.0
 20
12.4999999999999982
 30
0.0
 11
171.0
 21
10.0
 31
0.0
  0
LINE
  5
3A5
100
AcDbEntity
  8
0
 62
256
370
13
 48
1.0
  6
BYLAYER
100
AcDbLine
 10
234.9999999999999716
 20
12.4999999999999964
 30
0.0
 11
234.9999999999999716
 21
9.9999999999999982
 31
0.0
  0
ARC
  5
3A6
100
AcDbEntity
  8
icons
 62
256
370
9
 48
1.0
  6
BYLAYER
100
AcDbCircle
 10
50.7506666666666675
 20
53.6133333333333439
 30
0.0
 40
2.9633333333333329
100
AcDbArc
 50
180.0
 51
270.0
  0
ARC
  5
3A7
100
AcDbEntity
  8
icons
 62
256
370
9
 48
1.0
  6
BYLAYER
100
AcDbCircle
 10
50.7506666666666675
 20
53.6133333333333439
 30
0.0
 40
2.9633333333333329
100
AcDbArc
 50
90.0000000000000142
 51
180.0
  0
ARC
  5
3A8
100
AcDbEntity
  8
icons
 62
256
370
9
 48
1.0
  6
BYLAYER
100
AcDbCircle
 10
50.7506666666666675
 20
53.6133333333333439
 30
0.0
 40
2.9633333333333329
100
AcDbArc
 50
0.0
 51
90.0000000000000142
  0
ARC
  5
3A9
100
AcDbEntity
  8
icons
 62
256
370
9
 48
1.0
  6
BYLAYER
100
AcDbCircle
 10
50.7506666666666675
 20
53.6133333333333439
 30
0.0
 40
2.9633333333333329
100
AcDbArc
 50
270.0
 51
0.0
  0
ARC
  5
3AA
100
AcDbEntity
  8
icons
 62
256
370
9
 48
1.0
  6
BYLAYER
100
AcDbCircle
 10
50.7506666666666675
 20
53.6133333333333439
 30
0.0
 40
4.2333333333333325
100
AcDbArc
 50
90.0000000000000142
 51
180.0
  0
ARC
  5
3AB
100
AcDbEntity
  8
icons
 62
256
370
9
 48
1.0
  6
BYLAYER
100
AcDbCircle
 10
50.7506666666666675
 20
53.6133333333333439
 30
0.0
 40
4.2333333333333325
100
AcDbArc
 50
180.0
 51
270.0
  0
ARC
  5
3AC
100
AcDbEntity
  8
icons
 62
256
370
9
 48
1.0
  6
BYLAYER
100
AcDbCircle
 10
50.7506666666666675
 20
53.6133333333333439
 30
0.0
 40
4.2333333333333325
100
AcDbArc
 50
270.0
 51
0.0
  0
ARC
  5
3AD
100
AcDbEntity
  8
icons
 62
256
370
9
 48
1.0
  6
BYLAYER
100
AcDbCircle
 10
50.7506666666666675
 20
53.6133333333333439
 30
0.0
 40
4.2333333333333325
100
AcDbArc
 50
0.0
 51
90.0000000000000142
  0
LINE
  5
3AE
100
AcDbEntity
  8
icons
 62
256
370
9
 48
1.0
  6
BYLAYER
100
AcDbLine
 10
59.0480000000000018
 20
59.5399999999999991
 30
0.0
 11
62.6039999999999992
 21
59.5399999999999991
 31
0.0
  0
LINE
  5
3AF
100
AcDbEntity
  8
icons
 62
256
370
9
 48
1.0
  6
BYLAYER
100
AcDbLine
 10
62.6039999999999992
 20
59.5399999999999991
 30
0.0
 11
62.6039999999999992
 21
61.0640000000000072
 31
0.0
  0
LINE
  5
3B0
100
AcDbEntity
  8
icons
 62
256
370
9
 48
1.0
  6
BYLAYER
100
AcDbLine
 10
62.6039999999999992
 20
61.0640000000000072
 30
0.0
 11
59.8946666666666729
 21
61.0640000000000072
 31
0.0
  0
LINE
  5
3B1
100
AcDbEntity
  8
icons
 62
256
370
9
 48
1.0
  6
BYLAYER
100
AcDbLine
 10
59.8946666666666729
 20
61.0640000000000072
 30
0.0
 11
58.2521333333333331
 21
63.8326000000000064
 31
0.0
  0
ARC
  5
3B2
100
AcDbEntity
  8
icons
 62
256
370
9
 48
1.0
  6
BYLAYER
100
AcDbCircle
 10
57.0110711695476908
 20
63.0880950693248721
 30
0.0
 40
1.4472466569938447
100
AcDbArc
 50
30.9592629538533473
 51
89.804869662403604
  0
ARC
  5
3B3
100
AcDbEntity
  8
icons
 62
256
370
9
 48
1.0
  6
BYLAYER
100
AcDbCircle
 10
57.0081223255531242
 20
63.1233730853391464
 30
0.0
 40
1.411982223567444
100
AcDbArc
 50
89.6803360323860801
 51
135.5593938636947939
  0
LINE
  5
3B4
100
AcDbEntity
  8
icons
 62
256
370
9
 48
1.0
  6
BYLAYER
100
AcDbLine
 10
56.0000000000000071
 20
64.1119999999999948
 30
0.0
 11
52.8673333333333346
 21
60.9877999999999929
 31
0.0
  0
ARC
  5
3B5
100
AcDbEntity
  8
icons
 62
256
370
9
 48
1.0
  6
BYLAYER
100
AcDbCircle
 10
53.8468007592947302
 20
59.9833624961592093
 30
0.0
 40
1.4029437400128932
100
AcDbArc
 50
134.2788946108650805
 51
180.8180124771277804
  0
ARC
  5
3B6
100
AcDbEntity
  8
icons
 62
256
370
9
 48
1.0
  6
BYLAYER
100
AcDbCircle
 10
53.8741044706033776
 20
59.9598975963806353
 30
0.0
 40
1.4301085976694752
100
AcDbArc
 50
179.8623507217625388
 51
240.2133387695836575
  0
LINE
  5
3B7
100
AcDbEntity
  8
icons
 62
256
370
9
 48
1.0
  6
BYLAYER
100
AcDbLine
 10
53.1636666666666642
 20
58.7187333333333399
 30
0.0
 11
56.0000000000000071
 21
57.0000000000000071
 31
0.0
  0
LINE
  5
3B8
100
AcDbEntity
  8
icons
 62
256
370
9
 48
1.0
  6
BYLAYER
100
AcDbLine
 10
56.0000000000000071
 20
57.0000000000000071
 30
0.0
 11
56.0000000000000071
 21
52.7666666666666728
 31
0.0
  0
LINE
  5
3B9
100
AcDbEntity
  8
icons
 62
256
370
9
 48
1.0
  6
BYLAYER
100
AcDbLine
 10
56.0000000000000071
 20
52.7666666666666728
 30
0.0
 11
57.5239999999999938
 21
52.7666666666666728
 31
0.0
  0
LINE
  5
3BA
100
AcDbEntity
  8
icons
 62
256
370
9
 48
1.0
  6
BYLAYER
100
AcDbLine
 10
57.5239999999999938
 20
52.7666666666666728
 30
0.0
 11
57.5239999999999938
 21
58.2700000000000031
 31
0.0
  0
LINE
  5
3BB
100
AcDbEntity
  8
icons
 62
256
370
9
 48
1.0
  6
BYLAYER
100
AcDbLine
 10
57.5239999999999938
 20
58.2700000000000031
 30
0.0
 11
55.6189999999999998
 21
59.6669999999999945
 31
0.0
  0
LINE
  5
3BC
100
AcDbEntity
  8
icons
 62
256
370
9
 48
1.0
  6
BYLAYER
100
AcDbLine
 10
55.6189999999999998
 20
59.6669999999999945
 30
0.0
 11
57.5832666666666597
 21
61.6566666666666592
 31
0.0
  0
ARC
  5
3BD
100
AcDbEntity
  8
icons
 62
256
370
9
 48
1.0
  6
BYLAYER
100
AcDbCircle
 10
62.6039999999999992
 20
53.6133333333333439
 30
0.0
 40
2.9633333333333329
100
AcDbArc
 50
180.0
 51
270.0
  0
ARC
  5
3BE
100
AcDbEntity
  8
icons
 62
256
370
9
 48
1.0
  6
BYLAYER
100
AcDbCircle
 10
62.6039999999999992
 20
53.6133333333333439
 30
0.0
 40
2.9633333333333329
100
AcDbArc
 50
90.0000000000000142
 51
180.0
  0
ARC
  5
3BF
100
AcDbEntity
  8
icons
 62
256
370
9
 48
1.0
  6
BYLAYER
100
AcDbCircle
 10
62.6039999999999992
 20
53.6133333333333439
 30
0.0
 40
2.9633333333333329
100
AcDbArc
 50
0.0
 51
90.0000000000000142
  0
ARC
  5
3C0
100
AcDbEntity
  8
icons
 62
256
370
9
 48
1.0
  6
BYLAYER
100
AcDbCircle
 10
62.6039999999999992
 20
53.6133333333333439
 30
0.0
 40
2.9633333333333329
100
AcDbArc
 50
270.0
 51
0.0
  0
ARC
  5
3C1
100
AcDbEntity
  8
icons
 62
256
370
9
 48
1.0
  6
BYLAYER
100
AcDbCircle
 10
62.6039999999999992
 20
53.6133333333333439
 30
0.0
 40
4.2333333333333325
100
AcDbArc
 50
90.0000000000000142
 51
180.0
  0
ARC
  5
3C2
100
AcDbEntity
  8
icons
 62
256
370
9
 48
1.0
  6
BYLAYER
100
AcDbCircle
 10
62.6039999999999992
 20
53.6133333333333439
 30
0.0
 40
4.2333333333333325
100
AcDbArc
 50
180.0
 51
270.0
  0
ARC
  5
3C3
100
AcDbEntity
  8
icons
 62
256
370
9
 48
1.0
  6
BYLAYER
100
AcDbCircle
 10
62.6039999999999992
 20
53.6133333333333439
 30
0.0
 40
4.2333333333333325
100
AcDbArc
 50
270.0
 51
0.0
  0
ARC
  5
3C4
100
AcDbEntity
  8
icons
 62
256
370
9
 48
1.0
  6
BYLAYER
100
AcDbCircle
 10
62.6039999999999992
 20
53.6133333333333439
 30
0.0
 40
4.2333333333333325
100
AcDbArc
 50
0.0
 51
90.0000000000000142
  0
ARC
  5
3C5
100
AcDbEntity
  8
icons
 62
256
370
9
 48
1.0
  6
BYLAYER
100
AcDbCircle
 10
60.0703500000000048
 20
65.4603166666666709
 30
0.0
 40
1.5176632844606872
100
AcDbArc
 50
269.7602701039189128
 51
0.2397298960808339
  0
ARC
  5
3C6
100
AcDbEntity
  8
icons
 62
256
370
9
 48
1.0
  6
BYLAYER
100
AcDbCircle
 10
60.0703500000000048
 20
65.4730166666666662
 30
0.0
 40
1.5176632844606912
100
AcDbArc
 50
359.760270103919197
 51
90.2397298960810019
  0
ARC
  5
3C7
100
AcDbEntity
  8
icons
 62
256
370
9
 48
1.0
  6
BYLAYER
100
AcDbCircle
 10
60.0576500000000095
 20
65.4730166666666662
 30
0.0
 40
1.5176632844606885
100
AcDbArc
 50
89.760270103919197
 51
180.2397298960808314
  0
ARC
  5
3C8
100
AcDbEntity
  8
icons
 62
256
370
9
 48
1.0
  6
BYLAYER
100
AcDbCircle
 10
60.0576500000000095
 20
65.4603166666666709
 30
0.0
 40
1.5176632844606885
100
AcDbArc
 50
179.7602701039191686
 51
270.239729896080803
  0
ARC
  5
3C9
100
AcDbEntity
  8
icons
 62
256
370
9
 48
1.0
  6
BYLAYER
100
AcDbCircle
 10
30.7408196270473582
 20
87.8374040559981069
 30
0.0
 40
9.9946168936957243
100
AcDbArc
 50
73.2573689529314436
 51
90.4824263387567242
  0
ARC
  5
3CA
100
AcDbEntity
  8
icons
 62
256
370
9
 48
1.0
  6
BYLAYER
100
AcDbCircle
 10
30.3004908088235254
 20
89.9654225898692914
 30
0.0
 40
7.8743035957131049
100
AcDbArc
 50
87.407473755083501
 51
123.1027636510321059
  0
ARC
  5
3CB
100
AcDbEntity
  8
icons
 62
256
370
9
 48
1.0
  6
BYLAYER
100
AcDbCircle
 10
21.6995091911764639
 20
89.9654225898692488
 30
0.0
 40
7.8743035957131404
100
AcDbArc
 50
56.8972363489680717
 51
92.5925262449164848
  0
ARC
  5
3CC
100
AcDbEntity
  8
icons
 62
256
370
9
 48
1.0
  6
BYLAYER
100
AcDbCircle
 10
20.9871574754901964
 20
89.9654225898692488
 30
0.0
 40
7.8743035957131209
100
AcDbArc
 50
87.4074737550835579
 51
123.1027636510320207
  0
LINE
  5
3CD
100
AcDbEntity
  8
icons
 62
256
370
9
 48
1.0
  6
BYLAYER
100
AcDbLine
 10
16.686666666666671
 20
96.5616666666666816
 30
0.0
 11
16.686666666666671
 21
84.157999999999987
 31
0.0
  0
ARC
  5
3CE
100
AcDbEntity
  8
icons
 62
256
370
9
 48
1.0
  6
BYLAYER
100
AcDbCircle
 10
17.1408680555555542
 20
84.1888680555555453
 30
0.0
 40
0.4552490950264273
100
AcDbArc
 50
183.8879095608336627
 51
266.1120904391669342
  0
LINE
  5
3CF
100
AcDbEntity
  8
icons
 62
256
370
9
 48
1.0
  6
BYLAYER
100
AcDbLine
 10
17.1099999999999959
 20
83.7346666666666835
 30
0.0
 11
17.321666666666669
 21
83.777000000000001
 31
0.0
  0
ARC
  5
3D0
100
AcDbEntity
  8
icons
 62
256
370
9
 48
1.0
  6
BYLAYER
100
AcDbCircle
 10
21.6169457366866418
 20
74.3780146218834943
 30
0.0
 40
10.3339415726720443
100
AcDbArc
 50
91.5172011637796601
 51
114.5601120022663935
  0
ARC
  5
3D1
100
AcDbEntity
  8
icons
 62
256
370
9
 48
1.0
  6
BYLAYER
100
AcDbCircle
 10
21.6995091911764639
 20
76.8420892565359424
 30
0.0
 40
7.8743035957130907
100
AcDbArc
 50
56.8972363489679083
 51
92.5925262449165132
  0
ARC
  5
3D2
100
AcDbEntity
  8
icons
 62
256
370
9
 48
1.0
  6
BYLAYER
100
AcDbCircle
 10
30.9354713541666726
 20
74.5138272569444382
 30
0.0
 40
10.1983178120365388
100
AcDbArc
 50
91.5665644755820978
 51
118.9436729305335376
  0
ARC
  5
3D3
100
AcDbEntity
  8
icons
 62
256
370
9
 48
1.0
  6
BYLAYER
100
AcDbCircle
 10
30.8613434912853926
 20
76.093125317719668
 30
0.0
 40
8.6176389895858456
100
AcDbArc
 50
63.7091790628934191
 51
91.3609552529765949
  0
ARC
  5
3D4
100
AcDbEntity
  8
icons
 62
256
370
9
 48
1.0
  6
BYLAYER
100
AcDbCircle
 10
34.8559569444444435
 20
84.1571180555555571
 30
0.0
 40
0.3816394447523755
100
AcDbArc
 50
242.2624265329033051
 51
275.1177085190565208
  0
ARC
  5
3D5
100
AcDbEntity
  8
icons
 62
256
370
9
 48
1.0
  6
BYLAYER
100
AcDbCircle
 10
34.8591319444444352
 20
84.2312013888889055
 30
0.0
 40
0.455249095026427
100
AcDbArc
 50
273.8879095608336343
 51
356.1120904391667068
  0
LINE
  5
3D6
100
AcDbEntity
  8
icons
 62
256
370
9
 48
1.0
  6
BYLAYER
100
AcDbLine
 10
35.3133333333333326
 20
84.2003333333333472
 30
0.0
 11
35.3133333333333326
 21
96.5616666666666816
 31
0.0
  0
ARC
  5
3D7
100
AcDbEntity
  8
icons
 62
256
370
9
 48
1.0
  6
BYLAYER
100
AcDbCircle
 10
31.9190498737373289
 20
91.889766414141306
 30
0.0
 40
5.7747564601144461
100
AcDbArc
 50
54.0004074479859781
 51
72.8694901978581697
  0
ARC
  5
3D8
100
AcDbEntity
  8
icons
 62
256
370
9
 48
1.0
  6
BYLAYER
100
AcDbCircle
 10
30.7631398420479272
 20
76.5636455610021471
 30
0.0
 40
9.8385972482146364
100
AcDbArc
 50
73.1197289845253806
 51
90.6200663071627446
  0
ARC
  5
3D9
100
AcDbEntity
  8
icons
 62
256
370
9
 48
1.0
  6
BYLAYER
100
AcDbCircle
 10
30.9354713541666726
 20
76.2071605902777804
 30
0.0
 40
10.198317812036537
100
AcDbArc
 50
91.5665644755821972
 51
118.9436729305334381
  0
LINE
  5
3DA
100
AcDbEntity
  8
icons
 62
256
370
9
 48
1.0
  6
BYLAYER
100
AcDbLine
 10
26.0
 20
85.1316666666666748
 30
0.0
 11
26.0
 21
94.8683333333333394
 31
0.0
  0
ARC
  5
3DB
100
AcDbEntity
  8
icons
 62
256
370
9
 48
1.0
  6
BYLAYER
100
AcDbCircle
 10
30.9354713541666726
 20
85.943827256944445
 30
0.0
 40
10.1983178120365565
100
AcDbArc
 50
91.5665644755823109
 51
118.9436729305334381
  0
ARC
  5
3DC
100
AcDbEntity
  8
icons
 62
256
370
9
 48
1.0
  6
BYLAYER
100
AcDbCircle
 10
30.7631398420479272
 20
86.3003122276688117
 30
0.0
 40
9.8385972482146293
100
AcDbArc
 50
73.1197289845253806
 51
90.6200663071627446
  0
LINE
  5
3DD
100
AcDbEntity
  8
icons
 62
256
370
9
 48
1.0
  6
BYLAYER
100
AcDbLine
 10
33.6199999999999974
 20
95.7149999999999892
 30
0.0
 11
33.6199999999999974
 21
85.9783333333333246
 31
0.0
  0
LINE
  5
3DE
100
AcDbEntity
  8
icons
 62
256
370
9
 48
1.0
  6
BYLAYER
100
AcDbLine
 10
62.307668703697864
 20
89.5459881671190772
 30
0.0
 11
52.1476687036978745
 21
89.5459881671190772
 31
0.0
  0
LINE
  5
3DF
100
AcDbEntity
  8
icons
 62
256
370
9
 48
1.0
  6
BYLAYER
100
AcDbLine
 10
52.1476687036978745
 20
89.5459881671190772
 30
0.0
 11
52.1476687036978745
 21
93.7793215004524114
 31
0.0
  0
LINE
  5
3E0
100
AcDbEntity
  8
icons
 62
256
370
9
 48
1.0
  6
BYLAYER
100
AcDbLine
 10
52.1476687036978745
 20
93.7793215004524114
 30
0.0
 11
62.307668703697864
 21
93.7793215004524114
 31
0.0
  0
ARC
  5
3E1
100
AcDbEntity
  8
icons
 62
256
370
9
 48
1.0
  6
BYLAYER
100
AcDbCircle
 10
61.037668703697868
 20
85.7359881671190465
 30
0.0
 40
1.27
100
AcDbArc
 50
180.0
 51
270.0
  0
ARC
  5
3E2
100
AcDbEntity
  8
icons
 62
256
370
9
 48
1.0
  6
BYLAYER
100
AcDbCircle
 10
61.037668703697868
 20
85.7359881671190465
 30
0.0
 40
1.27
100
AcDbArc
 50
90.0000000000000142
 51
180.0
  0
ARC
  5
3E3
100
AcDbEntity
  8
icons
 62
256
370
9
 48
1.0
  6
BYLAYER
100
AcDbCircle
 10
61.037668703697868
 20
85.7359881671190465
 30
0.0
 40
1.27
100
AcDbArc
 50
0.0
 51
90.0000000000000142
  0
ARC
  5
3E4
100
AcDbEntity
  8
icons
 62
256
370
9
 48
1.0
  6
BYLAYER
100
AcDbCircle
 10
61.037668703697868
 20
85.7359881671190465
 30
0.0
 40
1.27
100
AcDbArc
 50
270.0
 51
0.0
  0
ARC
  5
3E5
100
AcDbEntity
  8
icons
 62
256
370
9
 48
1.0
  6
BYLAYER
100
AcDbCircle
 10
53.4176687036978706
 20
85.7359881671190465
 30
0.0
 40
1.27
100
AcDbArc
 50
180.0
 51
270.0
  0
ARC
  5
3E6
100
AcDbEntity
  8
icons
 62
256
370
9
 48
1.0
  6
BYLAYER
100
AcDbCircle
 10
53.4176687036978706
 20
85.7359881671190465
 30
0.0
 40
1.27
100
AcDbArc
 50
90.0000000000000142
 51
180.0
  0
ARC
  5
3E7
100
AcDbEntity
  8
icons
 62
256
370
9
 48
1.0
  6
BYLAYER
100
AcDbCircle
 10
53.4176687036978706
 20
85.7359881671190465
 30
0.0
 40
1.27
100
AcDbArc
 50
0.0
 51
90.0000000000000142
  0
ARC
  5
3E8
100
AcDbEntity
  8
icons
 62
256
370
9
 48
1.0
  6
BYLAYER
100
AcDbCircle
 10
53.4176687036978706
 20
85.7359881671190465
 30
0.0
 40
1.27
100
AcDbArc
 50
270.0
 51
0.0
  0
ARC
  5
3E9
100
AcDbEntity
  8
icons
 62
256
370
9
 48
1.0
  6
BYLAYER
100
AcDbCircle
 10
52.9824209827225232
 20
85.3209414459589794
 30
0.0
 40
2.5280991933373143
100
AcDbArc
 50
180.187804638137294
 51
228.3106041826651733
  0
LINE
  5
3EA
100
AcDbEntity
  8
icons
 62
256
370
9
 48
1.0
  6
BYLAYER
100
AcDbLine
 10
51.3010020370312034
 20
83.4330548337857181
 30
0.0
 11
51.3010020370312034
 21
81.9259881671190584
 31
0.0
  0
ARC
  5
3EB
100
AcDbEntity
  8
icons
 62
256
370
9
 48
1.0
  6
BYLAYER
100
AcDbCircle
 10
52.1476687036978745
 20
81.9259881671190584
 30
0.0
 40
0.8466666666666667
100
AcDbArc
 50
180.0
 51
270.0
  0
LINE
  5
3EC
100
AcDbEntity
  8
icons
 62
256
370
9
 48
1.0
  6
BYLAYER
100
AcDbLine
 10
52.1476687036978745
 20
81.0793215004524086
 30
0.0
 11
52.9943353703645457
 21
81.0793215004524086
 31
0.0
  0
ARC
  5
3ED
100
AcDbEntity
  8
icons
 62
256
370
9
 48
1.0
  6
BYLAYER
100
AcDbCircle
 10
52.9943353703645457
 20
81.9259881671190584
 30
0.0
 40
0.8466666666666667
100
AcDbArc
 50
270.0
 51
0.0
  0
LINE
  5
3EE
100
AcDbEntity
  8
icons
 62
256
370
9
 48
1.0
  6
BYLAYER
100
AcDbLine
 10
53.8410020370311955
 20
81.9259881671190584
 30
0.0
 11
53.8410020370311955
 21
82.7726548337857508
 31
0.0
  0
LINE
  5
3EF
100
AcDbEntity
  8
icons
 62
256
370
9
 48
1.0
  6
BYLAYER
100
AcDbLine
 10
53.8410020370311955
 20
82.7726548337857508
 30
0.0
 11
60.6143353703645431
 21
82.7726548337857508
 31
0.0
  0
LINE
  5
3F0
100
AcDbEntity
  8
icons
 62
256
370
9
 48
1.0
  6
BYLAYER
100
AcDbLine
 10
60.6143353703645431
 20
82.7726548337857508
 30
0.0
 11
60.6143353703645431
 21
81.9259881671190584
 31
0.0
  0
ARC
  5
3F1
100
AcDbEntity
  8
icons
 62
256
370
9
 48
1.0
  6
BYLAYER
100
AcDbCircle
 10
61.4610020370311929
 20
81.9259881671190584
 30
0.0
 40
0.8466666666666667
100
AcDbArc
 50
180.0
 51
270.0
  0
LINE
  5
3F2
100
AcDbEntity
  8
icons
 62
256
370
9
 48
1.0
  6
BYLAYER
100
AcDbLine
 10
61.4610020370311929
 20
81.0793215004524086
 30
0.0
 11
62.307668703697864
 21
81.0793215004524086
 31
0.0
  0
ARC
  5
3F3
100
AcDbEntity
  8
icons
 62
256
370
9
 48
1.0
  6
BYLAYER
100
AcDbCircle
 10
62.307668703697864
 20
81.9259881671190584
 30
0.0
 40
0.8466666666666667
100
AcDbArc
 50
270.0
 51
0.0
  0
LINE
  5
3F4
100
AcDbEntity
  8
icons
 62
256
370
9
 48
1.0
  6
BYLAYER
100
AcDbLine
 10
63.1543353703645352
 20
81.9259881671190584
 30
0.0
 11
63.1543353703645352
 21
83.4330548337857181
 31
0.0
  0
ARC
  5
3F5
100
AcDbEntity
  8
icons
 62
256
370
9
 48
1.0
  6
BYLAYER
100
AcDbCircle
 10
61.4729164246732154
 20
85.3209414459589794
 30
0.0
 40
2.5280991933373143
100
AcDbArc
 50
311.6893958173348551
 51
359.8121953618626776
  0
LINE
  5
3F6
100
AcDbEntity
  8
icons
 62
256
370
9
 48
1.0
  6
BYLAYER
100
AcDbLine
 10
64.0010020370312134
 20
85.3126548337857429
 30
0.0
 11
64.0010020370312134
 21
93.7793215004524114
 31
0.0
  0
SPLINE
  5
3F7
100
AcDbEntity
  8
icons
 62
256
370
9
 48
1.0
  6
BYLAYER
100
AcDbSpline
 70
8
 71
3
 72
8
 73
4
 74
0
 40
0.0
 40
0.0
 40
0.0
 40
0.0
 40
1.0
 40
1.0
 40
1.0
 40
1.0
 10
64.0010020370312134
 20
93.7793215004524114
 30
0.0
 10
64.0010020370312134
 20
96.7426548337857497
 30
0.0
 10
60.9699353703645386
 20
97.1659881671190533
 30
0.0
 10
57.2276687036978799
 20
97.1659881671190533
 30
0.0
  0
SPLINE
  5
3F8
100
AcDbEntity
  8
icons
 62
256
370
9
 48
1.0
  6
BYLAYER
100
AcDbSpline
 70
8
 71
3
 72
8
 73
4
 74
0
 40
0.0
 40
0.0
 40
0.0
 40
0.0
 40
1.0
 40
1.0
 40
1.0
 40
1.0
 10
57.2276687036978799
 20
97.1659881671190533
 30
0.0
 10
53.4854020370312
 20
97.1659881671190533
 30
0.0
 10
50.4543353703645323
 20
96.7426548337857497
 30
0.0
 10
50.4543353703645323
 20
93.7793215004524114
 30
0.0
  0
LINE
  5
3F9
100
AcDbEntity
  8
icons
 62
256
370
9
 48
1.0
  6
BYLAYER
100
AcDbLine
 10
50.4543353703645323
 20
93.7793215004524114
 30
0.0
 11
50.4543353703645323
 21
85.3126548337857429
 31
0.0
  0
LINE
  5
3FA
100
AcDbEntity
  8
icons
 62
256
370
9
 48
1.0
  6
BYLAYER
100
AcDbLine
 10
84.7666666666666941
 20
64.6199999999999903
 30
0.0
 11
93.2333333333333627
 21
64.6199999999999903
 31
0.0
  0
ARC
  5
3FB
100
AcDbEntity
  8
icons
 62
256
370
9
 48
1.0
  6
BYLAYER
100
AcDbCircle
 10
93.2333333333333627
 20
62.9266666666666623
 30
0.0
 40
1.6933333333333334
100
AcDbArc
 50
0.0
 51
90.0000000000000142
  0
LINE
  5
3FC
100
AcDbEntity
  8
icons
 62
256
370
9
 48
1.0
  6
BYLAYER
100
AcDbLine
 10
94.9266666666666623
 20
62.9266666666666623
 30
0.0
 11
94.9266666666666623
 21
49.3799999999999955
 31
0.0
  0
ARC
  5
3FD
100
AcDbEntity
  8
icons
 62
256
370
9
 48
1.0
  6
BYLAYER
100
AcDbCircle
 10
93.2333333333333627
 20
49.3799999999999955
 30
0.0
 40
1.6933333333333334
100
AcDbArc
 50
270.0
 51
0.0
  0
LINE
  5
3FE
100
AcDbEntity
  8
icons
 62
256
370
9
 48
1.0
  6
BYLAYER
100
AcDbLine
 10
93.2333333333333627
 20
47.6866666666666745
 30
0.0
 11
84.7666666666666941
 21
47.6866666666666745
 31
0.0
  0
ARC
  5
3FF
100
AcDbEntity
  8
icons
 62
256
370
9
 48
1.0
  6
BYLAYER
100
AcDbCircle
 10
84.7666666666666941
 20
49.3799999999999955
 30
0.0
 40
1.6933333333333334
100
AcDbArc
 50
180.0
 51
270.0
  0
LINE
  5
400
100
AcDbEntity
  8
icons
 62
256
370
9
 48
1.0
  6
BYLAYER
100
AcDbLine
 10
83.0733333333333519
 20
49.3799999999999955
 30
0.0
 11
83.0733333333333519
 21
62.9266666666666623
 31
0.0
  0
ARC
  5
401
100
AcDbEntity
  8
icons
 62
256
370
9
 48
1.0
  6
BYLAYER
100
AcDbCircle
 10
84.7666666666666941
 20
62.9266666666666623
 30
0.0
 40
1.6933333333333334
100
AcDbArc
 50
90.0000000000000142
 51
180.0
  0
LINE
  5
402
100
AcDbEntity
  8
icons
 62
256
370
9
 48
1.0
  6
BYLAYER
100
AcDbLine
 10
84.7666666666666941
 20
62.9266666666666623
 30
0.0
 11
84.7666666666666941
 21
59.5400000000000063
 31
0.0
  0
LINE
  5
403
100
AcDbEntity
  8
icons
 62
256
370
9
 48
1.0
  6
BYLAYER
100
AcDbLine
 10
84.7666666666666941
 20
59.5400000000000063
 30
0.0
 11
93.2333333333333627
 21
59.5400000000000063
 31
0.0
  0
LINE
  5
404
100
AcDbEntity
  8
icons
 62
256
370
9
 48
1.0
  6
BYLAYER
100
AcDbLine
 10
93.2333333333333627
 20
59.5400000000000063
 30
0.0
 11
93.2333333333333627
 21
62.9266666666666623
 31
0.0
  0
LINE
  5
405
100
AcDbEntity
  8
icons
 62
256
370
9
 48
1.0
  6
BYLAYER
100
AcDbLine
 10
93.2333333333333627
 20
62.9266666666666623
 30
0.0
 11
84.7666666666666941
 21
62.9266666666666623
 31
0.0
  0
LINE
  5
406
100
AcDbEntity
  8
icons
 62
256
370
9
 48
1.0
  6
BYLAYER
100
AcDbLine
 10
84.7666666666666941
 20
57.846666666666664
 30
0.0
 11
84.7666666666666941
 21
56.1533333333333218
 31
0.0
  0
LINE
  5
407
100
AcDbEntity
  8
icons
 62
256
370
9
 48
1.0
  6
BYLAYER
100
AcDbLine
 10
84.7666666666666941
 20
56.1533333333333218
 30
0.0
 11
86.4600000000000364
 21
56.1533333333333218
 31
0.0
  0
LINE
  5
408
100
AcDbEntity
  8
icons
 62
256
370
9
 48
1.0
  6
BYLAYER
100
AcDbLine
 10
86.4600000000000364
 20
56.1533333333333218
 30
0.0
 11
86.4600000000000364
 21
57.846666666666664
 31
0.0
  0
LINE
  5
409
100
AcDbEntity
  8
icons
 62
256
370
9
 48
1.0
  6
BYLAYER
100
AcDbLine
 10
86.4600000000000364
 20
57.846666666666664
 30
0.0
 11
84.7666666666666941
 21
57.846666666666664
 31
0.0
  0
LINE
  5
40A
100
AcDbEntity
  8
icons
 62
256
370
9
 48
1.0
  6
BYLAYER
100
AcDbLine
 10
88.153333333333336
 20
57.846666666666664
 30
0.0
 11
88.153333333333336
 21
56.1533333333333218
 31
0.0
  0
LINE
  5
40B
100
AcDbEntity
  8
icons
 62
256
370
9
 48
1.0
  6
BYLAYER
100
AcDbLine
 10
88.153333333333336
 20
56.1533333333333218
 30
0.0
 11
89.8466666666666782
 21
56.1533333333333218
 31
0.0
  0
LINE
  5
40C
100
AcDbEntity
  8
icons
 62
256
370
9
 48
1.0
  6
BYLAYER
100
AcDbLine
 10
89.8466666666666782
 20
56.1533333333333218
 30
0.0
 11
89.8466666666666782
 21
57.846666666666664
 31
0.0
  0
LINE
  5
40D
100
AcDbEntity
  8
icons
 62
256
370
9
 48
1.0
  6
BYLAYER
100
AcDbLine
 10
89.8466666666666782
 20
57.846666666666664
 30
0.0
 11
88.153333333333336
 21
57.846666666666664
 31
0.0
  0
LINE
  5
40E
100
AcDbEntity
  8
icons
 62
256
370
9
 48
1.0
  6
BYLAYER
100
AcDbLine
 10
91.5400000000000205
 20
57.846666666666664
 30
0.0
 11
91.5400000000000205
 21
56.1533333333333218
 31
0.0
  0
LINE
  5
40F
100
AcDbEntity
  8
icons
 62
256
370
9
 48
1.0
  6
BYLAYER
100
AcDbLine
 10
91.5400000000000205
 20
56.1533333333333218
 30
0.0
 11
93.2333333333333627
 21
56.1533333333333218
 31
0.0
  0
LINE
  5
410
100
AcDbEntity
  8
icons
 62
256
370
9
 48
1.0
  6
BYLAYER
100
AcDbLine
 10
93.2333333333333627
 20
56.1533333333333218
 30
0.0
 11
93.2333333333333627
 21
57.846666666666664
 31
0.0
  0
LINE
  5
411
100
AcDbEntity
  8
icons
 62
256
370
9
 48
1.0
  6
BYLAYER
100
AcDbLine
 10
93.2333333333333627
 20
57.846666666666664
 30
0.0
 11
91.5400000000000205
 21
57.846666666666664
 31
0.0
  0
LINE
  5
412
100
AcDbEntity
  8
icons
 62
256
370
9
 48
1.0
  6
BYLAYER
100
AcDbLine
 10
84.7666666666666941
 20
54.4600000000000009
 30
0.0
 11
84.7666666666666941
 21
52.7666666666666586
 31
0.0
  0
LINE
  5
413
100
AcDbEntity
  8
icons
 62
256
370
9
 48
1.0
  6
BYLAYER
100
AcDbLine
 10
84.7666666666666941
 20
52.7666666666666586
 30
0.0
 11
86.4600000000000364
 21
52.7666666666666586
 31
0.0
  0
LINE
  5
414
100
AcDbEntity
  8
icons
 62
256
370
9
 48
1.0
  6
BYLAYER
100
AcDbLine
 10
86.4600000000000364
 20
52.7666666666666586
 30
0.0
 11
86.4600000000000364
 21
54.4600000000000009
 31
0.0
  0
LINE
  5
415
100
AcDbEntity
  8
icons
 62
256
370
9
 48
1.0
  6
BYLAYER
100
AcDbLine
 10
86.4600000000000364
 20
54.4600000000000009
 30
0.0
 11
84.7666666666666941
 21
54.4600000000000009
 31
0.0
  0
LINE
  5
416
100
AcDbEntity
  8
icons
 62
256
370
9
 48
1.0
  6
BYLAYER
100
AcDbLine
 10
88.153333333333336
 20
54.4600000000000009
 30
0.0
 11
88.153333333333336
 21
52.7666666666666586
 31
0.0
  0
LINE
  5
417
100
AcDbEntity
  8
icons
 62
256
370
9
 48
1.0
  6
BYLAYER
100
AcDbLine
 10
88.153333333333336
 20
52.7666666666666586
 30
0.0
 11
89.8466666666666782
 21
52.7666666666666586
 31
0.0
  0
LINE
  5
418
100
AcDbEntity
  8
icons
 62
256
370
9
 48
1.0
  6
BYLAYER
100
AcDbLine
 10
89.8466666666666782
 20
52.7666666666666586
 30
0.0
 11
89.8466666666666782
 21
54.4600000000000009
 31
0.0
  0
LINE
  5
419
100
AcDbEntity
  8
icons
 62
256
370
9
 48
1.0
  6
BYLAYER
100
AcDbLine
 10
89.8466666666666782
 20
54.4600000000000009
 30
0.0
 11
88.153333333333336
 21
54.4600000000000009
 31
0.0
  0
LINE
  5
41A
100
AcDbEntity
  8
icons
 62
256
370
9
 48
1.0
  6
BYLAYER
100
AcDbLine
 10
91.5400000000000205
 20
54.4600000000000009
 30
0.0
 11
91.5400000000000205
 21
52.7666666666666586
 31
0.0
  0
LINE
  5
41B
100
AcDbEntity
  8
icons
 62
256
370
9
 48
1.0
  6
BYLAYER
100
AcDbLine
 10
91.5400000000000205
 20
52.7666666666666586
 30
0.0
 11
93.2333333333333627
 21
52.7666666666666586
 31
0.0
  0
LINE
  5
41C
100
AcDbEntity
  8
icons
 62
256
370
9
 48
1.0
  6
BYLAYER
100
AcDbLine
 10
93.2333333333333627
 20
52.7666666666666586
 30
0.0
 11
93.2333333333333627
 21
54.4600000000000009
 31
0.0
  0
LINE
  5
41D
100
AcDbEntity
  8
icons
 62
256
370
9
 48
1.0
  6
BYLAYER
100
AcDbLine
 10
93.2333333333333627
 20
54.4600000000000009
 30
0.0
 11
91.5400000000000205
 21
54.4600000000000009
 31
0.0
  0
LINE
  5
41E
100
AcDbEntity
  8
icons
 62
256
370
9
 48
1.0
  6
BYLAYER
100
AcDbLine
 10
84.7666666666666941
 20
51.0733333333333377
 30
0.0
 11
84.7666666666666941
 21
49.3799999999999955
 31
0.0
  0
LINE
  5
41F
100
AcDbEntity
  8
icons
 62
256
370
9
 48
1.0
  6
BYLAYER
100
AcDbLine
 10
84.7666666666666941
 20
49.3799999999999955
 30
0.0
 11
86.4600000000000364
 21
49.3799999999999955
 31
0.0
  0
LINE
  5
420
100
AcDbEntity
  8
icons
 62
256
370
9
 48
1.0
  6
BYLAYER
100
AcDbLine
 10
86.4600000000000364
 20
49.3799999999999955
 30
0.0
 11
86.4600000000000364
 21
51.0733333333333377
 31
0.0
  0
LINE
  5
421
100
AcDbEntity
  8
icons
 62
256
370
9
 48
1.0
  6
BYLAYER
100
AcDbLine
 10
86.4600000000000364
 20
51.0733333333333377
 30
0.0
 11
84.7666666666666941
 21
51.0733333333333377
 31
0.0
  0
LINE
  5
422
100
AcDbEntity
  8
icons
 62
256
370
9
 48
1.0
  6
BYLAYER
100
AcDbLine
 10
88.153333333333336
 20
51.0733333333333377
 30
0.0
 11
88.153333333333336
 21
49.3799999999999955
 31
0.0
  0
LINE
  5
423
100
AcDbEntity
  8
icons
 62
256
370
9
 48
1.0
  6
BYLAYER
100
AcDbLine
 10
88.153333333333336
 20
49.3799999999999955
 30
0.0
 11
89.8466666666666782
 21
49.3799999999999955
 31
0.0
  0
LINE
  5
424
100
AcDbEntity
  8
icons
 62
256
370
9
 48
1.0
  6
BYLAYER
100
AcDbLine
 10
89.8466666666666782
 20
49.3799999999999955
 30
0.0
 11
89.8466666666666782
 21
51.0733333333333377
 31
0.0
  0
LINE
  5
425
100
AcDbEntity
  8
icons
 62
256
370
9
 48
1.0
  6
BYLAYER
100
AcDbLine
 10
89.8466666666666782
 20
51.0733333333333377
 30
0.0
 11
88.153333333333336
 21
51.0733333333333377
 31
0.0
  0
LINE
  5
426
100
AcDbEntity
  8
icons
 62
256
370
9
 48
1.0
  6
BYLAYER
100
AcDbLine
 10
91.5400000000000205
 20
51.0733333333333377
 30
0.0
 11
91.5400000000000205
 21
49.3799999999999955
 31
0.0
  0
LINE
  5
427
100
AcDbEntity
  8
icons
 62
256
370
9
 48
1.0
  6
BYLAYER
100
AcDbLine
 10
91.5400000000000205
 20
49.3799999999999955
 30
0.0
 11
93.2333333333333627
 21
49.3799999999999955
 31
0.0
  0
LINE
  5
428
100
AcDbEntity
  8
icons
 62
256
370
9
 48
1.0
  6
BYLAYER
100
AcDbLine
 10
93.2333333333333627
 20
49.3799999999999955
 30
0.0
 11
93.2333333333333627
 21
51.0733333333333377
 31
0.0
  0
LINE
  5
429
100
AcDbEntity
  8
icons
 62
256
370
9
 48
1.0
  6
BYLAYER
100
AcDbLine
 10
93.2333333333333627
 20
51.0733333333333377
 30
0.0
 11
91.5400000000000205
 21
51.0733333333333377
 31
0.0
  0
LINE
  5
42A
100
AcDbEntity
  8
icons
 62
256
370
9
 48
1.0
  6
BYLAYER
100
AcDbLine
 10
89.0000000000000142
 20
94.0800000000000267
 30
0.0
 11
87.8739333333333406
 21
94.0038000000000125
 31
0.0
  0
SPLINE
  5
42B
100
AcDbEntity
  8
icons
 62
256
370
9
 48
1.0
  6
BYLAYER
100
AcDbSpline
 70
8
 71
3
 72
8
 73
4
 74
0
 40
0.0
 40
0.0
 40
0.0
 40
0.0
 40
1.0
 40
1.0
 40
1.0
 40
1.0
 10
87.8739333333333406
 20
94.0038000000000125
 30
0.0
 10
87.1458000000000226
 20
94.8674000000000319
 30
0.0
 10
85.1053333333333484
 20
97.043333333333365
 30
0.0
 10
83.0733333333333377
 20
97.043333333333365
 30
0.0
  0
ARC
  5
42C
100
AcDbEntity
  8
icons
 62
256
370
9
 48
1.0
  6
BYLAYER
100
AcDbCircle
 10
88.3859028055261007
 20
94.0872490430939479
 30
0.0
 40
6.0796240613935089
100
AcDbArc
 50
150.9070319229243751
 51
208.4296379520670541
  0
ARC
  5
42D
100
AcDbEntity
  8
icons
 62
256
370
9
 48
1.0
  6
BYLAYER
100
AcDbCircle
 10
85.6392789721141128
 20
88.9577160830091032
 30
0.0
 40
3.428545195149229
100
AcDbArc
 50
139.3131861378241183
 51
174.4741601456331352
  0
LINE
  5
42E
100
AcDbEntity
  8
icons
 62
256
370
9
 48
1.0
  6
BYLAYER
100
AcDbLine
 10
82.2266666666666879
 20
89.2878666666666874
 30
0.0
 11
80.5925999999999902
 21
89.0423333333333602
 31
0.0
  0
LINE
  5
42F
100
AcDbEntity
  8
icons
 62
256
370
9
 48
1.0
  6
BYLAYER
100
AcDbLine
 10
80.5925999999999902
 20
89.0423333333333602
 30
0.0
 11
80.7704000000000093
 21
88.2126000000000374
 31
0.0
  0
LINE
  5
430
100
AcDbEntity
  8
icons
 62
256
370
9
 48
1.0
  6
BYLAYER
100
AcDbLine
 10
80.7704000000000093
 20
88.2126000000000374
 30
0.0
 11
82.2605333333333419
 21
88.4327333333333314
 31
0.0
  0
LINE
  5
431
100
AcDbEntity
  8
icons
 62
256
370
9
 48
1.0
  6
BYLAYER
100
AcDbLine
 10
82.2605333333333419
 20
88.4327333333333314
 30
0.0
 11
82.3790666666666738
 21
87.8316000000000088
 31
0.0
  0
LINE
  5
432
100
AcDbEntity
  8
icons
 62
256
370
9
 48
1.0
  6
BYLAYER
100
AcDbLine
 10
82.3790666666666738
 20
87.8316000000000088
 30
0.0
 11
81.0497999999999905
 21
87.0357333333333401
 31
0.0
  0
LINE
  5
433
100
AcDbEntity
  8
icons
 62
256
370
9
 48
1.0
  6
BYLAYER
100
AcDbLine
 10
81.0497999999999905
 20
87.0357333333333401
 30
0.0
 11
81.4477333333333462
 21
86.2822000000000315
 31
0.0
  0
LINE
  5
434
100
AcDbEntity
  8
icons
 62
256
370
9
 48
1.0
  6
BYLAYER
100
AcDbLine
 10
81.4477333333333462
 20
86.2822000000000315
 30
0.0
 11
82.6754000000000246
 21
87.0357333333333401
 31
0.0
  0
SPLINE
  5
435
100
AcDbEntity
  8
icons
 62
256
370
9
 48
1.0
  6
BYLAYER
100
AcDbSpline
 70
8
 71
3
 72
8
 73
4
 74
0
 40
0.0
 40
0.0
 40
0.0
 40
0.0
 40
1.0
 40
1.0
 40
1.0
 40
1.0
 10
82.6754000000000246
 20
87.0357333333333401
 30
0.0
 10
83.6490666666666698
 20
84.9698666666666753
 30
0.0
 10
86.1128666666666902
 20
83.9200000000000159
 30
0.0
 10
89.0000000000000142
 20
83.9200000000000159
 30
0.0
  0
SPLINE
  5
436
100
AcDbEntity
  8
icons
 62
256
370
9
 48
1.0
  6
BYLAYER
100
AcDbSpline
 70
8
 71
3
 72
8
 73
4
 74
0
 40
0.0
 40
0.0
 40
0.0
 40
0.0
 40
1.0
 40
1.0
 40
1.0
 40
1.0
 10
89.0000000000000142
 20
83.9200000000000159
 30
0.0
 10
91.8871333333333382
 20
83.9200000000000159
 30
0.0
 10
94.3509333333333586
 20
84.9698666666666753
 30
0.0
 10
95.3246000000000038
 20
87.0357333333333401
 30
0.0
  0
LINE
  5
437
100
AcDbEntity
  8
icons
 62
256
370
9
 48
1.0
  6
BYLAYER
100
AcDbLine
 10
95.3246000000000038
 20
87.0357333333333401
 30
0.0
 11
96.5522666666666822
 21
86.2822000000000315
 31
0.0
  0
LINE
  5
438
100
AcDbEntity
  8
icons
 62
256
370
9
 48
1.0
  6
BYLAYER
100
AcDbLine
 10
96.5522666666666822
 20
86.2822000000000315
 30
0.0
 11
96.9501999999999953
 21
87.0357333333333401
 31
0.0
  0
LINE
  5
439
100
AcDbEntity
  8
icons
 62
256
370
9
 48
1.0
  6
BYLAYER
100
AcDbLine
 10
96.9501999999999953
 20
87.0357333333333401
 30
0.0
 11
95.6209333333333547
 21
87.8316000000000088
 31
0.0
  0
LINE
  5
43A
100
AcDbEntity
  8
icons
 62
256
370
9
 48
1.0
  6
BYLAYER
100
AcDbLine
 10
95.6209333333333547
 20
87.8316000000000088
 30
0.0
 11
95.7394666666666865
 21
88.4327333333333314
 31
0.0
  0
LINE
  5
43B
100
AcDbEntity
  8
icons
 62
256
370
9
 48
1.0
  6
BYLAYER
100
AcDbLine
 10
95.7394666666666865
 20
88.4327333333333314
 30
0.0
 11
97.2296000000000191
 21
88.2126000000000374
 31
0.0
  0
LINE
  5
43C
100
AcDbEntity
  8
icons
 62
256
370
9
 48
1.0
  6
BYLAYER
100
AcDbLine
 10
97.2296000000000191
 20
88.2126000000000374
 30
0.0
 11
97.4073999999999955
 21
89.0423333333333602
 31
0.0
  0
LINE
  5
43D
100
AcDbEntity
  8
icons
 62
256
370
9
 48
1.0
  6
BYLAYER
100
AcDbLine
 10
97.4073999999999955
 20
89.0423333333333602
 30
0.0
 11
95.7733333333333405
 21
89.2878666666666874
 31
0.0
  0
ARC
  5
43E
100
AcDbEntity
  8
icons
 62
256
370
9
 48
1.0
  6
BYLAYER
100
AcDbCircle
 10
92.3607210278858304
 20
88.9577160830090605
 30
0.0
 40
3.4285451951493036
100
AcDbArc
 50
5.5258398543677121
 51
40.6868138621757751
  0
ARC
  5
43F
100
AcDbEntity
  8
icons
 62
256
370
9
 48
1.0
  6
BYLAYER
100
AcDbCircle
 10
89.6140971944738851
 20
94.0872490430939479
 30
0.0
 40
6.0796240613935293
100
AcDbArc
 50
331.5703620479332017
 51
29.0929680770755965
  0
SPLINE
  5
440
100
AcDbEntity
  8
icons
 62
256
370
9
 48
1.0
  6
BYLAYER
100
AcDbSpline
 70
8
 71
3
 72
8
 73
4
 74
0
 40
0.0
 40
0.0
 40
0.0
 40
0.0
 40
1.0
 40
1.0
 40
1.0
 40
1.0
 10
94.9266666666666481
 20
97.043333333333365
 30
0.0
 10
92.89466666666668
 20
97.043333333333365
 30
0.0
 10
90.8542000000000058
 20
94.8674000000000319
 30
0.0
 10
90.1260666666666879
 20
94.0038000000000125
 30
0.0
  0
LINE
  5
441
100
AcDbEntity
  8
icons
 62
256
370
9
 48
1.0
  6
BYLAYER
100
AcDbLine
 10
90.1260666666666879
 20
94.0038000000000125
 30
0.0
 11
89.0000000000000142
 21
94.0800000000000267
 31
0.0
  0
ARC
  5
442
100
AcDbEntity
  8
icons
 62
256
370
9
 48
1.0
  6
BYLAYER
100
AcDbCircle
 10
86.4600000000000222
 20
90.6933333333333422
 30
0.0
 40
0.8466666666666667
100
AcDbArc
 50
0.0
 51
90.0000000000000142
  0
ARC
  5
443
100
AcDbEntity
  8
icons
 62
256
370
9
 48
1.0
  6
BYLAYER
100
AcDbCircle
 10
86.4600000000000222
 20
90.6933333333333422
 30
0.0
 40
0.8466666666666667
100
AcDbArc
 50
270.0
 51
0.0
  0
ARC
  5
444
100
AcDbEntity
  8
icons
 62
256
370
9
 48
1.0
  6
BYLAYER
100
AcDbCircle
 10
86.4600000000000222
 20
90.6933333333333422
 30
0.0
 40
0.8466666666666667
100
AcDbArc
 50
180.0
 51
270.0
  0
ARC
  5
445
100
AcDbEntity
  8
icons
 62
256
370
9
 48
1.0
  6
BYLAYER
100
AcDbCircle
 10
86.4600000000000222
 20
90.6933333333333422
 30
0.0
 40
0.8466666666666667
100
AcDbArc
 50
90.0000000000000142
 51
180.0
  0
ARC
  5
446
100
AcDbEntity
  8
icons
 62
256
370
9
 48
1.0
  6
BYLAYER
100
AcDbCircle
 10
91.5400000000000063
 20
90.6933333333333422
 30
0.0
 40
0.8466666666666667
100
AcDbArc
 50
0.0
 51
90.0000000000000142
  0
ARC
  5
447
100
AcDbEntity
  8
icons
 62
256
370
9
 48
1.0
  6
BYLAYER
100
AcDbCircle
 10
91.5400000000000063
 20
90.6933333333333422
 30
0.0
 40
0.8466666666666667
100
AcDbArc
 50
270.0
 51
0.0
  0
ARC
  5
448
100
AcDbEntity
  8
icons
 62
256
370
9
 48
1.0
  6
BYLAYER
100
AcDbCircle
 10
91.5400000000000063
 20
90.6933333333333422
 30
0.0
 40
0.8466666666666667
100
AcDbArc
 50
180.0
 51
270.0
  0
ARC
  5
449
100
AcDbEntity
  8
icons
 62
256
370
9
 48
1.0
  6
BYLAYER
100
AcDbCircle
 10
91.5400000000000063
 20
90.6933333333333422
 30
0.0
 40
0.8466666666666667
100
AcDbArc
 50
90.0000000000000142
 51
180.0
  0
LINE
  5
44A
100
AcDbEntity
  8
icons
 62
256
370
9
 48
1.0
  6
BYLAYER
100
AcDbLine
 10
88.1533333333333218
 20
89.0
 30
0.0
 11
89.846666666666664
 21
89.0
 31
0.0
  0
LINE
  5
44B
100
AcDbEntity
  8
icons
 62
256
370
9
 48
1.0
  6
BYLAYER
100
AcDbLine
 10
89.846666666666664
 20
89.0
 30
0.0
 11
89.2540000000000049
 21
87.8231333333333453
 31
0.0
  0
ARC
  5
44C
100
AcDbEntity
  8
icons
 62
256
370
9
 48
1.0
  6
BYLAYER
100
AcDbCircle
 10
90.4997606146817049
 20
88.1787239260857092
 30
0.0
 40
1.2955169542488085
100
AcDbArc
 50
195.9308945456348852
 51
269.1997475912296522
  0
ARC
  5
44D
100
AcDbEntity
  8
icons
 62
256
370
9
 48
1.0
  6
BYLAYER
100
AcDbCircle
 10
90.4816666666666833
 20
88.1533333333333502
 30
0.0
 40
1.27
100
AcDbArc
 50
270.0
 51
0.0
  0
LINE
  5
44E
100
AcDbEntity
  8
icons
 62
256
370
9
 48
1.0
  6
BYLAYER
100
AcDbLine
 10
91.7516666666666794
 20
88.1533333333333502
 30
0.0
 11
92.1749999999999829
 21
88.1533333333333502
 31
0.0
  0
ARC
  5
44F
100
AcDbEntity
  8
icons
 62
256
370
9
 48
1.0
  6
BYLAYER
100
AcDbCircle
 10
90.4816666666666833
 20
88.1533333333333502
 30
0.0
 40
1.6933333333333334
100
AcDbArc
 50
270.0
 51
0.0
  0
ARC
  5
450
100
AcDbEntity
  8
icons
 62
256
370
9
 48
1.0
  6
BYLAYER
100
AcDbCircle
 10
90.4848939984487259
 20
88.1854394972852589
 30
0.0
 40
1.7254425155485085
100
AcDbArc
 50
210.6174056231692759
 51
269.8928317829463026
  0
LINE
  5
451
100
AcDbEntity
  8
icons
 62
256
370
9
 48
1.0
  6
BYLAYER
100
AcDbLine
 10
89.0000000000000142
 20
87.3066666666667004
 30
0.0
 11
89.0000000000000142
 21
87.3066666666667004
 31
0.0
  0
LINE
  5
452
100
AcDbEntity
  8
icons
 62
256
370
9
 48
1.0
  6
BYLAYER
100
AcDbLine
 10
89.0000000000000142
 20
87.3066666666667004
 30
0.0
 11
89.0000000000000142
 21
87.3066666666667004
 31
0.0
  0
ARC
  5
453
100
AcDbEntity
  8
icons
 62
256
370
9
 48
1.0
  6
BYLAYER
100
AcDbCircle
 10
87.5151060015513025
 20
88.1854394972852589
 30
0.0
 40
1.7254425155485156
100
AcDbArc
 50
270.1071682170536974
 51
329.3825943768304683
  0
ARC
  5
454
100
AcDbEntity
  8
icons
 62
256
370
9
 48
1.0
  6
BYLAYER
100
AcDbCircle
 10
87.5183333333333451
 20
88.1533333333333502
 30
0.0
 40
1.6933333333333334
100
AcDbArc
 50
180.0
 51
270.0
  0
LINE
  5
455
100
AcDbEntity
  8
icons
 62
256
370
9
 48
1.0
  6
BYLAYER
100
AcDbLine
 10
85.8250000000000028
 20
88.1533333333333502
 30
0.0
 11
86.2483333333333491
 21
88.1533333333333502
 31
0.0
  0
ARC
  5
456
100
AcDbEntity
  8
icons
 62
256
370
9
 48
1.0
  6
BYLAYER
100
AcDbCircle
 10
87.5183333333333451
 20
88.1533333333333502
 30
0.0
 40
1.27
100
AcDbArc
 50
180.0
 51
270.0
  0
ARC
  5
457
100
AcDbEntity
  8
icons
 62
256
370
9
 48
1.0
  6
BYLAYER
100
AcDbCircle
 10
87.5002393853182809
 20
88.1787239260857092
 30
0.0
 40
1.2955169542488103
100
AcDbArc
 50
270.8002524087703478
 51
344.069105454365058
  0
LINE
  5
458
100
AcDbEntity
  8
icons
 62
256
370
9
 48
1.0
  6
BYLAYER
100
AcDbLine
 10
88.7459999999999809
 20
87.8231333333333453
 30
0.0
 11
88.1533333333333218
 21
89.0
 31
0.0
  0
ARC
  5
459
100
AcDbEntity
  8
icons
 62
256
370
9
 48
1.0
  6
BYLAYER
100
AcDbCircle
 10
115.4599999999999653
 20
82.5258000000000322
 30
0.0
 40
0.8466666666666667
100
AcDbArc
 50
180.0
 51
270.0
  0
LINE
  5
45A
100
AcDbEntity
  8
icons
 62
256
370
9
 48
1.0
  6
BYLAYER
100
AcDbLine
 10
115.4599999999999653
 20
81.6791333333333398
 30
0.0
 11
125.6199999999999761
 21
81.6791333333333398
 31
0.0
  0
ARC
  5
45B
100
AcDbEntity
  8
icons
 62
256
370
9
 48
1.0
  6
BYLAYER
100
AcDbCircle
 10
125.6199999999999761
 20
82.5258000000000322
 30
0.0
 40
0.8466666666666667
100
AcDbArc
 50
270.0
 51
0.0
  0
ARC
  5
45C
100
AcDbEntity
  8
icons
 62
256
370
9
 48
1.0
  6
BYLAYER
100
AcDbCircle
 10
125.6072512900976506
 20
82.5197688284519302
 30
0.0
 40
0.8594365389681122
100
AcDbArc
 50
0.4020814753607023
 51
34.6490552720850573
  0
LINE
  5
45D
100
AcDbEntity
  8
icons
 62
256
370
9
 48
1.0
  6
BYLAYER
100
AcDbLine
 10
126.31426666666664
 20
83.0084000000000231
 30
0.0
 11
121.3866666666666418
 21
91.5427999999999997
 31
0.0
  0
LINE
  5
45E
100
AcDbEntity
  8
icons
 62
256
370
9
 48
1.0
  6
BYLAYER
100
AcDbLine
 10
121.3866666666666418
 20
91.5427999999999997
 30
0.0
 11
121.3866666666666418
 21
95.2257999999999925
 31
0.0
  0
LINE
  5
45F
100
AcDbEntity
  8
icons
 62
256
370
9
 48
1.0
  6
BYLAYER
100
AcDbLine
 10
121.3866666666666418
 20
95.2257999999999925
 30
0.0
 11
119.6933333333332996
 21
95.2257999999999925
 31
0.0
  0
LINE
  5
460
100
AcDbEntity
  8
icons
 62
256
370
9
 48
1.0
  6
BYLAYER
100
AcDbLine
 10
119.6933333333332996
 20
95.2257999999999925
 30
0.0
 11
119.6933333333332996
 21
91.5427999999999997
 31
0.0
  0
LINE
  5
461
100
AcDbEntity
  8
icons
 62
256
370
9
 48
1.0
  6
BYLAYER
100
AcDbLine
 10
119.6933333333332996
 20
91.5427999999999997
 30
0.0
 11
114.7657333333333014
 21
83.0084000000000231
 31
0.0
  0
ARC
  5
462
100
AcDbEntity
  8
icons
 62
256
370
9
 48
1.0
  6
BYLAYER
100
AcDbCircle
 10
115.4727487099023762
 20
82.5197688284518875
 30
0.0
 40
0.8594365389681551
100
AcDbArc
 50
145.350944727915504
 51
179.5979185246374925
  0
ARC
  5
463
100
AcDbEntity
  8
icons
 62
256
370
9
 48
1.0
  6
BYLAYER
100
AcDbCircle
 10
115.4599999999999653
 20
82.5258000000000322
 30
0.0
 40
2.54
100
AcDbArc
 50
180.0
 51
270.0
  0
ARC
  5
464
100
AcDbEntity
  8
icons
 62
256
370
9
 48
1.0
  6
BYLAYER
100
AcDbCircle
 10
115.358683767805033
 20
82.532699253229552
 30
0.0
 40
2.4386935270859444
100
AcDbArc
 50
145.7312760400056675
 51
180.1620944225944356
  0
LINE
  5
465
100
AcDbEntity
  8
icons
 62
256
370
9
 48
1.0
  6
BYLAYER
100
AcDbLine
 10
113.3433333333333195
 20
83.9058666666666966
 30
0.0
 11
118.0
 21
92.0
 31
0.0
  0
LINE
  5
466
100
AcDbEntity
  8
icons
 62
256
370
9
 48
1.0
  6
BYLAYER
100
AcDbLine
 10
118.0
 20
92.0
 30
0.0
 11
118.0
 21
93.5324666666666928
 31
0.0
  0
ARC
  5
467
100
AcDbEntity
  8
icons
 62
256
370
9
 48
1.0
  6
BYLAYER
100
AcDbCircle
 10
118.0
 20
94.3791333333333426
 30
0.0
 40
0.8466666666666667
100
AcDbArc
 50
180.0
 51
270.0
  0
LINE
  5
468
100
AcDbEntity
  8
icons
 62
256
370
9
 48
1.0
  6
BYLAYER
100
AcDbLine
 10
117.1533333333333076
 20
94.3791333333333426
 30
0.0
 11
117.1533333333333076
 21
95.2257999999999925
 31
0.0
  0
ARC
  5
469
100
AcDbEntity
  8
icons
 62
256
370
9
 48
1.0
  6
BYLAYER
100
AcDbCircle
 10
118.8466666666666498
 20
95.2257999999999925
 30
0.0
 40
1.6933333333333334
100
AcDbArc
 50
90.0000000000000142
 51
180.0
  0
LINE
  5
46A
100
AcDbEntity
  8
icons
 62
256
370
9
 48
1.0
  6
BYLAYER
100
AcDbLine
 10
118.8466666666666498
 20
96.9191333333333347
 30
0.0
 11
122.2333333333333343
 21
96.9191333333333347
 31
0.0
  0
ARC
  5
46B
100
AcDbEntity
  8
icons
 62
256
370
9
 48
1.0
  6
BYLAYER
100
AcDbCircle
 10
122.2333333333333343
 20
95.2257999999999925
 30
0.0
 40
1.6933333333333334
100
AcDbArc
 50
0.0
 51
90.0000000000000142
  0
LINE
  5
46C
100
AcDbEntity
  8
icons
 62
256
370
9
 48
1.0
  6
BYLAYER
100
AcDbLine
 10
123.9266666666666339
 20
95.2257999999999925
 30
0.0
 11
123.9266666666666339
 21
94.3791333333333426
 31
0.0
  0
ARC
  5
46D
100
AcDbEntity
  8
icons
 62
256
370
9
 48
1.0
  6
BYLAYER
100
AcDbCircle
 10
123.0799999999999841
 20
94.3791333333333426
 30
0.0
 40
0.8466666666666667
100
AcDbArc
 50
270.0
 51
0.0
  0
LINE
  5
46E
100
AcDbEntity
  8
icons
 62
256
370
9
 48
1.0
  6
BYLAYER
100
AcDbLine
 10
123.0799999999999841
 20
93.5324666666666928
 30
0.0
 11
123.0799999999999841
 21
92.0
 31
0.0
  0
LINE
  5
46F
100
AcDbEntity
  8
icons
 62
256
370
9
 48
1.0
  6
BYLAYER
100
AcDbLine
 10
123.0799999999999841
 20
92.0
 30
0.0
 11
127.7366666666666646
 21
83.9058666666666966
 31
0.0
  0
ARC
  5
470
100
AcDbEntity
  8
icons
 62
256
370
9
 48
1.0
  6
BYLAYER
100
AcDbCircle
 10
125.7213162321949085
 20
82.532699253229552
 30
0.0
 40
2.4386935270859986
100
AcDbArc
 50
359.8379055774100834
 51
34.268723959994027
  0
ARC
  5
471
100
AcDbEntity
  8
icons
 62
256
370
9
 48
1.0
  6
BYLAYER
100
AcDbCircle
 10
125.6199999999999761
 20
82.5258000000000322
 30
0.0
 40
2.54
100
AcDbArc
 50
270.0
 51
0.0
  0
LINE
  5
472
100
AcDbEntity
  8
icons
 62
256
370
9
 48
1.0
  6
BYLAYER
100
AcDbLine
 10
125.6199999999999761
 20
79.9857999999999976
 30
0.0
 11
115.4599999999999653
 21
79.9857999999999976
 31
0.0
  0
LINE
  5
473
100
AcDbEntity
  8
icons
 62
256
370
9
 48
1.0
  6
BYLAYER
100
AcDbLine
 10
121.1413746678938139
 20
55.0803531880660415
 30
0.0
 11
120.1262777790049228
 21
55.0803531880660415
 31
0.0
  0
ARC
  5
474
100
AcDbEntity
  8
icons
 62
256
370
9
 48
1.0
  6
BYLAYER
100
AcDbCircle
 10
116.2818820838150344
 20
53.8092108335888071
 30
0.0
 40
4.0490963370288471
100
AcDbArc
 50
18.2963731602495585
 51
26.9433567358301858
  0
LINE
  5
475
100
AcDbEntity
  8
icons
 62
256
370
9
 48
1.0
  6
BYLAYER
100
AcDbLine
 10
119.8914688901160446
 20
55.6438945213993676
 30
0.0
 11
120.6139577790049202
 21
56.3663834102882646
 31
0.0
  0
ARC
  5
476
100
AcDbEntity
  8
icons
 62
256
370
9
 48
1.0
  6
BYLAYER
100
AcDbCircle
 10
120.3577851810251218
 20
56.621060743621598
 30
0.0
 40
0.3612269979798062
100
AcDbArc
 50
315.1677050413140933
 51
44.8322949586856367
  0
LINE
  5
477
100
AcDbEntity
  8
icons
 62
256
370
9
 48
1.0
  6
BYLAYER
100
AcDbLine
 10
120.6139577790049202
 20
56.8757380769549243
 30
0.0
 11
119.313477779004927
 21
58.1762180769549246
 31
0.0
  0
ARC
  5
478
100
AcDbEntity
  8
icons
 62
256
370
9
 48
1.0
  6
BYLAYER
100
AcDbCircle
 10
119.0588004456715936
 20
57.9200454789751191
 30
0.0
 40
0.3612269979798049
100
AcDbArc
 50
45.1677050413136953
 51
134.8322949586860773
  0
LINE
  5
479
100
AcDbEntity
  8
icons
 62
256
370
9
 48
1.0
  6
BYLAYER
100
AcDbLine
 10
118.8041231123382602
 20
58.1762180769549246
 30
0.0
 11
118.0816342234493845
 21
57.4537291880660348
 31
0.0
  0
ARC
  5
47A
100
AcDbEntity
  8
icons
 62
256
370
9
 48
1.0
  6
BYLAYER
100
AcDbCircle
 10
116.3040745171543762
 20
53.8611217551481616
 30
0.0
 40
4.008309703166705
100
AcDbArc
 50
63.6745947946538777
 51
72.2069921460912383
  0
LINE
  5
47B
100
AcDbEntity
  8
icons
 62
256
370
9
 48
1.0
  6
BYLAYER
100
AcDbLine
 10
117.5289302234493789
 20
57.6777007436215925
 30
0.0
 11
117.5289302234493789
 21
58.6927976325104765
 31
0.0
  0
ARC
  5
47C
100
AcDbEntity
  8
icons
 62
256
370
9
 48
1.0
  6
BYLAYER
100
AcDbCircle
 10
117.1676697059234158
 20
58.6927815594289797
 30
0.0
 40
0.3612605178835087
100
AcDbArc
 50
0.0025491846800882
 51
89.9974508154399331
  0
LINE
  5
47D
100
AcDbEntity
  8
icons
 62
256
370
9
 48
1.0
  6
BYLAYER
100
AcDbLine
 10
117.1676857790049269
 20
59.0540420769549286
 30
0.0
 11
115.3181142234493706
 21
59.0540420769549286
 31
0.0
  0
ARC
  5
47E
100
AcDbEntity
  8
icons
 62
256
370
9
 48
1.0
  6
BYLAYER
100
AcDbCircle
 10
115.3181302965308817
 20
58.6927815594289726
 30
0.0
 40
0.3612605178835093
100
AcDbArc
 50
90.0025491845600953
 51
179.9974508153199224
  0
LINE
  5
47F
100
AcDbEntity
  8
icons
 62
256
370
9
 48
1.0
  6
BYLAYER
100
AcDbLine
 10
114.9568697790049328
 20
58.6927976325104765
 30
0.0
 11
114.9568697790049328
 21
57.6379638547327033
 31
0.0
  0
ARC
  5
480
100
AcDbEntity
  8
icons
 62
256
370
9
 48
1.0
  6
BYLAYER
100
AcDbCircle
 10
116.2597315224580399
 20
53.8074082013483874
 30
0.0
 40
4.0460604711531785
100
AcDbArc
 50
108.784372401897997
 51
116.9526176474016097
  0
LINE
  5
481
100
AcDbEntity
  8
icons
 62
256
370
9
 48
1.0
  6
BYLAYER
100
AcDbLine
 10
114.4258404456715965
 20
57.4139922991771456
 30
0.0
 11
113.6744520012271522
 21
58.1617231436215931
 31
0.0
  0
ARC
  5
482
100
AcDbEntity
  8
icons
 62
256
370
9
 48
1.0
  6
BYLAYER
100
AcDbCircle
 10
113.4197746678938188
 20
57.9055505456417947
 30
0.0
 40
0.3612269979797973
100
AcDbArc
 50
45.1677050413125656
 51
134.8322949586874131
  0
LINE
  5
483
100
AcDbEntity
  8
icons
 62
256
370
9
 48
1.0
  6
BYLAYER
100
AcDbLine
 10
113.1650973345604854
 20
58.1617231436215931
 30
0.0
 11
111.8682297790049347
 21
56.8649007436215967
 31
0.0
  0
ARC
  5
484
100
AcDbEntity
  8
icons
 62
256
370
9
 48
1.0
  6
BYLAYER
100
AcDbCircle
 10
112.1244023769847331
 20
56.6102234102882633
 30
0.0
 40
0.3612269979798037
100
AcDbArc
 50
135.1677050413137238
 51
224.8322949586863331
  0
LINE
  5
485
100
AcDbEntity
  8
icons
 62
256
370
9
 48
1.0
  6
BYLAYER
100
AcDbLine
 10
111.8682297790049347
 20
56.3555460769549228
 30
0.0
 11
112.6268431123382499
 21
55.5969327436215934
 31
0.0
  0
ARC
  5
486
100
AcDbEntity
  8
icons
 62
256
370
9
 48
1.0
  6
BYLAYER
100
AcDbCircle
 10
116.2436871749608684
 20
53.7756146878203083
 30
0.0
 40
4.0495382988330988
100
AcDbArc
 50
153.2717494252071049
 51
161.2043160059209299
  0
LINE
  5
487
100
AcDbEntity
  8
icons
 62
256
370
9
 48
1.0
  6
BYLAYER
100
AcDbLine
 10
112.4100964456715985
 20
55.0803531880660415
 30
0.0
 11
111.3263631123382567
 21
55.0803531880660415
 31
0.0
  0
ARC
  5
488
100
AcDbEntity
  8
icons
 62
256
370
9
 48
1.0
  6
BYLAYER
100
AcDbCircle
 10
111.3263791854197677
 20
54.7190926705400926
 30
0.0
 40
0.3612605178835088
100
AcDbArc
 50
90.0025491845598964
 51
179.9974508153199224
  0
LINE
  5
489
100
AcDbEntity
  8
icons
 62
256
370
9
 48
1.0
  6
BYLAYER
100
AcDbLine
 10
110.9651186678938188
 20
54.7191087436215895
 30
0.0
 11
110.9651186678938188
 21
52.880374521399375
 31
0.0
  0
ARC
  5
48A
100
AcDbEntity
  8
icons
 62
256
370
9
 48
1.0
  6
BYLAYER
100
AcDbCircle
 10
111.3263791854197535
 20
52.8803905944808719
 30
0.0
 40
0.3612605178835063
100
AcDbArc
 50
180.0025491846800776
 51
269.9974508153199508
  0
LINE
  5
48B
100
AcDbEntity
  8
icons
 62
256
370
9
 48
1.0
  6
BYLAYER
100
AcDbLine
 10
111.3263631123382567
 20
52.5191300769549301
 30
0.0
 11
112.4100964456715985
 21
52.5191300769549301
 31
0.0
  0
ARC
  5
48C
100
AcDbEntity
  8
icons
 62
256
370
9
 48
1.0
  6
BYLAYER
100
AcDbCircle
 10
116.2419100934719722
 20
53.7730178248337936
 30
0.0
 40
4.0317527597497662
100
AcDbArc
 50
198.1196944573018186
 51
206.1627817829653395
  0
LINE
  5
48D
100
AcDbEntity
  8
icons
 62
256
370
9
 48
1.0
  6
BYLAYER
100
AcDbLine
 10
112.6232306678938215
 20
51.995325632510486
 30
0.0
 11
111.8682297790049347
 21
51.2294874102882574
 31
0.0
  0
ARC
  5
48E
100
AcDbEntity
  8
icons
 62
256
370
9
 48
1.0
  6
BYLAYER
100
AcDbCircle
 10
112.1244023769847331
 20
50.9748100769549382
 30
0.0
 40
0.3612269979798024
100
AcDbArc
 50
135.1677050413135532
 51
224.8322949586865036
  0
LINE
  5
48F
100
AcDbEntity
  8
icons
 62
256
370
9
 48
1.0
  6
BYLAYER
100
AcDbLine
 10
111.8682297790049347
 20
50.7201327436215976
 30
0.0
 11
113.1687097790049279
 21
49.4196527436215973
 31
0.0
  0
ARC
  5
490
100
AcDbEntity
  8
icons
 62
256
370
9
 48
1.0
  6
BYLAYER
100
AcDbCircle
 10
113.4233871123382613
 20
49.6758253416013957
 30
0.0
 40
0.3612269979797954
100
AcDbArc
 50
225.1677050413123027
 51
314.8322949586876689
  0
LINE
  5
491
100
AcDbEntity
  8
icons
 62
256
370
9
 48
1.0
  6
BYLAYER
100
AcDbLine
 10
113.6780644456715947
 20
49.4196527436215973
 30
0.0
 11
114.4258404456715965
 21
50.167428743621592
 31
0.0
  0
ARC
  5
492
100
AcDbEntity
  8
icons
 62
256
370
9
 48
1.0
  6
BYLAYER
100
AcDbCircle
 10
116.2689624244842292
 20
53.7958990123834795
 30
0.0
 40
4.0697536928014557
100
AcDbArc
 50
243.0711992266701316
 51
251.1918107240309155
  0
LINE
  5
493
100
AcDbEntity
  8
icons
 62
256
370
9
 48
1.0
  6
BYLAYER
100
AcDbLine
 10
114.9568697790049328
 20
49.9434571880660343
 30
0.0
 11
114.9568697790049328
 21
48.8886234102882611
 31
0.0
  0
ARC
  5
494
100
AcDbEntity
  8
icons
 62
256
370
9
 48
1.0
  6
BYLAYER
100
AcDbCircle
 10
115.3181302965308817
 20
48.8886394833697722
 30
0.0
 40
0.3612605178835087
100
AcDbArc
 50
180.0025491846800776
 51
269.9974508153199508
  0
LINE
  5
495
100
AcDbEntity
  8
icons
 62
256
370
9
 48
1.0
  6
BYLAYER
100
AcDbLine
 10
115.3181142234493706
 20
48.5273789658438162
 30
0.0
 11
117.1568484456715851
 21
48.5273789658438162
 31
0.0
  0
ARC
  5
496
100
AcDbEntity
  8
icons
 62
256
370
9
 48
1.0
  6
BYLAYER
100
AcDbCircle
 10
117.1568323725900882
 20
48.8886394833697722
 30
0.0
 40
0.3612605178835087
100
AcDbArc
 50
270.0025491845600527
 51
359.9974508153199508
  0
LINE
  5
497
100
AcDbEntity
  8
icons
 62
256
370
9
 48
1.0
  6
BYLAYER
100
AcDbLine
 10
117.5180928901160371
 20
48.8886234102882611
 30
0.0
 11
117.5180928901160371
 21
49.9217825213993791
 31
0.0
  0
ARC
  5
498
100
AcDbEntity
  8
icons
 62
256
370
9
 48
1.0
  6
BYLAYER
100
AcDbCircle
 10
116.2859586613426188
 20
53.7563230250213735
 30
0.0
 40
4.0276364820614923
100
AcDbArc
 50
287.8135170265591682
 51
296.3048960326935912
  0
LINE
  5
499
100
AcDbEntity
  8
icons
 62
256
370
9
 48
1.0
  6
BYLAYER
100
AcDbLine
 10
118.0707968901160285
 20
50.1457540769549297
 30
0.0
 11
118.7932857790049184
 21
49.4232651880660399
 31
0.0
  0
ARC
  5
49A
100
AcDbEntity
  8
icons
 62
256
370
9
 48
1.0
  6
BYLAYER
100
AcDbCircle
 10
119.047963112338266
 20
49.6794377860458383
 30
0.0
 40
0.3612269979797999
100
AcDbArc
 50
225.1677050413132406
 51
314.8322949586873278
  0
LINE
  5
49B
100
AcDbEntity
  8
icons
 62
256
370
9
 48
1.0
  6
BYLAYER
100
AcDbLine
 10
119.3026404456715994
 20
49.4232651880660399
 30
0.0
 11
120.6031204456715926
 21
50.7237451880660473
 31
0.0
  0
ARC
  5
49C
100
AcDbEntity
  8
icons
 62
256
370
9
 48
1.0
  6
BYLAYER
100
AcDbCircle
 10
120.3469478476917942
 20
50.9784225213993665
 30
0.0
 40
0.3612269979798075
100
AcDbArc
 50
315.167705041313809
 51
44.8322949586862407
  0
LINE
  5
49D
100
AcDbEntity
  8
icons
 62
256
370
9
 48
1.0
  6
BYLAYER
100
AcDbLine
 10
120.6031204456715926
 20
51.233099854732707
 30
0.0
 11
119.8806315567827028
 21
51.9555887436215968
 31
0.0
  0
ARC
  5
49E
100
AcDbEntity
  8
icons
 62
256
370
9
 48
1.0
  6
BYLAYER
100
AcDbCircle
 10
116.3053737694076517
 20
53.7759686735464157
 30
0.0
 40
4.0120133767796728
100
AcDbArc
 50
333.0166042321193345
 51
341.7436658717991236
  0
LINE
  5
49F
100
AcDbEntity
  8
icons
 62
256
370
9
 48
1.0
  6
BYLAYER
100
AcDbLine
 10
120.1154404456715952
 20
52.5191300769549301
 30
0.0
 11
121.1305373345604721
 21
52.5191300769549301
 31
0.0
  0
ARC
  5
4A0
100
AcDbEntity
  8
icons
 62
256
370
9
 48
1.0
  6
BYLAYER
100
AcDbCircle
 10
121.1305212614789752
 20
52.8803905944808719
 30
0.0
 40
0.3612605178835087
100
AcDbArc
 50
270.0025491846801629
 51
359.9974508153199508
  0
LINE
  5
4A1
100
AcDbEntity
  8
icons
 62
256
370
9
 48
1.0
  6
BYLAYER
100
AcDbLine
 10
121.4917817790049241
 20
52.880374521399375
 30
0.0
 11
121.4917817790049241
 21
54.7191087436215895
 31
0.0
  0
ARC
  5
4A2
100
AcDbEntity
  8
icons
 62
256
370
9
 48
1.0
  6
BYLAYER
100
AcDbCircle
 10
121.1305173143239813
 20
54.7192518839921647
 30
0.0
 40
0.361264493038534
100
AcDbArc
 50
359.9772982413583122
 51
88.2777875128377048
  0
ARC
  5
4A3
100
AcDbEntity
  8
icons
 62
256
370
9
 48
1.0
  6
BYLAYER
100
AcDbCircle
 10
116.2393081846393699
 20
53.7798074046538161
 30
0.0
 40
2.0229895168507235
100
AcDbArc
 50
90.0005842289925795
 51
179.9994157717332541
  0
ARC
  5
4A4
100
AcDbEntity
  8
icons
 62
256
370
9
 48
1.0
  6
BYLAYER
100
AcDbCircle
 10
116.2393081846393983
 20
53.7798486603671648
 30
0.0
 40
2.0229895168507359
100
AcDbArc
 50
180.0005842282667743
 51
269.9994157704855411
  0
ARC
  5
4A5
100
AcDbEntity
  8
icons
 62
256
370
9
 48
1.0
  6
BYLAYER
100
AcDbCircle
 10
116.2392669289260141
 20
53.7798486603671648
 30
0.0
 40
2.0229895168507501
100
AcDbArc
 50
270.0005842289933184
 51
359.9994157704855411
  0
ARC
  5
4A6
100
AcDbEntity
  8
icons
 62
256
370
9
 48
1.0
  6
BYLAYER
100
AcDbCircle
 10
116.2357037168525551
 20
53.7762441925803785
 30
0.0
 40
2.0265558977221283
100
AcDbArc
 50
0.1013241281451961
 51
89.8986758718534418
  0
ARC
  5
4A7
100
AcDbEntity
  8
icons
 62
256
370
9
 48
1.0
  6
BYLAYER
100
AcDbCircle
 10
130.4673253613697739
 20
60.0523331372801721
 30
0.0
 40
0.358495280982805
100
AcDbArc
 50
10.9876577994472751
 51
13.7809100168632135
  0
LINE
  5
4A8
100
AcDbEntity
  8
icons
 62
256
370
9
 48
1.0
  6
BYLAYER
100
AcDbLine
 10
130.8155008901160272
 20
60.137730254732702
 30
0.0
 11
130.4253568901160349
 21
61.9186653658438146
 31
0.0
  0
ARC
  5
4A9
100
AcDbEntity
  8
icons
 62
256
370
9
 48
1.0
  6
BYLAYER
100
AcDbCircle
 10
130.0727286749495306
 20
61.840348192681077
 30
0.0
 40
0.361220483560537
100
AcDbArc
 50
12.5218937245673754
 51
102.3489892804875296
  0
LINE
  5
4AA
100
AcDbEntity
  8
icons
 62
256
370
9
 48
1.0
  6
BYLAYER
100
AcDbLine
 10
129.9954760012271606
 20
62.1932111436215962
 30
0.0
 11
129.0056662234493672
 21
61.9764644769549307
 31
0.0
  0
ARC
  5
4AB
100
AcDbEntity
  8
icons
 62
256
370
9
 48
1.0
  6
BYLAYER
100
AcDbCircle
 10
125.5779169956275609
 20
59.8727325598537803
 30
0.0
 40
4.0218345003074187
100
AcDbArc
 50
31.5389244968843308
 51
40.3180803487613915
  0
LINE
  5
4AC
100
AcDbEntity
  8
icons
 62
256
370
9
 48
1.0
  6
BYLAYER
100
AcDbLine
 10
128.6444217790049152
 20
62.4749818102882699
 30
0.0
 11
129.2079631123382626
 21
63.3347435880660399
 31
0.0
  0
ARC
  5
4AD
100
AcDbEntity
  8
icons
 62
256
370
9
 48
1.0
  6
BYLAYER
100
AcDbCircle
 10
128.9038119640059392
 20
63.5296621500227872
 30
0.0
 40
0.3612494523555021
100
AcDbArc
 50
327.3457799747948229
 51
57.183767480990177
  0
LINE
  5
4AE
100
AcDbEntity
  8
icons
 62
256
370
9
 48
1.0
  6
BYLAYER
100
AcDbLine
 10
129.0995897790049298
 20
63.833260921399372
 30
0.0
 11
127.5462386678938174
 21
64.8339080325104788
 31
0.0
  0
ARC
  5
4AF
100
AcDbEntity
  8
icons
 62
256
370
9
 48
1.0
  6
BYLAYER
100
AcDbCircle
 10
127.3513201059370772
 20
64.5297568841781981
 30
0.0
 40
0.3612494523554873
100
AcDbArc
 50
57.3457799747923644
 51
147.1837674809921168
  0
LINE
  5
4B0
100
AcDbEntity
  8
icons
 62
256
370
9
 48
1.0
  6
BYLAYER
100
AcDbLine
 10
127.0477213345604781
 20
64.7255346991771603
 30
0.0
 11
126.4914048901160442
 21
63.8585480325104839
 31
0.0
  0
ARC
  5
4B1
100
AcDbEntity
  8
icons
 62
256
370
9
 48
1.0
  6
BYLAYER
100
AcDbCircle
 10
125.5224350967591249
 20
59.9822451799127947
 30
0.0
 40
3.9955758365340994
100
AcDbArc
 50
75.9652300516378034
 51
84.5405896701482931
  0
LINE
  5
4B2
100
AcDbEntity
  8
icons
 62
256
370
9
 48
1.0
  6
BYLAYER
100
AcDbLine
 10
125.902576445671599
 20
63.9596964769549317
 30
0.0
 11
125.6822173345604909
 21
64.9711809213993661
 31
0.0
  0
ARC
  5
4B3
100
AcDbEntity
  8
icons
 62
256
370
9
 48
1.0
  6
BYLAYER
100
AcDbCircle
 10
125.3302083569806769
 20
64.890254921471282
 30
0.0
 40
0.3611915527267314
100
AcDbArc
 50
12.9471891086158113
 51
102.9572230944076239
  0
ARC
  5
4B4
100
AcDbEntity
  8
icons
 62
256
370
9
 48
1.0
  6
BYLAYER
100
AcDbCircle
 10
125.3254431786127725
 20
64.9066013050246795
 30
0.0
 40
0.3441943110799593
100
AcDbArc
 50
102.7943213309153805
 51
105.3596094853312053
  0
LINE
  5
4B5
100
AcDbEntity
  8
icons
 62
256
370
9
 48
1.0
  6
BYLAYER
100
AcDbLine
 10
125.2342742234493755
 20
65.2385018102882555
 30
0.0
 11
123.4280520012271438
 21
64.8447453658438207
 31
0.0
  0
ARC
  5
4B6
100
AcDbEntity
  8
icons
 62
256
370
9
 48
1.0
  6
BYLAYER
100
AcDbCircle
 10
123.5064103944790332
 20
64.4920908252422294
 30
0.0
 40
0.3612551214860943
100
AcDbArc
 50
102.5273705538782139
 51
192.3435124511767356
  0
LINE
  5
4B7
100
AcDbEntity
  8
icons
 62
256
370
9
 48
1.0
  6
BYLAYER
100
AcDbLine
 10
123.1535062234493694
 20
64.4148644769549321
 30
0.0
 11
123.4063773345604886
 21
63.3889302547327063
 31
0.0
  0
ARC
  5
4B8
100
AcDbEntity
  8
icons
 62
256
370
9
 48
1.0
  6
BYLAYER
100
AcDbCircle
 10
125.5114389628847391
 20
59.8884137573965916
 30
0.0
 40
4.0847154377221271
100
AcDbArc
 50
121.0209100795493953
 51
129.1390639956464668
  0
LINE
  5
4B9
100
AcDbEntity
  8
icons
 62
256
370
9
 48
1.0
  6
BYLAYER
100
AcDbLine
 10
122.9331471123382471
 20
63.0565853658438229
 30
0.0
 11
122.0408733345604873
 21
63.6273967436215955
 31
0.0
  0
ARC
  5
4BA
100
AcDbEntity
  8
icons
 62
256
370
9
 48
1.0
  6
BYLAYER
100
AcDbCircle
 10
121.8459547726037329
 20
63.3232455952892863
 30
0.0
 40
0.3612494523554982
100
AcDbArc
 50
57.3457799747944037
 51
147.1837674809901273
  0
LINE
  5
4BB
100
AcDbEntity
  8
icons
 62
256
370
9
 48
1.0
  6
BYLAYER
100
AcDbLine
 10
121.542356001227148
 20
63.5190234102882556
 30
0.0
 11
120.5380964456715986
 21
61.9692395880660385
 31
0.0
  0
ARC
  5
4BC
100
AcDbEntity
  8
icons
 62
256
370
9
 48
1.0
  6
BYLAYER
100
AcDbCircle
 10
120.8422475940038936
 20
61.7743210261092983
 30
0.0
 40
0.361249452355493
100
AcDbArc
 50
147.3457799747936861
 51
237.1837674809912073
  0
LINE
  5
4BD
100
AcDbEntity
  8
icons
 62
256
370
9
 48
1.0
  6
BYLAYER
100
AcDbLine
 10
120.6464697790049314
 20
61.4707222547327063
 30
0.0
 11
121.5495808901160331
 21
60.8927311436215888
 31
0.0
  0
ARC
  5
4BE
100
AcDbEntity
  8
icons
 62
256
370
9
 48
1.0
  6
BYLAYER
100
AcDbCircle
 10
125.4756738224181447
 20
59.9176817189828199
 30
0.0
 40
4.0453587101221391
100
AcDbArc
 50
166.0527096436630927
 51
174.058701829966509
  0
LINE
  5
4BF
100
AcDbEntity
  8
icons
 62
256
370
9
 48
1.0
  6
BYLAYER
100
AcDbLine
 10
121.4520448901160421
 20
60.3364146991771548
 30
0.0
 11
120.4008235567827114
 21
60.105218254732705
 31
0.0
  0
ARC
  5
4C0
100
AcDbEntity
  8
icons
 62
256
370
9
 48
1.0
  6
BYLAYER
100
AcDbCircle
 10
120.4791407299454278
 20
59.7525900395662148
 30
0.0
 40
0.3612204835605301
100
AcDbArc
 50
102.5218937245659419
 51
192.3489892804896044
  0
LINE
  5
4C1
100
AcDbEntity
  8
icons
 62
256
370
9
 48
1.0
  6
BYLAYER
100
AcDbLine
 10
120.1262777790049228
 20
59.6753373658438164
 30
0.0
 11
120.5200342234493718
 21
57.8691151436215989
 31
0.0
  0
ARC
  5
4C2
100
AcDbEntity
  8
icons
 62
256
370
9
 48
1.0
  6
BYLAYER
100
AcDbCircle
 10
120.8726624386158619
 20
57.9474323167843224
 30
0.0
 40
0.3612204835605339
100
AcDbArc
 50
192.5218937245666098
 51
282.3489892804877854
  0
LINE
  5
4C3
100
AcDbEntity
  8
icons
 62
256
370
9
 48
1.0
  6
BYLAYER
100
AcDbLine
 10
120.9499151123382603
 20
57.5945693658438174
 30
0.0
 11
122.001136445671591
 21
57.8221533658438105
 31
0.0
  0
ARC
  5
4C4
100
AcDbEntity
  8
icons
 62
256
370
9
 48
1.0
  6
BYLAYER
100
AcDbCircle
 10
125.4239321511227985
 20
60.0458744171319694
 30
0.0
 40
4.0817233805339264
100
AcDbArc
 50
213.0109664840023243
 51
221.0193010854843294
  0
LINE
  5
4C5
100
AcDbEntity
  8
icons
 62
256
370
9
 48
1.0
  6
BYLAYER
100
AcDbLine
 10
122.3443186678938162
 20
57.3669853658438171
 30
0.0
 11
121.7663275567826986
 21
56.4638742547327013
 31
0.0
  0
ARC
  5
4C6
100
AcDbEntity
  8
icons
 62
256
370
9
 48
1.0
  6
BYLAYER
100
AcDbCircle
 10
122.070478705115022
 20
56.2689556927759611
 30
0.0
 40
0.3612494523554995
100
AcDbArc
 50
147.3457799747948513
 51
237.1837674809899852
  0
LINE
  5
4C7
100
AcDbEntity
  8
icons
 62
256
370
9
 48
1.0
  6
BYLAYER
100
AcDbLine
 10
121.8747008901160456
 20
55.9653569213993762
 30
0.0
 11
123.4208271123382588
 21
54.9719346991771474
 31
0.0
  0
ARC
  5
4C8
100
AcDbEntity
  8
icons
 62
256
370
9
 48
1.0
  6
BYLAYER
100
AcDbCircle
 10
123.6157456742949989
 20
55.2760858475094636
 30
0.0
 40
0.3612494523554943
100
AcDbArc
 50
237.3457799747935724
 51
327.1837674809894452
  0
LINE
  5
4C9
100
AcDbEntity
  8
icons
 62
256
370
9
 48
1.0
  6
BYLAYER
100
AcDbLine
 10
123.9193444456715838
 20
55.080308032510473
 30
0.0
 11
124.4901106678938163
 21
55.9725818102882542
 31
0.0
  0
ARC
  5
4CA
100
AcDbEntity
  8
icons
 62
256
370
9
 48
1.0
  6
BYLAYER
100
AcDbCircle
 10
125.5025323147731342
 20
59.8660160901363128
 30
0.0
 40
4.0229128852817126
100
AcDbArc
 50
255.4240093208271105
 51
263.6453138219688412
  0
LINE
  5
4CB
100
AcDbEntity
  8
icons
 62
256
370
9
 48
1.0
  6
BYLAYER
100
AcDbLine
 10
125.0572644456715921
 20
55.8678209213993711
 30
0.0
 11
125.2812360012271569
 21
54.8382742547327027
 31
0.0
  0
ARC
  5
4CC
100
AcDbEntity
  8
icons
 62
256
370
9
 48
1.0
  6
BYLAYER
100
AcDbCircle
 10
125.6344452968522774
 20
54.9140473490542291
 30
0.0
 40
0.3612455789889424
100
AcDbArc
 50
192.1079995358842325
 51
271.2745293292188649
  0
LINE
  5
4CD
100
AcDbEntity
  8
icons
 62
256
370
9
 48
1.0
  6
BYLAYER
100
AcDbLine
 10
125.6424804456715947
 20
54.5528911436215864
 30
0.0
 11
125.7183417790049162
 21
54.5528911436215864
 31
0.0
  0
LINE
  5
4CE
100
AcDbEntity
  8
icons
 62
256
370
9
 48
1.0
  6
BYLAYER
100
AcDbLine
 10
125.7183417790049162
 20
54.5528911436215864
 30
0.0
 11
127.524564001227148
 21
54.9430351436215858
 31
0.0
  0
ARC
  5
4CF
100
AcDbEntity
  8
icons
 62
256
370
9
 48
1.0
  6
BYLAYER
100
AcDbCircle
 10
127.4139957078055261
 20
55.2869220107404615
 30
0.0
 40
0.3612250335829373
100
AcDbArc
 50
287.8239066980187317
 51
14.9551739700499571
  0
LINE
  5
4D0
100
AcDbEntity
  8
icons
 62
256
370
9
 48
1.0
  6
BYLAYER
100
AcDbLine
 10
127.7629853345604829
 20
55.3801409213993594
 30
0.0
 11
127.5426262234493606
 21
56.3916253658438151
 31
0.0
  0
ARC
  5
4D1
100
AcDbEntity
  8
icons
 62
256
370
9
 48
1.0
  6
BYLAYER
100
AcDbCircle
 10
125.4785913728660631
 20
59.9372021604841123
 30
0.0
 40
4.1026034016358768
100
AcDbArc
 50
300.2055508358322413
 51
308.524927286687614
  0
LINE
  5
4D2
100
AcDbEntity
  8
icons
 62
256
370
9
 48
1.0
  6
BYLAYER
100
AcDbLine
 10
128.033918667893829
 20
56.7275826991771481
 30
0.0
 11
128.9117426678938045
 21
56.1640413658438149
 31
0.0
  0
ARC
  5
4D3
100
AcDbEntity
  8
icons
 62
256
370
9
 48
1.0
  6
BYLAYER
100
AcDbCircle
 10
129.1066612298505731
 20
56.4681925141761027
 30
0.0
 40
0.3612494523554854
100
AcDbArc
 50
237.3457799747921229
 51
327.1837674809927421
  0
LINE
  5
4D4
100
AcDbEntity
  8
icons
 62
256
370
9
 48
1.0
  6
BYLAYER
100
AcDbLine
 10
129.4102600012271296
 20
56.2724146991771406
 30
0.0
 11
130.4036822234493798
 21
57.8221533658438105
 31
0.0
  0
ARC
  5
4D5
100
AcDbEntity
  8
icons
 62
256
370
9
 48
1.0
  6
BYLAYER
100
AcDbCircle
 10
130.1035210052989157
 20
58.0231383215763188
 30
0.0
 40
0.361236362112634
100
AcDbArc
 50
326.1941302843636663
 51
56.1913314270981914
  0
ARC
  5
4D6
100
AcDbEntity
  8
icons
 62
256
370
9
 48
1.0
  6
BYLAYER
100
AcDbCircle
 10
130.1128204116473626
 20
58.0382679598816509
 30
0.0
 40
0.3434914493020062
100
AcDbArc
 50
56.0759739695280004
 51
58.6168673679371892
  0
LINE
  5
4D7
100
AcDbEntity
  8
icons
 62
256
370
9
 48
1.0
  6
BYLAYER
100
AcDbLine
 10
130.2916964456715903
 20
58.3315080325104844
 30
0.0
 11
129.4355471123382699
 21
58.8805995880660333
 31
0.0
  0
ARC
  5
4D8
100
AcDbEntity
  8
icons
 62
256
370
9
 48
1.0
  6
BYLAYER
100
AcDbCircle
 10
125.5447847455738923
 20
59.8933750733581221
 30
0.0
 40
4.0204161449082054
100
AcDbArc
 50
345.4095461435900347
 51
354.1022789634927221
  0
LINE
  5
4D9
100
AcDbEntity
  8
icons
 62
256
370
9
 48
1.0
  6
BYLAYER
100
AcDbLine
 10
129.5439204456716027
 20
59.4802653658438132
 30
0.0
 11
130.5337302234493961
 21
59.6970120325104787
 31
0.0
  0
ARC
  5
4DA
100
AcDbEntity
  8
icons
 62
256
370
9
 48
1.0
  6
BYLAYER
100
AcDbCircle
 10
130.4646806816645892
 20
60.0515853298878213
 30
0.0
 40
0.3612340826025676
100
AcDbArc
 50
281.0198474288345665
 51
11.024143037901478
  0
LINE
  5
4DB
100
AcDbEntity
  8
icons
 62
256
370
9
 48
1.0
  6
BYLAYER
100
AcDbLine
 10
125.7508537790049417
 20
58.6277284769549354
 30
0.0
 11
125.75446622344937
 21
58.6277284769549354
 31
0.0
  0
ARC
  5
4DC
100
AcDbEntity
  8
icons
 62
256
370
9
 48
1.0
  6
BYLAYER
100
AcDbCircle
 10
125.4918357386676888
 20
59.9235321918066717
 30
0.0
 40
1.3221505356653329
100
AcDbArc
 50
193.2207995791636677
 51
281.4573749774907014
  0
ARC
  5
4DD
100
AcDbEntity
  8
icons
 62
256
370
9
 48
1.0
  6
BYLAYER
100
AcDbCircle
 10
125.4792278379693471
 20
59.8974372311800352
 30
0.0
 40
1.3041032223374662
100
AcDbArc
 50
102.4468341683348456
 51
192.231340388318614
  0
ARC
  5
4DE
100
AcDbEntity
  8
icons
 62
256
370
9
 48
1.0
  6
BYLAYER
100
AcDbCircle
 10
125.4735791525782815
 20
59.8729678674224459
 30
0.0
 40
1.3268238601605675
100
AcDbArc
 50
89.8821609820037537
 51
101.9808928678365305
  0
ARC
  5
4DF
100
AcDbEntity
  8
icons
 62
256
370
9
 48
1.0
  6
BYLAYER
100
AcDbCircle
 10
125.4782160179747308
 20
59.8993204383558151
 30
0.0
 40
1.3004698827414236
100
AcDbArc
 50
0.0830496130360773
 51
90.0840629587428907
  0
ARC
  5
4E0
100
AcDbEntity
  8
icons
 62
256
370
9
 48
1.0
  6
BYLAYER
100
AcDbCircle
 10
125.4781752868557305
 20
59.8993315026595639
 30
0.0
 40
1.300510597827621
100
AcDbArc
 50
282.1030337137034394
 51
0.0825595594031803
  0
LINE
  5
4E1
100
AcDbEntity
  8
icons
 62
256
370
9
 48
1.0
  6
BYLAYER
100
AcDbLine
 10
164.160000000000025
 20
80.5333333333333314
 30
0.0
 11
143.8400000000000034
 21
80.5333333333333314
 31
0.0
  0
LINE
  5
4E2
100
AcDbEntity
  8
icons
 62
256
370
9
 48
1.0
  6
BYLAYER
100
AcDbLine
 10
143.8400000000000034
 20
80.5333333333333314
 30
0.0
 11
143.8400000000000034
 21
97.4666666666666686
 31
0.0
  0
LINE
  5
4E3
100
AcDbEntity
  8
icons
 62
256
370
9
 48
1.0
  6
BYLAYER
100
AcDbLine
 10
143.8400000000000034
 20
97.4666666666666686
 30
0.0
 11
164.160000000000025
 21
97.4666666666666686
 31
0.0
  0
LINE
  5
4E4
100
AcDbEntity
  8
icons
 62
256
370
9
 48
1.0
  6
BYLAYER
100
AcDbLine
 10
164.160000000000025
 20
97.4666666666666686
 30
0.0
 11
164.160000000000025
 21
80.5333333333333314
 31
0.0
  0
LINE
  5
4E5
100
AcDbEntity
  8
icons
 62
256
370
9
 48
1.0
  6
BYLAYER
100
AcDbLine
 10
159.9266666666666481
 20
85.6133333333333582
 30
0.0
 11
159.9266666666666481
 21
84.7666666666666657
 31
0.0
  0
LINE
  5
4E6
100
AcDbEntity
  8
icons
 62
256
370
9
 48
1.0
  6
BYLAYER
100
AcDbLine
 10
159.9266666666666481
 20
84.7666666666666657
 30
0.0
 11
156.5399999999999636
 21
84.7666666666666657
 31
0.0
  0
LINE
  5
4E7
100
AcDbEntity
  8
icons
 62
256
370
9
 48
1.0
  6
BYLAYER
100
AcDbLine
 10
156.5399999999999636
 20
84.7666666666666657
 30
0.0
 11
156.5399999999999636
 21
85.6133333333333582
 31
0.0
  0
LINE
  5
4E8
100
AcDbEntity
  8
icons
 62
256
370
9
 48
1.0
  6
BYLAYER
100
AcDbLine
 10
156.5399999999999636
 20
85.6133333333333582
 30
0.0
 11
159.9266666666666481
 21
85.6133333333333582
 31
0.0
  0
LINE
  5
4E9
100
AcDbEntity
  8
icons
 62
256
370
9
 48
1.0
  6
BYLAYER
100
AcDbLine
 10
154.8449733333333143
 20
84.7666666666666657
 30
0.0
 11
145.5341800000000205
 21
84.7666666666666657
 31
0.0
  0
LINE
  5
4EA
100
AcDbEntity
  8
icons
 62
256
370
9
 48
1.0
  6
BYLAYER
100
AcDbLine
 10
145.5341800000000205
 20
84.7666666666666657
 30
0.0
 11
145.533333333333303
 21
85.5405200000000008
 31
0.0
  0
ARC
  5
4EB
100
AcDbEntity
  8
icons
 62
256
370
9
 48
1.0
  6
BYLAYER
100
AcDbCircle
 10
147.2278161776076502
 20
85.9574964785287534
 30
0.0
 40
1.7450333788172134
100
AcDbArc
 50
98.0986344464901947
 51
193.8246022578609029
  0
ARC
  5
4EC
100
AcDbEntity
  8
icons
 62
256
370
9
 48
1.0
  6
BYLAYER
100
AcDbCircle
 10
146.676179355400393
 20
90.9386774935342146
 30
0.0
 40
3.267890300675353
100
AcDbArc
 50
275.3694454883223557
 51
305.7160930057654014
  0
ARC
  5
4ED
100
AcDbEntity
  8
icons
 62
256
370
9
 48
1.0
  6
BYLAYER
100
AcDbCircle
 10
148.0946477762650773
 20
88.3499006357264278
 30
0.0
 40
0.4934574529365728
100
AcDbArc
 50
352.4908440206475575
 51
34.5857969628881605
  0
ARC
  5
4EE
100
AcDbEntity
  8
icons
 62
256
370
9
 48
1.0
  6
BYLAYER
100
AcDbCircle
 10
152.1016468224042626
 20
91.2085473030661547
 30
0.0
 40
4.4287977479918466
100
AcDbArc
 50
157.1353662005257661
 51
215.6069332327856216
  0
ARC
  5
4EF
100
AcDbEntity
  8
icons
 62
256
370
9
 48
1.0
  6
BYLAYER
100
AcDbCircle
 10
150.0925662128606746
 20
91.643712371339987
 30
0.0
 40
2.4382351716842763
100
AcDbArc
 50
87.7098059778819703
 51
148.1771734603274808
  0
ARC
  5
4F0
100
AcDbEntity
  8
icons
 62
256
370
9
 48
1.0
  6
BYLAYER
100
AcDbCircle
 10
150.2887817694480646
 20
91.6531559347115348
 30
0.0
 40
2.4288536298429402
100
AcDbArc
 50
32.1687526382822568
 51
92.3308691156901773
  0
ARC
  5
4F1
100
AcDbEntity
  8
icons
 62
256
370
9
 48
1.0
  6
BYLAYER
100
AcDbCircle
 10
148.2151954756904502
 20
91.2086402687579607
 30
0.0
 40
4.4802752036779792
100
AcDbArc
 50
324.9013781782568913
 51
22.820762892924062
  0
ARC
  5
4F2
100
AcDbEntity
  8
icons
 62
256
370
9
 48
1.0
  6
BYLAYER
100
AcDbCircle
 10
152.2923636507346714
 20
88.3542976500330468
 30
0.0
 40
0.496802416885658
100
AcDbArc
 50
145.9386808226632297
 51
187.9700450514393424
  0
ARC
  5
4F3
100
AcDbEntity
  8
icons
 62
256
370
9
 48
1.0
  6
BYLAYER
100
AcDbCircle
 10
153.6672749066500216
 20
90.8625452861631828
 30
0.0
 40
3.1822916854004277
100
AcDbArc
 50
234.0798371050373703
 51
264.2737541375899468
  0
ARC
  5
4F4
100
AcDbEntity
  8
icons
 62
256
370
9
 48
1.0
  6
BYLAYER
100
AcDbCircle
 10
153.1305462035996356
 20
85.9447750827189623
 30
0.0
 40
1.7650241954509776
100
AcDbArc
 50
346.3640308372420122
 51
82.8655131081850129
  0
LINE
  5
4F5
100
AcDbEntity
  8
icons
 62
256
370
9
 48
1.0
  6
BYLAYER
100
AcDbLine
 10
154.8458200000000318
 20
85.5286666666666804
 30
0.0
 11
154.8449733333333143
 21
84.7666666666666657
 31
0.0
  0
LINE
  5
4F6
100
AcDbEntity
  8
icons
 62
256
370
9
 48
1.0
  6
BYLAYER
100
AcDbLine
 10
154.8449733333333143
 20
84.7666666666666657
 30
0.0
 11
154.8449733333333143
 21
84.7666666666666657
 31
0.0
  0
LINE
  5
4F7
100
AcDbEntity
  8
icons
 62
256
370
9
 48
1.0
  6
BYLAYER
100
AcDbLine
 10
161.620000000000033
 20
88.1533333333333502
 30
0.0
 11
161.620000000000033
 21
87.3066666666666578
 31
0.0
  0
LINE
  5
4F8
100
AcDbEntity
  8
icons
 62
256
370
9
 48
1.0
  6
BYLAYER
100
AcDbLine
 10
161.620000000000033
 20
87.3066666666666578
 30
0.0
 11
156.5399999999999636
 21
87.3066666666666578
 31
0.0
  0
LINE
  5
4F9
100
AcDbEntity
  8
icons
 62
256
370
9
 48
1.0
  6
BYLAYER
100
AcDbLine
 10
156.5399999999999636
 20
87.3066666666666578
 30
0.0
 11
156.5399999999999636
 21
88.1533333333333502
 31
0.0
  0
LINE
  5
4FA
100
AcDbEntity
  8
icons
 62
256
370
9
 48
1.0
  6
BYLAYER
100
AcDbLine
 10
156.5399999999999636
 20
88.1533333333333502
 30
0.0
 11
161.620000000000033
 21
88.1533333333333502
 31
0.0
  0
LINE
  5
4FB
100
AcDbEntity
  8
icons
 62
256
370
9
 48
1.0
  6
BYLAYER
100
AcDbLine
 10
161.620000000000033
 20
90.6933333333333422
 30
0.0
 11
161.620000000000033
 21
89.8466666666666924
 31
0.0
  0
LINE
  5
4FC
100
AcDbEntity
  8
icons
 62
256
370
9
 48
1.0
  6
BYLAYER
100
AcDbLine
 10
161.620000000000033
 20
89.8466666666666924
 30
0.0
 11
156.5399999999999636
 21
89.8466666666666924
 31
0.0
  0
LINE
  5
4FD
100
AcDbEntity
  8
icons
 62
256
370
9
 48
1.0
  6
BYLAYER
100
AcDbLine
 10
156.5399999999999636
 20
89.8466666666666924
 30
0.0
 11
156.5399999999999636
 21
90.6933333333333422
 31
0.0
  0
LINE
  5
4FE
100
AcDbEntity
  8
icons
 62
256
370
9
 48
1.0
  6
BYLAYER
100
AcDbLine
 10
156.5399999999999636
 20
90.6933333333333422
 30
0.0
 11
161.620000000000033
 21
90.6933333333333422
 31
0.0
  0
LINE
  5
4FF
100
AcDbEntity
  8
icons
 62
256
370
9
 48
1.0
  6
BYLAYER
100
AcDbLine
 10
161.620000000000033
 20
93.2333333333333343
 30
0.0
 11
161.620000000000033
 21
92.3866666666666845
 31
0.0
  0
LINE
  5
500
100
AcDbEntity
  8
icons
 62
256
370
9
 48
1.0
  6
BYLAYER
100
AcDbLine
 10
161.620000000000033
 20
92.3866666666666845
 30
0.0
 11
156.5399999999999636
 21
92.3866666666666845
 31
0.0
  0
LINE
  5
501
100
AcDbEntity
  8
icons
 62
256
370
9
 48
1.0
  6
BYLAYER
100
AcDbLine
 10
156.5399999999999636
 20
92.3866666666666845
 30
0.0
 11
156.5399999999999636
 21
93.2333333333333343
 31
0.0
  0
LINE
  5
502
100
AcDbEntity
  8
icons
 62
256
370
9
 48
1.0
  6
BYLAYER
100
AcDbLine
 10
156.5399999999999636
 20
93.2333333333333343
 30
0.0
 11
161.620000000000033
 21
93.2333333333333343
 31
0.0
  0
ARC
  5
503
100
AcDbEntity
  8
icons
 62
256
370
9
 48
1.0
  6
BYLAYER
100
AcDbCircle
 10
182.0
 20
89.0
 30
0.0
 40
1.6933333333333334
100
AcDbArc
 50
180.0
 51
270.0
  0
ARC
  5
504
100
AcDbEntity
  8
icons
 62
256
370
9
 48
1.0
  6
BYLAYER
100
AcDbCircle
 10
182.0
 20
89.0
 30
0.0
 40
1.6933333333333334
100
AcDbArc
 50
90.0000000000000142
 51
180.0
  0
ARC
  5
505
100
AcDbEntity
  8
icons
 62
256
370
9
 48
1.0
  6
BYLAYER
100
AcDbCircle
 10
182.0
 20
89.0
 30
0.0
 40
1.6933333333333334
100
AcDbArc
 50
0.0
 51
90.0000000000000142
  0
ARC
  5
506
100
AcDbEntity
  8
icons
 62
256
370
9
 48
1.0
  6
BYLAYER
100
AcDbCircle
 10
182.0
 20
89.0
 30
0.0
 40
1.6933333333333334
100
AcDbArc
 50
270.0
 51
0.0
  0
ARC
  5
507
100
AcDbEntity
  8
icons
 62
256
370
9
 48
1.0
  6
BYLAYER
100
AcDbCircle
 10
181.999783207732321
 20
89.0078958642552465
 30
0.0
 40
5.0721041403778333
100
AcDbArc
 50
19.4081634063473842
 51
89.9975510593575763
  0
ARC
  5
508
100
AcDbEntity
  8
icons
 62
256
370
9
 48
1.0
  6
BYLAYER
100
AcDbCircle
 10
182.0
 20
89.0
 30
0.0
 40
5.0800000000000001
100
AcDbArc
 50
90.0000000000000142
 51
180.0
  0
ARC
  5
509
100
AcDbEntity
  8
icons
 62
256
370
9
 48
1.0
  6
BYLAYER
100
AcDbCircle
 10
182.0
 20
89.0
 30
0.0
 40
5.0800000000000001
100
AcDbArc
 50
180.0
 51
270.0
  0
ARC
  5
50A
100
AcDbEntity
  8
icons
 62
256
370
9
 48
1.0
  6
BYLAYER
100
AcDbCircle
 10
181.999783207732321
 20
88.9921041357447535
 30
0.0
 40
5.0721041403778413
100
AcDbArc
 50
270.0024489406426369
 51
340.5918365936527152
  0
LINE
  5
50B
100
AcDbEntity
  8
icons
 62
256
370
9
 48
1.0
  6
BYLAYER
100
AcDbLine
 10
186.7836666666666758
 20
87.3066666666666578
 30
0.0
 11
190.4666666666666686
 21
87.3066666666666578
 31
0.0
  0
LINE
  5
50C
100
AcDbEntity
  8
icons
 62
256
370
9
 48
1.0
  6
BYLAYER
100
AcDbLine
 10
190.4666666666666686
 20
87.3066666666666578
 30
0.0
 11
190.4666666666666686
 21
83.9200000000000159
 31
0.0
  0
LINE
  5
50D
100
AcDbEntity
  8
icons
 62
256
370
9
 48
1.0
  6
BYLAYER
100
AcDbLine
 10
190.4666666666666686
 20
83.9200000000000159
 30
0.0
 11
193.853333333333353
 21
83.9200000000000159
 31
0.0
  0
LINE
  5
50E
100
AcDbEntity
  8
icons
 62
256
370
9
 48
1.0
  6
BYLAYER
100
AcDbLine
 10
193.853333333333353
 20
83.9200000000000159
 30
0.0
 11
193.853333333333353
 21
87.3066666666666578
 31
0.0
  0
LINE
  5
50F
100
AcDbEntity
  8
icons
 62
256
370
9
 48
1.0
  6
BYLAYER
100
AcDbLine
 10
193.853333333333353
 20
87.3066666666666578
 30
0.0
 11
195.5466666666666526
 21
87.3066666666666578
 31
0.0
  0
LINE
  5
510
100
AcDbEntity
  8
icons
 62
256
370
9
 48
1.0
  6
BYLAYER
100
AcDbLine
 10
195.5466666666666526
 20
87.3066666666666578
 30
0.0
 11
195.5466666666666526
 21
90.6933333333333422
 31
0.0
  0
LINE
  5
511
100
AcDbEntity
  8
icons
 62
256
370
9
 48
1.0
  6
BYLAYER
100
AcDbLine
 10
195.5466666666666526
 20
90.6933333333333422
 30
0.0
 11
186.7836666666666758
 21
90.6933333333333422
 31
0.0
  0
ARC
  5
512
100
AcDbEntity
  8
icons
 62
256
370
9
 48
1.0
  6
BYLAYER
100
AcDbCircle
 10
222.2635228780340242
 20
87.8187418325040312
 30
0.0
 40
5.1110598558251796
100
AcDbArc
 50
213.4698770317653782
 51
241.9827449560472417
  0
LINE
  5
513
100
AcDbEntity
  8
icons
 62
256
370
9
 48
1.0
  6
BYLAYER
100
AcDbLine
 10
219.862666666666712
 20
83.3066666666666436
 30
0.0
 11
217.9999999999999716
 21
81.4439999999999884
 31
0.0
  0
LINE
  5
514
100
AcDbEntity
  8
icons
 62
256
370
9
 48
1.0
  6
BYLAYER
100
AcDbLine
 10
217.9999999999999716
 20
81.4439999999999884
 30
0.0
 11
216.1373333333333164
 21
83.3066666666666436
 31
0.0
  0
ARC
  5
515
100
AcDbEntity
  8
icons
 62
256
370
9
 48
1.0
  6
BYLAYER
100
AcDbCircle
 10
213.7825086085080954
 20
87.7681071973076712
 30
0.0
 40
5.0447647212823323
100
AcDbArc
 50
297.8258597334825026
 51
326.7215182787049912
  0
ARC
  5
516
100
AcDbEntity
  8
icons
 62
256
370
9
 48
1.0
  6
BYLAYER
100
AcDbCircle
 10
222.2333333333333485
 20
87.3706666666666223
 30
0.0
 40
1.6933333333333334
100
AcDbArc
 50
90.0000000000000142
 51
180.0
  0
ARC
  5
517
100
AcDbEntity
  8
icons
 62
256
370
9
 48
1.0
  6
BYLAYER
100
AcDbCircle
 10
222.2333333333333485
 20
87.3706666666666223
 30
0.0
 40
1.6933333333333334
100
AcDbArc
 50
180.0
 51
270.0
  0
ARC
  5
518
100
AcDbEntity
  8
icons
 62
256
370
9
 48
1.0
  6
BYLAYER
100
AcDbCircle
 10
222.2333333333333485
 20
87.3706666666666223
 30
0.0
 40
1.6933333333333334
100
AcDbArc
 50
270.0
 51
0.0
  0
ARC
  5
519
100
AcDbEntity
  8
icons
 62
256
370
9
 48
1.0
  6
BYLAYER
100
AcDbCircle
 10
222.2338034376571159
 20
87.3711367709904323
 30
0.0
 40
1.6928632942830086
100
AcDbArc
 50
359.984089090884595
 51
90.0159109091153766
  0
ARC
  5
51A
100
AcDbEntity
  8
icons
 62
256
370
9
 48
1.0
  6
BYLAYER
100
AcDbCircle
 10
213.7666666666666799
 20
87.3706666666666223
 30
0.0
 40
1.6933333333333334
100
AcDbArc
 50
90.0000000000000142
 51
180.0
  0
ARC
  5
51B
100
AcDbEntity
  8
icons
 62
256
370
9
 48
1.0
  6
BYLAYER
100
AcDbCircle
 10
213.7666666666666799
 20
87.3706666666666223
 30
0.0
 40
1.6933333333333334
100
AcDbArc
 50
180.0
 51
270.0
  0
ARC
  5
51C
100
AcDbEntity
  8
icons
 62
256
370
9
 48
1.0
  6
BYLAYER
100
AcDbCircle
 10
213.7666666666666799
 20
87.3706666666666223
 30
0.0
 40
1.6933333333333334
100
AcDbArc
 50
270.0
 51
0.0
  0
ARC
  5
51D
100
AcDbEntity
  8
icons
 62
256
370
9
 48
1.0
  6
BYLAYER
100
AcDbCircle
 10
213.7671367709904473
 20
87.3711367709904323
 30
0.0
 40
1.69286329428301
100
AcDbArc
 50
359.984089090884595
 51
90.0159109091212741
  0
ARC
  5
51E
100
AcDbEntity
  8
icons
 62
256
370
9
 48
1.0
  6
BYLAYER
100
AcDbCircle
 10
222.2333333333333485
 20
87.7939999999999685
 30
0.0
 40
3.3866666666666667
100
AcDbArc
 50
0.0
 51
90.0000000000000142
  0
ARC
  5
51F
100
AcDbEntity
  8
icons
 62
256
370
9
 48
1.0
  6
BYLAYER
100
AcDbCircle
 10
222.2333333333333485
 20
87.7939999999999685
 30
0.0
 40
3.3866666666666667
100
AcDbArc
 50
270.0
 51
0.0
  0
ARC
  5
520
100
AcDbEntity
  8
icons
 62
256
370
9
 48
1.0
  6
BYLAYER
100
AcDbCircle
 10
222.2333333333333485
 20
87.7939999999999685
 30
0.0
 40
3.3866666666666667
100
AcDbArc
 50
180.0
 51
270.0
  0
ARC
  5
521
100
AcDbEntity
  8
icons
 62
256
370
9
 48
1.0
  6
BYLAYER
100
AcDbCircle
 10
222.2333333333333485
 20
87.7939999999999685
 30
0.0
 40
3.3866666666666667
100
AcDbArc
 50
90.0000000000000142
 51
180.0
  0
ARC
  5
522
100
AcDbEntity
  8
icons
 62
256
370
9
 48
1.0
  6
BYLAYER
100
AcDbCircle
 10
213.7666666666666799
 20
87.7939999999999685
 30
0.0
 40
3.3866666666666667
100
AcDbArc
 50
0.0
 51
90.0000000000000142
  0
ARC
  5
523
100
AcDbEntity
  8
icons
 62
256
370
9
 48
1.0
  6
BYLAYER
100
AcDbCircle
 10
213.7666666666666799
 20
87.7939999999999685
 30
0.0
 40
3.3866666666666667
100
AcDbArc
 50
270.0
 51
0.0
  0
ARC
  5
524
100
AcDbEntity
  8
icons
 62
256
370
9
 48
1.0
  6
BYLAYER
100
AcDbCircle
 10
213.7666666666666799
 20
87.7939999999999685
 30
0.0
 40
3.3866666666666667
100
AcDbArc
 50
180.0
 51
270.0
  0
ARC
  5
525
100
AcDbEntity
  8
icons
 62
256
370
9
 48
1.0
  6
BYLAYER
100
AcDbCircle
 10
213.7666666666666799
 20
87.7939999999999685
 30
0.0
 40
3.3866666666666667
100
AcDbArc
 50
90.0000000000000142
 51
180.0
  0
SPLINE
  5
526
100
AcDbEntity
  8
icons
 62
256
370
9
 48
1.0
  6
BYLAYER
100
AcDbSpline
 70
8
 71
3
 72
8
 73
4
 74
0
 40
0.0
 40
0.0
 40
0.0
 40
0.0
 40
1.0
 40
1.0
 40
1.0
 40
1.0
 10
209.7365333333333126
 20
97.6999999999999886
 30
0.0
 10
211.2266666666666879
 20
94.5673333333332948
 30
0.0
 10
210.1513999999999953
 20
92.2305333333333124
 30
0.0
 10
209.1523333333333596
 20
89.910666666666657
 30
0.0
  0
ARC
  5
527
100
AcDbEntity
  8
icons
 62
256
370
9
 48
1.0
  6
BYLAYER
100
AcDbCircle
 10
213.7887307834606077
 20
87.7811025609719877
 30
0.0
 40
5.1020804183989465
100
AcDbArc
 50
155.3299998645055382
 51
179.8551630806959452
  0
ARC
  5
528
100
AcDbEntity
  8
icons
 62
256
370
9
 48
1.0
  6
BYLAYER
100
AcDbCircle
 10
213.7666666666666799
 20
87.7939999999999685
 30
0.0
 40
5.0800000000000001
100
AcDbArc
 50
180.0
 51
270.0
  0
ARC
  5
529
100
AcDbEntity
  8
icons
 62
256
370
9
 48
1.0
  6
BYLAYER
100
AcDbCircle
 10
213.5863188271605679
 20
88.3679694444430766
 30
0.0
 40
5.6568450413557141
100
AcDbArc
 50
271.8269762115662047
 51
277.2485688042472134
  0
LINE
  5
52A
100
AcDbEntity
  8
icons
 62
256
370
9
 48
1.0
  6
BYLAYER
100
AcDbLine
 10
214.3000666666666518
 20
82.756333333333302
 30
0.0
 11
216.8061999999999898
 21
80.250199999999964
 31
0.0
  0
LINE
  5
52B
100
AcDbEntity
  8
icons
 62
256
370
9
 48
1.0
  6
BYLAYER
100
AcDbLine
 10
216.8061999999999898
 20
80.250199999999964
 30
0.0
 11
217.9999999999999716
 21
79.0733333333333093
 31
0.0
  0
LINE
  5
52C
100
AcDbEntity
  8
icons
 62
256
370
9
 48
1.0
  6
BYLAYER
100
AcDbLine
 10
217.9999999999999716
 20
79.0733333333333093
 30
0.0
 11
219.1938000000000386
 21
80.250199999999964
 31
0.0
  0
LINE
  5
52D
100
AcDbEntity
  8
icons
 62
256
370
9
 48
1.0
  6
BYLAYER
100
AcDbLine
 10
219.1938000000000386
 20
80.250199999999964
 30
0.0
 11
221.6999333333333766
 21
82.756333333333302
 31
0.0
  0
ARC
  5
52E
100
AcDbEntity
  8
icons
 62
256
370
9
 48
1.0
  6
BYLAYER
100
AcDbCircle
 10
222.4136811728393752
 20
88.3679694444426502
 30
0.0
 40
5.6568450413552815
100
AcDbArc
 50
262.7514311957523887
 51
268.173023788433909
  0
ARC
  5
52F
100
AcDbEntity
  8
icons
 62
256
370
9
 48
1.0
  6
BYLAYER
100
AcDbCircle
 10
222.2333333333333485
 20
87.7939999999999685
 30
0.0
 40
5.0800000000000001
100
AcDbArc
 50
270.0
 51
0.0
  0
ARC
  5
530
100
AcDbEntity
  8
icons
 62
256
370
9
 48
1.0
  6
BYLAYER
100
AcDbCircle
 10
222.2112692165393355
 20
87.7811025609719451
 30
0.0
 40
5.1020804183989652
100
AcDbArc
 50
0.1448369193040411
 51
24.6700001354945897
  0
SPLINE
  5
531
100
AcDbEntity
  8
icons
 62
256
370
9
 48
1.0
  6
BYLAYER
100
AcDbSpline
 70
8
 71
3
 72
8
 73
4
 74
0
 40
0.0
 40
0.0
 40
0.0
 40
0.0
 40
1.0
 40
1.0
 40
1.0
 40
1.0
 10
226.8476666666666688
 20
89.910666666666657
 30
0.0
 10
225.8486000000000331
 20
92.2305333333333124
 30
0.0
 10
224.7733333333333405
 20
94.5673333333332948
 30
0.0
 10
226.2634666666666305
 20
97.6999999999999886
 30
0.0
  0
ARC
  5
532
100
AcDbEntity
  8
icons
 62
256
370
9
 48
1.0
  6
BYLAYER
100
AcDbCircle
 10
217.2361543663133716
 20
109.0474101039951051
 30
0.0
 40
14.5002097721502636
100
AcDbArc
 50
273.0196389136729067
 51
308.5036327489827954
  0
ARC
  5
533
100
AcDbEntity
  8
icons
 62
256
370
9
 48
1.0
  6
BYLAYER
100
AcDbCircle
 10
218.7638456336866568
 20
109.0474101039951051
 30
0.0
 40
14.5002097721502281
100
AcDbArc
 50
231.4963672510171762
 51
266.9803610863270933
  0
LINE
  5
534
100
AcDbEntity
  8
icons
 62
256
370
9
 48
1.0
  6
BYLAYER
100
AcDbLine
 10
241.1661366392955586
 20
91.5825581709431447
 30
0.0
 11
242.7465810837400113
 21
91.5825581709431447
 31
0.0
  0
LINE
  5
535
100
AcDbEntity
  8
icons
 62
256
370
9
 48
1.0
  6
BYLAYER
100
AcDbLine
 10
242.7465810837400113
 20
91.5825581709431447
 30
0.0
 11
244.1012477504066567
 21
89.8892248376098166
 31
0.0
  0
LINE
  5
536
100
AcDbEntity
  8
icons
 62
256
370
9
 48
1.0
  6
BYLAYER
100
AcDbLine
 10
244.1012477504066567
 20
89.8892248376098166
 30
0.0
 11
248.1652477504066496
 21
89.8892248376098166
 31
0.0
  0
LINE
  5
537
100
AcDbEntity
  8
icons
 62
256
370
9
 48
1.0
  6
BYLAYER
100
AcDbLine
 10
248.1652477504066496
 20
89.8892248376098166
 30
0.0
 11
245.6816921948511094
 21
97.3963359487209175
 31
0.0
  0
LINE
  5
538
100
AcDbEntity
  8
icons
 62
256
370
9
 48
1.0
  6
BYLAYER
100
AcDbLine
 10
245.6816921948511094
 20
97.3963359487209175
 30
0.0
 11
247.6572477504066683
 21
97.3963359487209175
 31
0.0
  0
LINE
  5
539
100
AcDbEntity
  8
icons
 62
256
370
9
 48
1.0
  6
BYLAYER
100
AcDbLine
 10
247.6572477504066683
 20
97.3963359487209175
 30
0.0
 11
252.1728033059622192
 21
89.9456692820542543
 31
0.0
  0
LINE
  5
53A
100
AcDbEntity
  8
icons
 62
256
370
9
 48
1.0
  6
BYLAYER
100
AcDbLine
 10
252.1728033059622192
 20
89.9456692820542543
 30
0.0
 11
257.7043588615177896
 21
89.9456692820542543
 31
0.0
  0
SPLINE
  5
53B
100
AcDbEntity
  8
icons
 62
256
370
9
 48
1.0
  6
BYLAYER
100
AcDbSpline
 70
8
 71
3
 72
8
 73
4
 74
0
 40
0.0
 40
0.0
 40
0.0
 40
0.0
 40
1.0
 40
1.0
 40
1.0
 40
1.0
 10
257.7043588615177896
 20
89.9456692820542543
 30
0.0
 10
258.8896921948510794
 20
89.9456692820542543
 30
0.0
 10
258.8896921948510794
 20
88.0265581709431473
 30
0.0
 10
257.7043588615177896
 20
88.0265581709431473
 30
0.0
  0
LINE
  5
53C
100
AcDbEntity
  8
icons
 62
256
370
9
 48
1.0
  6
BYLAYER
100
AcDbLine
 10
257.7043588615177896
 20
88.0265581709431473
 30
0.0
 11
252.1728033059622192
 21
88.0265581709431473
 31
0.0
  0
LINE
  5
53D
100
AcDbEntity
  8
icons
 62
256
370
9
 48
1.0
  6
BYLAYER
100
AcDbLine
 10
252.1728033059622192
 20
88.0265581709431473
 30
0.0
 11
247.6572477504066683
 21
80.4630026153875946
 31
0.0
  0
LINE
  5
53E
100
AcDbEntity
  8
icons
 62
256
370
9
 48
1.0
  6
BYLAYER
100
AcDbLine
 10
247.6572477504066683
 20
80.4630026153875946
 30
0.0
 11
245.6816921948511094
 21
80.4630026153875946
 31
0.0
  0
LINE
  5
53F
100
AcDbEntity
  8
icons
 62
256
370
9
 48
1.0
  6
BYLAYER
100
AcDbLine
 10
245.6816921948511094
 20
80.4630026153875946
 30
0.0
 11
248.1088033059622262
 21
87.9701137264987096
 31
0.0
  0
LINE
  5
540
100
AcDbEntity
  8
icons
 62
256
370
9
 48
1.0
  6
BYLAYER
100
AcDbLine
 10
248.1088033059622262
 20
87.9701137264987096
 30
0.0
 11
244.1012477504066567
 21
87.9701137264987096
 31
0.0
  0
LINE
  5
541
100
AcDbEntity
  8
icons
 62
256
370
9
 48
1.0
  6
BYLAYER
100
AcDbLine
 10
244.1012477504066567
 20
87.9701137264987096
 30
0.0
 11
242.7465810837400113
 21
86.2767803931653674
 31
0.0
  0
LINE
  5
542
100
AcDbEntity
  8
icons
 62
256
370
9
 48
1.0
  6
BYLAYER
100
AcDbLine
 10
242.7465810837400113
 20
86.2767803931653674
 30
0.0
 11
241.1661366392955586
 21
86.2767803931653674
 31
0.0
  0
LINE
  5
543
100
AcDbEntity
  8
icons
 62
256
370
9
 48
1.0
  6
BYLAYER
100
AcDbLine
 10
241.1661366392955586
 20
86.2767803931653674
 30
0.0
 11
242.0128033059622226
 21
88.9296692820542489
 31
0.0
  0
LINE
  5
544
100
AcDbEntity
  8
icons
 62
256
370
9
 48
1.0
  6
BYLAYER
100
AcDbLine
 10
241.1661366392955586
 20
91.5825581709431447
 30
0.0
 11
242.0128033059622226
 21
88.9296692820542489
 31
0.0
  0
ARC
  5
545
100
AcDbEntity
  8
icons
 62
256
370
9
 48
1.0
  6
BYLAYER
100
AcDbCircle
 10
154.0
 20
57.0
 30
0.0
 40
8.466666666666665
100
AcDbArc
 50
90.0000000000000142
 51
180.0
  0
ARC
  5
546
100
AcDbEntity
  8
icons
 62
256
370
9
 48
1.0
  6
BYLAYER
100
AcDbCircle
 10
154.0
 20
57.0000000000000213
 30
0.0
 40
8.466666666666665
100
AcDbArc
 50
180.0
 51
270.0
  0
ARC
  5
547
100
AcDbEntity
  8
icons
 62
256
370
9
 48
1.0
  6
BYLAYER
100
AcDbCircle
 10
154.0
 20
57.0
 30
0.0
 40
8.466666666666665
100
AcDbArc
 50
270.0
 51
0.0
  0
ARC
  5
548
100
AcDbEntity
  8
icons
 62
256
370
9
 48
1.0
  6
BYLAYER
100
AcDbCircle
 10
154.0
 20
57.0000000000000213
 30
0.0
 40
8.466666666666665
100
AcDbArc
 50
0.0
 51
90.0000000000000142
  0
ARC
  5
549
100
AcDbEntity
  8
icons
 62
256
370
9
 48
1.0
  6
BYLAYER
100
AcDbCircle
 10
153.9827907795960016
 20
57.1048380093158912
 30
0.0
 40
7.5151816946425374
100
AcDbArc
 50
57.2612902417344429
 51
89.8687967104900025
  0
LINE
  5
54A
100
AcDbEntity
  8
icons
 62
256
370
9
 48
1.0
  6
BYLAYER
100
AcDbLine
 10
158.0470666666666943
 20
63.4261999999999944
 30
0.0
 11
157.8100000000000307
 21
62.9266666666666765
 31
0.0
  0
LINE
  5
54B
100
AcDbEntity
  8
icons
 62
256
370
9
 48
1.0
  6
BYLAYER
100
AcDbLine
 10
157.8100000000000307
 20
62.9266666666666765
 30
0.0
 11
154.8466666666666924
 21
62.9266666666666765
 31
0.0
  0
LINE
  5
54C
100
AcDbEntity
  8
icons
 62
256
370
9
 48
1.0
  6
BYLAYER
100
AcDbLine
 10
154.8466666666666924
 20
62.9266666666666765
 30
0.0
 11
154.0
 21
62.9266666666666765
 31
0.0
  0
LINE
  5
54D
100
AcDbEntity
  8
icons
 62
256
370
9
 48
1.0
  6
BYLAYER
100
AcDbLine
 10
154.0
 20
62.9266666666666765
 30
0.0
 11
152.543733333333364
 21
63.6378666666666675
 31
0.0
  0
LINE
  5
54E
100
AcDbEntity
  8
icons
 62
256
370
9
 48
1.0
  6
BYLAYER
100
AcDbLine
 10
152.543733333333364
 20
63.6378666666666675
 30
0.0
 11
152.8400666666666723
 21
64.5099333333333504
 31
0.0
  0
ARC
  5
54F
100
AcDbEntity
  8
icons
 62
256
370
9
 48
1.0
  6
BYLAYER
100
AcDbCircle
 10
154.0380465488215691
 20
58.0520581649831087
 30
0.0
 40
6.5680520314658226
100
AcDbArc
 50
90.3318973195380437
 51
100.5092932479869319
  0
LINE
  5
550
100
AcDbEntity
  8
icons
 62
256
370
9
 48
1.0
  6
BYLAYER
100
AcDbLine
 10
151.9087333333333447
 20
64.2982666666666773
 30
0.0
 11
151.6208666666667
 21
63.4261999999999944
 31
0.0
  0
LINE
  5
551
100
AcDbEntity
  8
icons
 62
256
370
9
 48
1.0
  6
BYLAYER
100
AcDbLine
 10
151.6208666666667
 20
63.4261999999999944
 30
0.0
 11
149.4534000000000731
 21
62.3424666666666809
 31
0.0
  0
LINE
  5
552
100
AcDbEntity
  8
icons
 62
256
370
9
 48
1.0
  6
BYLAYER
100
AcDbLine
 10
149.4534000000000731
 20
62.3424666666666809
 30
0.0
 11
148.3950666666667075
 21
62.1308000000000078
 31
0.0
  0
ARC
  5
553
100
AcDbEntity
  8
icons
 62
256
370
9
 48
1.0
  6
BYLAYER
100
AcDbCircle
 10
154.0108826721727837
 20
56.9587606421158554
 30
0.0
 40
7.6346172482450374
100
AcDbArc
 50
105.9825410213634882
 51
137.3556304897002747
  0
LINE
  5
554
100
AcDbEntity
  8
icons
 62
256
370
9
 48
1.0
  6
BYLAYER
100
AcDbLine
 10
154.8466666666666924
 20
62.0800000000000125
 30
0.0
 11
157.3866666666666845
 21
62.0800000000000125
 31
0.0
  0
LINE
  5
555
100
AcDbEntity
  8
icons
 62
256
370
9
 48
1.0
  6
BYLAYER
100
AcDbLine
 10
157.3866666666666845
 20
62.0800000000000125
 30
0.0
 11
159.6642000000000223
 21
59.0404666666666742
 31
0.0
  0
LINE
  5
556
100
AcDbEntity
  8
icons
 62
256
370
9
 48
1.0
  6
BYLAYER
100
AcDbLine
 10
159.6642000000000223
 20
59.0404666666666742
 30
0.0
 11
158.605866666666742
 21
56.8645333333333411
 31
0.0
  0
LINE
  5
557
100
AcDbEntity
  8
icons
 62
256
370
9
 48
1.0
  6
BYLAYER
100
AcDbLine
 10
158.605866666666742
 20
56.8645333333333411
 30
0.0
 11
156.3791333333333853
 21
56.3396000000000114
 31
0.0
  0
LINE
  5
558
100
AcDbEntity
  8
icons
 62
256
370
9
 48
1.0
  6
BYLAYER
100
AcDbLine
 10
156.3791333333333853
 20
56.3396000000000114
 30
0.0
 11
153.6020666666667296
 21
59.5908000000000158
 31
0.0
  0
LINE
  5
559
100
AcDbEntity
  8
icons
 62
256
370
9
 48
1.0
  6
BYLAYER
100
AcDbLine
 10
153.6020666666667296
 20
59.5908000000000158
 30
0.0
 11
154.8466666666666924
 21
62.0800000000000125
 31
0.0
  0
LINE
  5
55A
100
AcDbEntity
  8
icons
 62
256
370
9
 48
1.0
  6
BYLAYER
100
AcDbLine
 10
149.0554666666667174
 20
61.5212000000000216
 30
0.0
 11
149.7666666666667084
 21
58.6933333333333422
 31
0.0
  0
LINE
  5
55B
100
AcDbEntity
  8
icons
 62
256
370
9
 48
1.0
  6
BYLAYER
100
AcDbLine
 10
149.7666666666667084
 20
58.6933333333333422
 30
0.0
 11
148.7337333333333333
 21
56.1025333333333478
 31
0.0
  0
LINE
  5
55C
100
AcDbEntity
  8
icons
 62
256
370
9
 48
1.0
  6
BYLAYER
100
AcDbLine
 10
148.7337333333333333
 20
56.1025333333333478
 30
0.0
 11
146.5662666666667064
 21
55.3574666666666815
 31
0.0
  0
ARC
  5
55D
100
AcDbEntity
  8
icons
 62
256
370
9
 48
1.0
  6
BYLAYER
100
AcDbCircle
 10
153.8931878467269598
 20
57.0201828142336424
 30
0.0
 40
7.5132149554099268
100
AcDbArc
 50
180.1539143325411487
 51
192.7857256378066211
  0
ARC
  5
55E
100
AcDbEntity
  8
icons
 62
256
370
9
 48
1.0
  6
BYLAYER
100
AcDbCircle
 10
153.921974716049931
 20
57.009086745543037
 30
0.0
 40
7.5419801900085091
100
AcDbArc
 50
145.2357387624166734
 51
180.0690312467057481
  0
LINE
  5
55F
100
AcDbEntity
  8
icons
 62
256
370
9
 48
1.0
  6
BYLAYER
100
AcDbLine
 10
147.7262000000000342
 20
61.3095333333333485
 30
0.0
 11
149.0554666666667174
 21
61.5212000000000216
 31
0.0
  0
ARC
  5
560
100
AcDbEntity
  8
icons
 62
256
370
9
 48
1.0
  6
BYLAYER
100
AcDbCircle
 10
154.172034353027982
 20
57.0275330151075508
 30
0.0
 40
7.4480165376693783
100
AcDbArc
 50
359.7881947297071861
 51
18.1993900678041065
  0
ARC
  5
561
100
AcDbEntity
  8
icons
 62
256
370
9
 48
1.0
  6
BYLAYER
100
AcDbCircle
 10
154.0185610253346908
 20
57.0504370346896721
 30
0.0
 40
7.6016063026198193
100
AcDbArc
 50
333.1179742402424608
 51
359.6198368729166646
  0
LINE
  5
562
100
AcDbEntity
  8
icons
 62
256
370
9
 48
1.0
  6
BYLAYER
100
AcDbLine
 10
160.7987333333333595
 20
53.6133333333333368
 30
0.0
 11
159.9266666666666765
 21
53.6133333333333368
 31
0.0
  0
LINE
  5
563
100
AcDbEntity
  8
icons
 62
256
370
9
 48
1.0
  6
BYLAYER
100
AcDbLine
 10
159.9266666666666765
 20
53.6133333333333368
 30
0.0
 11
159.2154666666666856
 21
56.4412000000000162
 31
0.0
  0
LINE
  5
564
100
AcDbEntity
  8
icons
 62
256
370
9
 48
1.0
  6
BYLAYER
100
AcDbLine
 10
159.2154666666666856
 20
56.4412000000000162
 30
0.0
 11
160.4854666666667242
 21
58.9812000000000012
 31
0.0
  0
LINE
  5
565
100
AcDbEntity
  8
icons
 62
256
370
9
 48
1.0
  6
BYLAYER
100
AcDbLine
 10
160.4854666666667242
 20
58.9812000000000012
 30
0.0
 11
161.2474666666666963
 21
59.3537333333333521
 31
0.0
  0
LINE
  5
566
100
AcDbEntity
  8
icons
 62
256
370
9
 48
1.0
  6
BYLAYER
100
AcDbLine
 10
150.6133333333334008
 20
58.6933333333333422
 30
0.0
 11
153.1533333333333928
 21
58.6933333333333422
 31
0.0
  0
LINE
  5
567
100
AcDbEntity
  8
icons
 62
256
370
9
 48
1.0
  6
BYLAYER
100
AcDbLine
 10
153.1533333333333928
 20
58.6933333333333422
 30
0.0
 11
155.5324666666666928
 21
55.9162666666666865
 31
0.0
  0
LINE
  5
568
100
AcDbEntity
  8
icons
 62
256
370
9
 48
1.0
  6
BYLAYER
100
AcDbLine
 10
155.5324666666666928
 20
55.9162666666666865
 30
0.0
 11
154.0
 21
53.6133333333333368
 31
0.0
  0
LINE
  5
569
100
AcDbEntity
  8
icons
 62
256
370
9
 48
1.0
  6
BYLAYER
100
AcDbLine
 10
154.0
 20
53.6133333333333368
 30
0.0
 11
151.3245333333333917
 21
52.9529333333333483
 31
0.0
  0
LINE
  5
56A
100
AcDbEntity
  8
icons
 62
256
370
9
 48
1.0
  6
BYLAYER
100
AcDbLine
 10
151.3245333333333917
 20
52.9529333333333483
 30
0.0
 11
149.3687333333333527
 21
55.5691333333333546
 31
0.0
  0
LINE
  5
56B
100
AcDbEntity
  8
icons
 62
256
370
9
 48
1.0
  6
BYLAYER
100
AcDbLine
 10
149.3687333333333527
 20
55.5691333333333546
 30
0.0
 11
150.6133333333334008
 21
58.6933333333333422
 31
0.0
  0
LINE
  5
56C
100
AcDbEntity
  8
icons
 62
256
370
9
 48
1.0
  6
BYLAYER
100
AcDbLine
 10
154.0
 20
52.766666666666687
 30
0.0
 11
156.539999999999992
 21
51.0733333333333448
 31
0.0
  0
LINE
  5
56D
100
AcDbEntity
  8
icons
 62
256
370
9
 48
1.0
  6
BYLAYER
100
AcDbLine
 10
156.539999999999992
 20
51.0733333333333448
 30
0.0
 11
155.8034000000000106
 21
49.6170666666666875
 31
0.0
  0
ARC
  5
56E
100
AcDbEntity
  8
icons
 62
256
370
9
 48
1.0
  6
BYLAYER
100
AcDbCircle
 10
153.869023232323201
 20
57.3542530303032549
 30
0.0
 40
7.975328601692306
100
AcDbArc
 50
270.9409961331364798
 51
284.0368022701437098
  0
ARC
  5
56F
100
AcDbEntity
  8
icons
 62
256
370
9
 48
1.0
  6
BYLAYER
100
AcDbCircle
 10
153.984029775701373
 20
56.876462847626442
 30
0.0
 40
7.4964798588342365
100
AcDbArc
 50
237.7005893898058275
 51
270.1220609085269189
  0
LINE
  5
570
100
AcDbEntity
  8
icons
 62
256
370
9
 48
1.0
  6
BYLAYER
100
AcDbLine
 10
149.9783333333333815
 20
50.5399333333333516
 30
0.0
 11
150.9604666666666901
 21
51.9962000000000089
 31
0.0
  0
LINE
  5
571
100
AcDbEntity
  8
icons
 62
256
370
9
 48
1.0
  6
BYLAYER
100
AcDbLine
 10
150.9604666666666901
 20
51.9962000000000089
 30
0.0
 11
154.0
 21
52.766666666666687
 31
0.0
  0
LINE
  5
572
100
AcDbEntity
  8
icons
 62
256
370
9
 48
1.0
  6
BYLAYER
100
AcDbLine
 10
159.9266666666666765
 20
52.766666666666687
 30
0.0
 11
160.3500000000000227
 21
52.766666666666687
 31
0.0
  0
ARC
  5
573
100
AcDbEntity
  8
icons
 62
256
370
9
 48
1.0
  6
BYLAYER
100
AcDbCircle
 10
154.0025214310146566
 20
57.0904138335475508
 30
0.0
 40
7.680187090614341
100
AcDbArc
 50
291.3809573558220336
 51
325.7382660735827926
  0
LINE
  5
574
100
AcDbEntity
  8
icons
 62
256
370
9
 48
1.0
  6
BYLAYER
100
AcDbLine
 10
156.8024666666667315
 20
49.9388000000000076
 30
0.0
 11
157.3866666666666845
 21
51.0733333333333448
 31
0.0
  0
LINE
  5
575
100
AcDbEntity
  8
icons
 62
256
370
9
 48
1.0
  6
BYLAYER
100
AcDbLine
 10
157.3866666666666845
 20
51.0733333333333448
 30
0.0
 11
159.9266666666666765
 21
52.766666666666687
 31
0.0
  0
LINE
  5
576
100
AcDbEntity
  8
icons
 62
256
370
9
 48
1.0
  6
BYLAYER
100
AcDbLine
 10
192.7876647525512226
 20
51.0683973400704332
 30
0.0
 11
178.3460248021540053
 21
51.0683973400704332
 31
0.0
  0
SPLINE
  5
577
100
AcDbEntity
  8
icons
 62
256
370
9
 48
1.0
  6
BYLAYER
100
AcDbSpline
 70
8
 71
3
 72
8
 73
4
 74
0
 40
0.0
 40
0.0
 40
0.0
 40
0.0
 40
1.0
 40
1.0
 40
1.0
 40
1.0
 10
178.3460248021540053
 20
51.0683973400704332
 30
0.0
 10
177.6649247157023694
 20
51.0683973400704332
 30
0.0
 10
176.8523655283348432
 20
52.2585452237005796
 30
0.0
 10
176.8523655283348432
 20
53.0338135157000039
 30
0.0
  0
LINE
  5
578
100
AcDbEntity
  8
icons
 62
256
370
9
 48
1.0
  6
BYLAYER
100
AcDbLine
 10
176.8523655283348432
 20
53.0338135157000039
 30
0.0
 11
176.9319042023612383
 21
56.8975683708303279
 31
0.0
  0
SPLINE
  5
579
100
AcDbEntity
  8
icons
 62
256
370
9
 48
1.0
  6
BYLAYER
100
AcDbSpline
 70
8
 71
3
 72
8
 73
4
 74
0
 40
0.0
 40
0.0
 40
0.0
 40
0.0
 40
1.0
 40
1.0
 40
1.0
 40
1.0
 10
176.9319042023612383
 20
56.8975683708303279
 30
0.0
 10
177.1152280242403947
 20
58.3582259006694102
 30
0.0
 10
177.6197002663283513
 20
59.6946152177663265
 30
0.0
 10
178.1200533994212094
 20
61.0325980536305366
 30
0.0
  0
SPLINE
  5
57A
100
AcDbEntity
  8
icons
 62
256
370
9
 48
1.0
  6
BYLAYER
100
AcDbSpline
 70
8
 71
3
 72
8
 73
4
 74
0
 40
0.0
 40
0.0
 40
0.0
 40
0.0
 40
1.0
 40
1.0
 40
1.0
 40
1.0
 10
178.1200533994212094
 20
61.0325980536305366
 30
0.0
 10
178.2427397558188034
 20
61.3122474717370523
 30
0.0
 10
178.3902002275687835
 20
61.5855001845100531
 30
0.0
 10
178.6899513130099706
 20
61.5855001845100531
 30
0.0
  0
LINE
  5
57B
100
AcDbEntity
  8
icons
 62
256
370
9
 48
1.0
  6
BYLAYER
100
AcDbLine
 10
178.6899513130099706
 20
61.5855001845100531
 30
0.0
 11
183.9230799391511653
 21
61.5855001845100531
 31
0.0
  0
SPLINE
  5
57C
100
AcDbEntity
  8
icons
 62
256
370
9
 48
1.0
  6
BYLAYER
100
AcDbSpline
 70
8
 71
3
 72
8
 73
4
 74
0
 40
0.0
 40
0.0
 40
0.0
 40
0.0
 40
1.0
 40
1.0
 40
1.0
 40
1.0
 10
183.9230799391511653
 20
61.5855001845100531
 30
0.0
 10
184.3983891899904108
 20
61.3472509897725615
 30
0.0
 10
184.9123320654478562
 20
61.1655544078256952
 30
0.0
 10
185.1287733734291976
 20
60.5483750149107181
 30
0.0
  0
SPLINE
  5
57D
100
AcDbEntity
  8
icons
 62
256
370
9
 48
1.0
  6
BYLAYER
100
AcDbSpline
 70
8
 71
3
 72
8
 73
4
 74
0
 40
0.0
 40
0.0
 40
0.0
 40
0.0
 40
1.0
 40
1.0
 40
1.0
 40
1.0
 10
185.1287733734291976
 20
60.5483750149107181
 30
0.0
 10
186.630653965687884
 20
56.436070434663776
 30
0.0
 10
189.598043561737768
 20
54.4705428485020633
 30
0.0
 10
193.0007618272305479
 20
53.7769718997094941
 30
0.0
  0
LINE
  5
57E
100
AcDbEntity
  8
icons
 62
256
370
9
 48
1.0
  6
BYLAYER
100
AcDbLine
 10
193.0007618272305479
 20
53.7769718997094941
 30
0.0
 11
193.0034219416856729
 21
51.287226425690136
 31
0.0
  0
ELLIPSE
  5
57F
100
AcDbEntity
  8
icons
 62
256
370
9
 48
1.0
  6
BYLAYER
100
AcDbEllipse
 10
192.7624848019320041
 20
51.3401770059823406
 30
0.0
 11
0.0
 21
-0.2732194709180337
 31
0.0
 40
0.8988870572579851
 41
0.1027074433083936
 42
1.375759801966262
  0
SPLINE
  5
580
100
AcDbEntity
  8
icons
 62
256
370
9
 48
1.0
  6
BYLAYER
100
AcDbSpline
 70
8
 71
3
 72
8
 73
4
 74
0
 40
0.0
 40
0.0
 40
0.0
 40
0.0
 40
1.0
 40
1.0
 40
1.0
 40
1.0
 10
179.3077131354214941
 20
63.4101928814342415
 30
0.0
 10
179.1103470387657524
 20
63.4101928814342415
 30
0.0
 10
179.1163870633520503
 20
62.983699507776933
 30
0.0
 10
179.3077131354214941
 20
62.9836994381453508
 30
0.0
  0
LINE
  5
581
100
AcDbEntity
  8
icons
 62
256
370
9
 48
1.0
  6
BYLAYER
100
AcDbLine
 10
179.3077131354214941
 20
62.9836994381453508
 30
0.0
 11
180.1585585677547954
 21
62.9836994381453508
 31
0.0
  0
SPLINE
  5
582
100
AcDbEntity
  8
icons
 62
256
370
9
 48
1.0
  6
BYLAYER
100
AcDbSpline
 70
8
 71
3
 72
8
 73
4
 74
0
 40
0.0
 40
0.0
 40
0.0
 40
0.0
 40
1.0
 40
1.0
 40
1.0
 40
1.0
 10
180.1585585677547954
 20
62.9836994381453508
 30
0.0
 10
180.8778773009696295
 20
62.6603701979193914
 30
0.0
 10
181.3025029216636597
 20
62.2005444642084342
 30
0.0
 10
181.5003515943770083
 20
61.5823638387675771
 30
0.0
  0
LINE
  5
583
100
AcDbEntity
  8
icons
 62
256
370
9
 48
1.0
  6
BYLAYER
100
AcDbLine
 10
181.5003515943770083
 20
61.5823638387675771
 30
0.0
 11
181.8269980017325906
 21
61.5823638387675771
 31
0.0
  0
LINE
  5
584
100
AcDbEntity
  8
icons
 62
256
370
9
 48
1.0
  6
BYLAYER
100
AcDbLine
 10
181.8269980017325906
 20
61.5823638387675771
 30
0.0
 11
181.8269980017325906
 21
61.5845398257231267
 31
0.0
  0
LINE
  5
585
100
AcDbEntity
  8
icons
 62
256
370
9
 48
1.0
  6
BYLAYER
100
AcDbLine
 10
181.8269980017325906
 20
61.5845398257231267
 30
0.0
 11
182.1497324760659069
 21
61.5845398257231267
 31
0.0
  0
SPLINE
  5
586
100
AcDbEntity
  8
icons
 62
256
370
9
 48
1.0
  6
BYLAYER
100
AcDbSpline
 70
8
 71
3
 72
8
 73
4
 74
0
 40
0.0
 40
0.0
 40
0.0
 40
0.0
 40
1.0
 40
1.0
 40
1.0
 40
1.0
 10
182.1497324760659069
 20
61.5845398257231267
 30
0.0
 10
182.3475742637771475
 20
62.2026997705839619
 30
0.0
 10
182.7722512090324756
 20
62.6603720083405307
 30
0.0
 10
183.4915255026881482
 20
62.9836994381453508
 30
0.0
  0
LINE
  5
587
100
AcDbEntity
  8
icons
 62
256
370
9
 48
1.0
  6
BYLAYER
100
AcDbLine
 10
183.4915255026881482
 20
62.9836994381453508
 30
0.0
 11
184.3228112699103747
 21
62.9836994381453508
 31
0.0
  0
SPLINE
  5
588
100
AcDbEntity
  8
icons
 62
256
370
9
 48
1.0
  6
BYLAYER
100
AcDbSpline
 70
8
 71
3
 72
8
 73
4
 74
0
 40
0.0
 40
0.0
 40
0.0
 40
0.0
 40
1.0
 40
1.0
 40
1.0
 40
1.0
 10
184.3228112699103747
 20
62.9836994381453508
 30
0.0
 10
184.5279855848784507
 20
62.9836994381453508
 30
0.0
 10
184.4969298439562806
 20
63.4101928814342415
 30
0.0
 10
184.3228112699103747
 20
63.4101928814342415
 30
0.0
  0
LINE
  5
589
100
AcDbEntity
  8
icons
 62
256
370
9
 48
1.0
  6
BYLAYER
100
AcDbLine
 10
184.3228112699103747
 20
63.4101928814342415
 30
0.0
 11
179.3077131354214941
 21
63.4101928814342415
 31
0.0
  0
LINE
  5
58A
100
AcDbEntity
  8
icons
 62
256
370
9
 48
1.0
  6
BYLAYER
100
AcDbLine
 10
181.0387434977548082
 20
62.9836994381453508
 30
0.0
 11
182.6074286396659261
 21
62.9836994381453508
 31
0.0
  0
SPLINE
  5
58B
100
AcDbEntity
  8
icons
 62
256
370
9
 48
1.0
  6
BYLAYER
100
AcDbSpline
 70
8
 71
3
 72
8
 73
4
 74
0
 40
0.0
 40
0.0
 40
0.0
 40
0.0
 40
1.0
 40
1.0
 40
1.0
 40
1.0
 10
182.6074286396659261
 20
62.9836994381453508
 30
0.0
 10
182.269244220577292
 20
62.6668439854148147
 30
0.0
 10
181.9032800697566188
 20
62.3445842862972341
 30
0.0
 10
181.9032806956659272
 20
61.8500102343009104
 30
0.0
  0
LINE
  5
58C
100
AcDbEntity
  8
icons
 62
256
370
9
 48
1.0
  6
BYLAYER
100
AcDbLine
 10
181.9032806956659272
 20
61.8500102343009104
 30
0.0
 11
181.8269980017325906
 21
61.8500102343009104
 31
0.0
  0
LINE
  5
58D
100
AcDbEntity
  8
icons
 62
256
370
9
 48
1.0
  6
BYLAYER
100
AcDbLine
 10
181.8269980017325906
 20
61.8500102343009104
 30
0.0
 11
181.7468033747770448
 21
61.8500102343009104
 31
0.0
  0
SPLINE
  5
58E
100
AcDbEntity
  8
icons
 62
256
370
9
 48
1.0
  6
BYLAYER
100
AcDbSpline
 70
8
 71
3
 72
8
 73
4
 74
0
 40
0.0
 40
0.0
 40
0.0
 40
0.0
 40
1.0
 40
1.0
 40
1.0
 40
1.0
 10
181.7468033747770448
 20
61.8500102343009104
 30
0.0
 10
181.7468014970491765
 20
62.346133171220103
 30
0.0
 10
181.377809197114658
 20
62.6658765938380498
 30
0.0
 10
181.0387434977548082
 20
62.9836994381453508
 30
0.0
  0
LINE
  5
58F
100
AcDbEntity
  8
icons
 62
256
370
9
 48
1.0
  6
BYLAYER
100
AcDbLine
 10
177.8403520660601771
 20
58.0412469215113731
 30
0.0
 11
184.4179494810108224
 21
58.0412469215113731
 31
0.0
  0
SPLINE
  5
590
100
AcDbEntity
  8
icons
 62
256
370
9
 48
1.0
  6
BYLAYER
100
AcDbSpline
 70
8
 71
3
 72
8
 73
4
 74
0
 40
0.0
 40
0.0
 40
0.0
 40
0.0
 40
1.0
 40
1.0
 40
1.0
 40
1.0
 10
184.4179494810108224
 20
58.0412469215113731
 30
0.0
 10
184.5776740192627869
 20
58.0412469215113731
 30
0.0
 10
184.6372242803188328
 20
58.4084079896015709
 30
0.0
 10
184.5616544970594646
 20
58.6378886184081978
 30
0.0
  0
SPLINE
  5
591
100
AcDbEntity
  8
icons
 62
256
370
9
 48
1.0
  6
BYLAYER
100
AcDbSpline
 70
8
 71
3
 72
8
 73
4
 74
0
 40
0.0
 40
0.0
 40
0.0
 40
0.0
 40
1.0
 40
1.0
 40
1.0
 40
1.0
 10
184.5616544970594646
 20
58.6378886184081978
 30
0.0
 10
184.3241920257898983
 20
59.3440396963303414
 30
0.0
 10
184.0344379634256882
 20
60.7243265038738542
 30
0.0
 10
183.7053761721448666
 20
60.7243265038738542
 30
0.0
  0
LINE
  5
592
100
AcDbEntity
  8
icons
 62
256
370
9
 48
1.0
  6
BYLAYER
100
AcDbLine
 10
183.7053761721448666
 20
60.7243265038738542
 30
0.0
 11
178.6488484762681423
 21
60.7243265038738542
 31
0.0
  0
SPLINE
  5
593
100
AcDbEntity
  8
icons
 62
256
370
9
 48
1.0
  6
BYLAYER
100
AcDbSpline
 70
8
 71
3
 72
8
 73
4
 74
0
 40
0.0
 40
0.0
 40
0.0
 40
0.0
 40
1.0
 40
1.0
 40
1.0
 40
1.0
 10
178.6488484762681423
 20
60.7243265038738542
 30
0.0
 10
178.3748429173874683
 20
60.7243265038738542
 30
0.0
 10
178.009359464896562
 20
59.3218076550133162
 30
0.0
 10
177.6896149592107861
 20
58.6205482653988668
 30
0.0
  0
SPLINE
  5
594
100
AcDbEntity
  8
icons
 62
256
370
9
 48
1.0
  6
BYLAYER
100
AcDbSpline
 70
8
 71
3
 72
8
 73
4
 74
0
 40
0.0
 40
0.0
 40
0.0
 40
0.0
 40
1.0
 40
1.0
 40
1.0
 40
1.0
 10
177.6896149592107861
 20
58.6205482653988668
 30
0.0
 10
177.6261001887527016
 20
58.3418262703407038
 30
0.0
 10
177.6890147122078645
 20
58.0412469215113731
 30
0.0
 10
177.8403520660601771
 20
58.0412469215113731
 30
0.0
  0
ELLIPSE
  5
595
100
AcDbEntity
  8
icons
 62
256
370
9
 48
1.0
  6
BYLAYER
100
AcDbEllipse
 10
178.4351311661767738
 20
54.5468856866386744
 30
0.0
 11
0.0
 21
-0.6683400388439099
 31
0.0
 40
0.8988870572579953
 41
0.0000001405772735
 42
1.570796186952619
  0
ELLIPSE
  5
596
100
AcDbEntity
  8
icons
 62
256
370
9
 48
1.0
  6
BYLAYER
100
AcDbEllipse
 10
178.4351308428172445
 20
54.5468858352244297
 30
0.0
 11
0.0
 21
-0.6683401874298013
 31
0.0
 40
0.8988870572580032
 41
4.7123893435203588
 42
0.0000006791072407
  0
ELLIPSE
  5
597
100
AcDbEntity
  8
icons
 62
256
370
9
 48
1.0
  6
BYLAYER
100
AcDbEllipse
 10
178.4351308428172445
 20
54.5468853500561011
 30
0.0
 11
0.0
 21
0.6683401874298269
 31
0.0
 40
0.8988870572579987
 41
6.2831846280723456
 42
1.5707959639063429
  0
ELLIPSE
  5
598
100
AcDbEntity
  8
icons
 62
256
370
9
 48
1.0
  6
BYLAYER
100
AcDbEllipse
 10
178.4351311661767738
 20
54.5468854986418563
 30
0.0
 11
0.0
 21
-0.6683400388438856
 31
0.0
 40
0.8988870572579976
 41
1.5707964666371743
 42
3.1415925122249657
  0
ELLIPSE
  5
599
100
AcDbEntity
  8
icons
 62
256
370
9
 48
1.0
  6
BYLAYER
100
AcDbEllipse
 10
183.3962657806927723
 20
54.546885338480763
 30
0.0
 11
0.0
 21
-0.6683400388439099
 31
0.0
 40
0.8988870572579953
 41
0.0000001413648275
 42
1.570796186952619
  0
ELLIPSE
  5
59A
100
AcDbEntity
  8
icons
 62
256
370
9
 48
1.0
  6
BYLAYER
100
AcDbEllipse
 10
183.3962654573332713
 20
54.5468854870665183
 30
0.0
 11
0.0
 21
-0.6683401874298013
 31
0.0
 40
0.8988870572580032
 41
4.7123893435203579
 42
0.0000006791072407
  0
ELLIPSE
  5
59B
100
AcDbEntity
  8
icons
 62
256
370
9
 48
1.0
  6
BYLAYER
100
AcDbEllipse
 10
183.3962654573332713
 20
54.5468850018981897
 30
0.0
 11
0.0
 21
0.6683401874298269
 31
0.0
 40
0.8988870572579987
 41
6.2831846280723456
 42
1.5707959639063434
  0
ELLIPSE
  5
59C
100
AcDbEntity
  8
icons
 62
256
370
9
 48
1.0
  6
BYLAYER
100
AcDbEllipse
 10
183.3962657806927439
 20
54.5468851504839449
 30
0.0
 11
0.0
 21
-0.6683400388438856
 31
0.0
 40
0.8988870572579976
 41
1.5707964666371743
 42
3.1415925138045107
  0
LINE
  5
59D
100
AcDbEntity
  8
icons
 62
256
370
9
 48
1.0
  6
BYLAYER
100
AcDbLine
 10
186.802328363981502
 20
56.4939022492579141
 30
0.0
 11
186.802328363981502
 21
54.0623611187994868
 31
0.0
  0
LINE
  5
59E
100
AcDbEntity
  8
icons
 62
256
370
9
 48
1.0
  6
BYLAYER
100
AcDbLine
 10
186.802328363981502
 20
54.0623611187994868
 30
0.0
 11
185.8019857510894894
 21
54.5730607312155058
 31
0.0
  0
ELLIPSE
  5
59F
100
AcDbEntity
  8
icons
 62
256
370
9
 48
1.0
  6
BYLAYER
100
AcDbEllipse
 10
214.8075098108584768
 20
57.3965538847794363
 30
0.0
 11
0.0
 21
-32.3915562609463237
 31
0.0
 40
0.8988870572579923
 41
4.7033104649915911
 42
4.7996673125011666
  0
SPLINE
  5
5A0
100
AcDbEntity
  8
icons
 62
256
370
9
 48
1.0
  6
BYLAYER
100
AcDbSpline
 70
8
 71
3
 72
8
 73
4
 74
0
 40
0.0
 40
0.0
 40
0.0
 40
0.0
 40
1.0
 40
1.0
 40
1.0
 40
1.0
 10
185.6923589918932862
 20
57.6906170874409838
 30
0.0
 10
186.0623170698523268
 20
57.2916176745329295
 30
0.0
 10
186.4593131770423895
 20
56.7441595496740945
 30
0.0
 10
186.802328363981502
 20
56.4939022492579141
 30
0.0
  0
LINE
  5
5A1
100
AcDbEntity
  8
icons
 62
256
370
9
 48
1.0
  6
BYLAYER
100
AcDbLine
 10
188.3165462541283262
 20
55.1676072137925502
 30
0.0
 11
188.3311399549836835
 21
53.2961874078005451
 31
0.0
  0
LINE
  5
5A2
100
AcDbEntity
  8
icons
 62
256
370
9
 48
1.0
  6
BYLAYER
100
AcDbLine
 10
188.3311399549836835
 20
53.2961874078005451
 30
0.0
 11
187.3745790705671084
 21
53.7419458210412273
 31
0.0
  0
LINE
  5
5A3
100
AcDbEntity
  8
icons
 62
256
370
9
 48
1.0
  6
BYLAYER
100
AcDbLine
 10
187.3745790705671084
 20
53.7419458210412273
 30
0.0
 11
187.3744056936955644
 21
55.9259661722787911
 31
0.0
  0
SPLINE
  5
5A4
100
AcDbEntity
  8
icons
 62
256
370
9
 48
1.0
  6
BYLAYER
100
AcDbSpline
 70
8
 71
3
 72
8
 73
4
 74
0
 40
0.0
 40
0.0
 40
0.0
 40
0.0
 40
1.0
 40
1.0
 40
1.0
 40
1.0
 10
187.3744056936955644
 20
55.9259661722787911
 30
0.0
 10
187.788144874220734
 20
55.5350844092676397
 30
0.0
 10
187.9589373663338279
 20
55.458452763693316
 30
0.0
 10
188.3165462541283262
 20
55.1676072137925502
 30
0.0
  0
LINE
  5
5A5
100
AcDbEntity
  8
icons
 62
256
370
9
 48
1.0
  6
BYLAYER
100
AcDbLine
 10
188.8102634969969245
 20
54.8353294796263526
 30
0.0
 11
188.8102634969969245
 21
53.1649652978010749
 31
0.0
  0
ELLIPSE
  5
5A6
100
AcDbEntity
  8
icons
 62
256
370
9
 48
1.0
  6
BYLAYER
100
AcDbEllipse
 10
189.9543902628255125
 20
55.6922396686741479
 30
0.0
 11
0.0
 21
-2.8296999179235502
 31
0.0
 40
0.8988870572579936
 41
5.8166332609819635
 42
6.2004421588281513
  0
LINE
  5
5A7
100
AcDbEntity
  8
icons
 62
256
370
9
 48
1.0
  6
BYLAYER
100
AcDbLine
 10
189.7441664653487976
 20
52.8722208946434051
 30
0.0
 11
189.7441664653487976
 21
54.4105628995854005
 31
0.0
  0
LINE
  5
5A8
100
AcDbEntity
  8
icons
 62
256
370
9
 48
1.0
  6
BYLAYER
100
AcDbLine
 10
189.7441664653487976
 20
54.4105628995854005
 30
0.0
 11
188.8102634969969245
 21
54.8353294796263526
 31
0.0
  0
LINE
  5
5A9
100
AcDbEntity
  8
icons
 62
256
370
9
 48
1.0
  6
BYLAYER
100
AcDbLine
 10
190.1311430167277194
 20
54.2039200372326206
 30
0.0
 11
190.1311430167277194
 21
52.7459391454278261
 31
0.0
  0
ELLIPSE
  5
5AA
100
AcDbEntity
  8
icons
 62
256
370
9
 48
1.0
  6
BYLAYER
100
AcDbEllipse
 10
190.9062937809329696
 20
55.1584158330764751
 30
0.0
 11
0.0
 21
-2.5619685159482231
 31
0.0
 40
0.8988870572579925
 41
5.9398870789069775
 42
6.2692218170252101
  0
LINE
  5
5AB
100
AcDbEntity
  8
icons
 62
256
370
9
 48
1.0
  6
BYLAYER
100
AcDbLine
 10
190.8741380204116069
 20
52.5966970781730367
 30
0.0
 11
190.8741380204116069
 21
53.9915374435279602
 31
0.0
  0
LINE
  5
5AC
100
AcDbEntity
  8
icons
 62
256
370
9
 48
1.0
  6
BYLAYER
100
AcDbLine
 10
190.8741380204116069
 20
53.9915374435279602
 30
0.0
 11
190.1311430167277194
 21
54.2039200372326206
 31
0.0
  0
LINE
  5
5AD
100
AcDbEntity
  8
icons
 62
256
370
9
 48
1.0
  6
BYLAYER
100
AcDbLine
 10
191.2559545756568866
 20
53.8480351076250798
 30
0.0
 11
191.2559545756568866
 21
52.5392962830750605
 31
0.0
  0
ELLIPSE
  5
5AE
100
AcDbEntity
  8
icons
 62
256
370
9
 48
1.0
  6
BYLAYER
100
AcDbEllipse
 10
191.7703344095108093
 20
54.46782759426155
 30
0.0
 11
0.0
 21
2.011639264987402
 31
0.0
 40
0.8988870572579952
 41
2.8531444202965468
 42
3.1938570705980909
  0
LINE
  5
5AF
100
AcDbEntity
  8
icons
 62
256
370
9
 48
1.0
  6
BYLAYER
100
AcDbLine
 10
191.8647978166870018
 20
52.4589351699378597
 30
0.0
 11
191.8647978166870018
 21
53.7160129307417833
 31
0.0
  0
LINE
  5
5B0
100
AcDbEntity
  8
icons
 62
256
370
9
 48
1.0
  6
BYLAYER
100
AcDbLine
 10
191.8647978166870018
 20
53.7160129307417833
 30
0.0
 11
191.2559545756568866
 21
53.8480351076250798
 31
0.0
  0
LINE
  5
5B1
100
AcDbEntity
  8
icons
 62
256
370
9
 48
1.0
  6
BYLAYER
100
AcDbLine
 10
192.1898575440087313
 20
53.6471319766241947
 30
0.0
 11
192.1898575440087313
 21
52.407274106191764
 31
0.0
  0
LINE
  5
5B2
100
AcDbEntity
  8
icons
 62
256
370
9
 48
1.0
  6
BYLAYER
100
AcDbLine
 10
192.1898575440087313
 20
52.407274106191764
 30
0.0
 11
192.6800271330581893
 21
52.3154328340349792
 31
0.0
  0
LINE
  5
5B3
100
AcDbEntity
  8
icons
 62
256
370
9
 48
1.0
  6
BYLAYER
100
AcDbLine
 10
192.6800271330581893
 20
52.3154328340349792
 30
0.0
 11
192.6800271330581893
 21
53.5725112911547257
 31
0.0
  0
LINE
  5
5B4
100
AcDbEntity
  8
icons
 62
256
370
9
 48
1.0
  6
BYLAYER
100
AcDbLine
 10
192.6800271330581893
 20
53.5725112911547257
 30
0.0
 11
192.1898575440087313
 21
53.6471319766241947
 31
0.0
  0
LINE
  5
5B5
100
AcDbEntity
  8
icons
 62
256
370
9
 48
1.0
  6
BYLAYER
100
AcDbLine
 10
176.8529038103187077
 20
50.0282477226818401
 30
0.0
 11
178.1006164125296891
 21
50.0282477226818401
 31
0.0
  0
LINE
  5
5B6
100
AcDbEntity
  8
icons
 62
256
370
9
 48
1.0
  6
BYLAYER
100
AcDbLine
 10
178.1006164125296891
 20
50.0282477226818401
 30
0.0
 11
178.1006164125296891
 21
50.7233575294493733
 31
0.0
  0
LINE
  5
5B7
100
AcDbEntity
  8
icons
 62
256
370
9
 48
1.0
  6
BYLAYER
100
AcDbLine
 10
178.1006164125296891
 20
50.7233575294493733
 30
0.0
 11
179.9806050475285417
 21
50.7233575294493733
 31
0.0
  0
LINE
  5
5B8
100
AcDbEntity
  8
icons
 62
256
370
9
 48
1.0
  6
BYLAYER
100
AcDbLine
 10
179.9806050475285417
 20
50.7233575294493733
 30
0.0
 11
179.9806050475285417
 21
50.0366195278551658
 31
0.0
  0
LINE
  5
5B9
100
AcDbEntity
  8
icons
 62
256
370
9
 48
1.0
  6
BYLAYER
100
AcDbLine
 10
179.9806050475285417
 20
50.0366195278551658
 30
0.0
 11
182.73494638982325
 21
50.0366195278551658
 31
0.0
  0
LINE
  5
5BA
100
AcDbEntity
  8
icons
 62
256
370
9
 48
1.0
  6
BYLAYER
100
AcDbLine
 10
182.73494638982325
 20
50.0366195278551658
 30
0.0
 11
182.73494638982325
 21
50.7254297653468882
 31
0.0
  0
LINE
  5
5BB
100
AcDbEntity
  8
icons
 62
256
370
9
 48
1.0
  6
BYLAYER
100
AcDbLine
 10
182.73494638982325
 20
50.7254297653468882
 30
0.0
 11
193.0064826380822467
 21
50.7254297653468882
 31
0.0
  0
LINE
  5
5BC
100
AcDbEntity
  8
icons
 62
256
370
9
 48
1.0
  6
BYLAYER
100
AcDbLine
 10
193.0064826380822467
 20
50.7254297653468882
 30
0.0
 11
193.0064826380822467
 21
50.0261754867843251
 31
0.0
  0
SPLINE
  5
5BD
100
AcDbEntity
  8
icons
 62
256
370
9
 48
1.0
  6
BYLAYER
100
AcDbSpline
 70
8
 71
3
 72
8
 73
4
 74
0
 40
0.0
 40
0.0
 40
0.0
 40
0.0
 40
1.0
 40
1.0
 40
1.0
 40
1.0
 10
193.0064826380822467
 20
50.0261754867843251
 30
0.0
 10
190.1120490281235789
 20
49.9085482469673423
 30
0.0
 10
187.1634523583124121
 20
49.8167452721809667
 30
0.0
 10
185.6318961551018276
 20
49.049325155853893
 30
0.0
  0
LINE
  5
5BE
100
AcDbEntity
  8
icons
 62
256
370
9
 48
1.0
  6
BYLAYER
100
AcDbLine
 10
185.6318961551018276
 20
49.049325155853893
 30
0.0
 11
176.8510411042908288
 21
49.049325155853893
 31
0.0
  0
LINE
  5
5BF
100
AcDbEntity
  8
icons
 62
256
370
9
 48
1.0
  6
BYLAYER
100
AcDbLine
 10
176.8510411042908288
 20
49.049325155853893
 30
0.0
 11
176.8529038103187077
 21
50.0282477226818401
 31
0.0
  0
ARC
  5
5C0
100
AcDbEntity
  8
icons
 62
256
370
9
 48
1.0
  6
BYLAYER
100
AcDbCircle
 10
215.3211200338861318
 20
56.2415036246789484
 30
0.0
 40
0.8484274793267772
100
AcDbArc
 50
345.4237757286069268
 51
74.9722281045256835
  0
LINE
  5
5C1
100
AcDbEntity
  8
icons
 62
256
370
9
 48
1.0
  6
BYLAYER
100
AcDbLine
 10
216.1422397608551762
 20
56.0279817717948063
 30
0.0
 11
215.0415730941884931
 21
51.9385817717948157
 31
0.0
  0
ARC
  5
5C2
100
AcDbEntity
  8
icons
 62
256
370
9
 48
1.0
  6
BYLAYER
100
AcDbCircle
 10
214.2268769734122884
 20
52.1504657164150061
 30
0.0
 40
0.8417984171971586
100
AcDbArc
 50
254.9743669752874382
 51
345.4216368578449874
  0
ARC
  5
5C3
100
AcDbEntity
  8
icons
 62
256
370
9
 48
1.0
  6
BYLAYER
100
AcDbCircle
 10
214.2080725364564557
 20
52.1319131503452624
 30
0.0
 40
0.8191139178481794
100
AcDbArc
 50
163.0743813984181259
 51
255.9083422079224874
  0
LINE
  5
5C4
100
AcDbEntity
  8
icons
 62
256
370
9
 48
1.0
  6
BYLAYER
100
AcDbLine
 10
213.4244397608551651
 20
52.3703817717948255
 30
0.0
 11
214.5081730941885212
 21
56.4597817717948161
 31
0.0
  0
ARC
  5
5C5
100
AcDbEntity
  8
icons
 62
256
370
9
 48
1.0
  6
BYLAYER
100
AcDbCircle
 10
215.3228692149647259
 20
56.247897827174647
 30
0.0
 40
0.8417984171971535
100
AcDbArc
 50
74.9743669752870545
 51
165.4216368578454137
  0
ARC
  5
5C6
100
AcDbEntity
  8
icons
 62
256
370
9
 48
1.0
  6
BYLAYER
100
AcDbCircle
 10
218.7077867005528162
 20
56.2415036246789484
 30
0.0
 40
0.8484274793267756
100
AcDbArc
 50
345.4237757286069268
 51
74.972228104525783
  0
LINE
  5
5C7
100
AcDbEntity
  8
icons
 62
256
370
9
 48
1.0
  6
BYLAYER
100
AcDbLine
 10
219.5289064275218607
 20
56.0279817717948063
 30
0.0
 11
217.7763064275218312
 21
49.4832484384614801
 31
0.0
  0
ARC
  5
5C8
100
AcDbEntity
  8
icons
 62
256
370
9
 48
1.0
  6
BYLAYER
100
AcDbCircle
 10
216.9620904422408501
 20
49.6911672110844194
 30
0.0
 40
0.8403439097751133
100
AcDbArc
 50
254.3151147683591375
 51
345.6750444659203367
  0
ARC
  5
5C9
100
AcDbEntity
  8
icons
 62
256
370
9
 48
1.0
  6
BYLAYER
100
AcDbCircle
 10
216.9685007372546295
 20
49.7111519289034405
 30
0.0
 40
0.8613178023905799
100
AcDbArc
 50
165.726185699521892
 51
254.2639735347579801
  0
LINE
  5
5CA
100
AcDbEntity
  8
icons
 62
256
370
9
 48
1.0
  6
BYLAYER
100
AcDbLine
 10
216.1337730941885127
 20
49.9235151051281534
 30
0.0
 11
217.8948397608552057
 21
56.4597817717948161
 31
0.0
  0
ARC
  5
5CB
100
AcDbEntity
  8
icons
 62
256
370
9
 48
1.0
  6
BYLAYER
100
AcDbCircle
 10
218.7095358816314103
 20
56.247897827174647
 30
0.0
 40
0.8417984171971549
100
AcDbArc
 50
74.9743669752870545
 51
165.4216368578453284
  0
ARC
  5
5CC
100
AcDbEntity
  8
icons
 62
256
370
9
 48
1.0
  6
BYLAYER
100
AcDbCircle
 10
222.0944533672195007
 20
56.2415036246789484
 30
0.0
 40
0.8484274793267756
100
AcDbArc
 50
345.42377572860687
 51
74.9722281045256835
  0
LINE
  5
5CD
100
AcDbEntity
  8
icons
 62
256
370
9
 48
1.0
  6
BYLAYER
100
AcDbLine
 10
222.9155730941884599
 20
56.0279817717948063
 30
0.0
 11
221.814906427521862
 21
51.9385817717948157
 31
0.0
  0
ARC
  5
5CE
100
AcDbEntity
  8
icons
 62
256
370
9
 48
1.0
  6
BYLAYER
100
AcDbCircle
 10
221.0002103067455721
 20
52.1504657164150061
 30
0.0
 40
0.8417984171971624
100
AcDbArc
 50
254.9743669752875235
 51
345.4216368578448737
  0
ARC
  5
5CF
100
AcDbEntity
  8
icons
 62
256
370
9
 48
1.0
  6
BYLAYER
100
AcDbCircle
 10
220.9814058697897394
 20
52.1319131503452624
 30
0.0
 40
0.819113917848186
100
AcDbArc
 50
163.0743813984180974
 51
255.9083422079218906
  0
LINE
  5
5D0
100
AcDbEntity
  8
icons
 62
256
370
9
 48
1.0
  6
BYLAYER
100
AcDbLine
 10
220.1977730941885341
 20
52.3703817717948255
 30
0.0
 11
221.2815064275218049
 21
56.4597817717948161
 31
0.0
  0
ARC
  5
5D1
100
AcDbEntity
  8
icons
 62
256
370
9
 48
1.0
  6
BYLAYER
100
AcDbCircle
 10
222.0962025482980948
 20
56.247897827174647
 30
0.0
 40
0.8417984171971507
100
AcDbArc
 50
74.9743669752866708
 51
165.4216368578457548
  0
LINE
  5
5D2
100
AcDbEntity
  8
icons
 62
256
370
9
 48
1.0
  6
BYLAYER
100
AcDbLine
 10
222.3144397608551799
 20
58.7542484384614809
 30
0.0
 11
222.3144397608551799
 21
59.600915105128152
 31
0.0
  0
ARC
  5
5D3
100
AcDbEntity
  8
icons
 62
256
370
9
 48
1.0
  6
BYLAYER
100
AcDbCircle
 10
218.081106427521803
 20
59.600915105128152
 30
0.0
 40
4.2333333333333325
100
AcDbArc
 50
0.0
 51
90.0000000000000142
  0
ARC
  5
5D4
100
AcDbEntity
  8
icons
 62
256
370
9
 48
1.0
  6
BYLAYER
100
AcDbCircle
 10
218.0785504946917683
 20
59.5978968015912329
 30
0.0
 40
4.2363524079101076
100
AcDbArc
 50
89.9654315414149721
 51
170.6423308189228862
  0
ARC
  5
5D5
100
AcDbEntity
  8
icons
 62
256
370
9
 48
1.0
  6
BYLAYER
100
AcDbCircle
 10
212.9921016962327087
 20
57.8134518674096753
 30
0.0
 40
2.6341452956056979
100
AcDbArc
 50
69.871697562343698
 51
89.8041360496549714
  0
ARC
  5
5D6
100
AcDbEntity
  8
icons
 62
256
370
9
 48
1.0
  6
BYLAYER
100
AcDbCircle
 10
213.0011064275218189
 20
57.9075817717948098
 30
0.0
 40
2.54
100
AcDbArc
 50
90.0000000000000142
 51
180.0
  0
ARC
  5
5D7
100
AcDbEntity
  8
icons
 62
256
370
9
 48
1.0
  6
BYLAYER
100
AcDbCircle
 10
212.9979148004761385
 20
57.9041122433710385
 30
0.0
 40
2.5368107455462168
100
AcDbArc
 50
179.9216380654634122
 51
240.0416406722282829
  0
LINE
  5
5D8
100
AcDbEntity
  8
icons
 62
256
370
9
 48
1.0
  6
BYLAYER
100
AcDbLine
 10
211.7311064275218655
 20
55.7062484384614862
 30
0.0
 11
211.7311064275218655
 21
55.7147151051281497
 31
0.0
  0
ARC
  5
5D9
100
AcDbEntity
  8
icons
 62
256
370
9
 48
1.0
  6
BYLAYER
100
AcDbCircle
 10
211.3147307118384504
 20
54.9799941697489345
 30
0.0
 40
0.8445019772003637
100
AcDbArc
 50
329.7677265857898306
 51
60.4592195333620879
  0
ARC
  5
5DA
100
AcDbEntity
  8
icons
 62
256
370
9
 48
1.0
  6
BYLAYER
100
AcDbCircle
 10
211.3117476536897072
 20
54.9833332166559146
 30
0.0
 40
0.848761672649377
100
AcDbArc
 50
239.7715776463800523
 51
329.6743724771202437
  0
LINE
  5
5DB
100
AcDbEntity
  8
icons
 62
256
370
9
 48
1.0
  6
BYLAYER
100
AcDbLine
 10
210.8844397608551731
 20
54.2499817717948076
 30
0.0
 11
210.8844397608551731
 21
54.2415151051281441
 31
0.0
  0
ARC
  5
5DC
100
AcDbEntity
  8
icons
 62
256
370
9
 48
1.0
  6
BYLAYER
100
AcDbCircle
 10
212.9842871373726041
 20
57.8979784095069334
 30
0.0
 40
4.2165249792851496
100
AcDbArc
 50
179.8695056695669336
 51
240.1319498920888407
  0
ARC
  5
5DD
100
AcDbEntity
  8
icons
 62
256
370
9
 48
1.0
  6
BYLAYER
100
AcDbCircle
 10
213.0011064275218189
 20
57.9075817717948098
 30
0.0
 40
4.2333333333333325
100
AcDbArc
 50
90.0000000000000142
 51
180.0
  0
ARC
  5
5DE
100
AcDbEntity
  8
icons
 62
256
370
9
 48
1.0
  6
BYLAYER
100
AcDbCircle
 10
218.0942300984415851
 20
60.004562932081889
 30
0.0
 40
5.5230344317741
100
AcDbArc
 50
90.1361446632824084
 51
157.2439903886773038
  0
ARC
  5
5DF
100
AcDbEntity
  8
icons
 62
256
370
9
 48
1.0
  6
BYLAYER
100
AcDbCircle
 10
218.0709792419673079
 20
59.997823722136765
 30
0.0
 40
5.5297673231018667
100
AcDbArc
 50
4.4012436579112002
 51
89.8950687649087001
  0
LINE
  5
5E0
100
AcDbEntity
  8
icons
 62
256
370
9
 48
1.0
  6
BYLAYER
100
AcDbLine
 10
223.5844397608551333
 20
60.4221817717948113
 30
0.0
 11
224.0077730941884795
 21
60.4475817717948232
 31
0.0
  0
ARC
  5
5E1
100
AcDbEntity
  8
icons
 62
256
370
9
 48
1.0
  6
BYLAYER
100
AcDbCircle
 10
224.0077730941884795
 20
57.06091510512816
 30
0.0
 40
3.3866666666666667
100
AcDbArc
 50
0.0
 51
90.0000000000000142
  0
ARC
  5
5E2
100
AcDbEntity
  8
icons
 62
256
370
9
 48
1.0
  6
BYLAYER
100
AcDbCircle
 10
224.0452168554016339
 20
57.0427460716716155
 30
0.0
 40
3.3492721872357967
100
AcDbArc
 50
299.6303784894830642
 51
0.310817987487996
  0
LINE
  5
5E3
100
AcDbEntity
  8
icons
 62
256
370
9
 48
1.0
  6
BYLAYER
100
AcDbLine
 10
225.7011064275218644
 20
54.1314484384614758
 30
0.0
 11
225.7011064275218644
 21
54.1314484384614758
 31
0.0
  0
ARC
  5
5E4
100
AcDbEntity
  8
icons
 62
256
370
9
 48
1.0
  6
BYLAYER
100
AcDbCircle
 10
225.2784151981002765
 20
54.8704259583510705
 30
0.0
 40
0.8513258191386316
100
AcDbArc
 50
210.003725936729353
 51
299.7693279441185155
  0
ARC
  5
5E5
100
AcDbEntity
  8
icons
 62
256
370
9
 48
1.0
  6
BYLAYER
100
AcDbCircle
 10
225.2655951984246769
 20
54.8713373592152251
 30
0.0
 40
0.8407103739031052
100
AcDbArc
 50
119.2786310189176788
 51
210.494422861930218
  0
LINE
  5
5E6
100
AcDbEntity
  8
icons
 62
256
370
9
 48
1.0
  6
BYLAYER
100
AcDbLine
 10
224.8544397608551719
 20
55.6046484384614814
 30
0.0
 11
224.8544397608551719
 21
55.5961817717948179
 31
0.0
  0
ARC
  5
5E7
100
AcDbEntity
  8
icons
 62
256
370
9
 48
1.0
  6
BYLAYER
100
AcDbCircle
 10
224.021375498762751
 20
57.0547898231006485
 30
0.0
 40
1.6797420969034926
100
AcDbArc
 50
299.7322634586525965
 51
0.208933018317057
  0
ARC
  5
5E8
100
AcDbEntity
  8
icons
 62
256
370
9
 48
1.0
  6
BYLAYER
100
AcDbCircle
 10
224.0077730941884795
 20
57.06091510512816
 30
0.0
 40
1.6933333333333334
100
AcDbArc
 50
0.0
 51
90.0000000000000142
  0
LINE
  5
5E9
100
AcDbEntity
  8
icons
 62
256
370
9
 48
1.0
  6
BYLAYER
100
AcDbLine
 10
224.0077730941884795
 20
58.7542484384614809
 30
0.0
 11
222.3144397608551799
 21
58.7542484384614809
 31
0.0
  0
LINE
  5
5EA
100
AcDbEntity
  8
icons
 62
256
370
9
 48
1.0
  6
BYLAYER
100
AcDbLine
 10
62.307668703697864
 20
93.7793215004524114
 30
0.0
 11
62.307668703697864
 21
89.5459881671190772
 31
0.0
  0
LINE
  5
5EB
100
AcDbEntity
  8
icons
 62
256
370
9
 48
1.0
  6
BYLAYER
100
AcDbLine
 10
241.533333333333303
 20
64.5033333333333303
 30
0.0
 11
248.306666666666672
 21
64.5033333333333303
 31
0.0
  0
ARC
  5
5EC
100
AcDbEntity
  8
icons
 62
256
370
9
 48
1.0
  6
BYLAYER
100
AcDbCircle
 10
249.9999999999999716
 20
64.5033333333333303
 30
0.0
 40
1.6933333333333334
100
AcDbArc
 50
90.0000000000000142
 51
180.0
  0
ARC
  5
5ED
100
AcDbEntity
  8
icons
 62
256
370
9
 48
1.0
  6
BYLAYER
100
AcDbCircle
 10
249.9999999999999716
 20
64.5033333333333303
 30
0.0
 40
1.6933333333333334
100
AcDbArc
 50
0.0
 51
90.0000000000000142
  0
LINE
  5
5EE
100
AcDbEntity
  8
icons
 62
256
370
9
 48
1.0
  6
BYLAYER
100
AcDbLine
 10
251.6933333333333564
 20
64.5033333333333303
 30
0.0
 11
258.4666666666666401
 21
64.5033333333333303
 31
0.0
  0
LINE
  5
5EF
100
AcDbEntity
  8
icons
 62
256
370
9
 48
1.0
  6
BYLAYER
100
AcDbLine
 10
258.4666666666666401
 20
64.5033333333333303
 30
0.0
 11
258.4666666666666401
 21
62.8099999999999952
 31
0.0
  0
LINE
  5
5F0
100
AcDbEntity
  8
icons
 62
256
370
9
 48
1.0
  6
BYLAYER
100
AcDbLine
 10
258.4666666666666401
 20
62.8099999999999952
 30
0.0
 11
257.6200000000000045
 21
62.8099999999999952
 31
0.0
  0
LINE
  5
5F1
100
AcDbEntity
  8
icons
 62
256
370
9
 48
1.0
  6
BYLAYER
100
AcDbLine
 10
257.6200000000000045
 20
62.8099999999999952
 30
0.0
 11
257.6200000000000045
 21
53.4966666666666555
 31
0.0
  0
LINE
  5
5F2
100
AcDbEntity
  8
icons
 62
256
370
9
 48
1.0
  6
BYLAYER
100
AcDbLine
 10
257.6200000000000045
 20
53.4966666666666555
 30
0.0
 11
252.7516666666666367
 21
53.4966666666666555
 31
0.0
  0
LINE
  5
5F3
100
AcDbEntity
  8
icons
 62
256
370
9
 48
1.0
  6
BYLAYER
100
AcDbLine
 10
252.7516666666666367
 20
53.4966666666666555
 30
0.0
 11
254.2333333333333485
 21
48.4166666666666714
 31
0.0
  0
LINE
  5
5F4
100
AcDbEntity
  8
icons
 62
256
370
9
 48
1.0
  6
BYLAYER
100
AcDbLine
 10
254.2333333333333485
 20
48.4166666666666714
 30
0.0
 11
252.5399999999999636
 21
48.4166666666666714
 31
0.0
  0
LINE
  5
5F5
100
AcDbEntity
  8
icons
 62
256
370
9
 48
1.0
  6
BYLAYER
100
AcDbLine
 10
252.5399999999999636
 20
48.4166666666666714
 30
0.0
 11
251.0583333333333371
 21
53.4966666666666555
 31
0.0
  0
LINE
  5
5F6
100
AcDbEntity
  8
icons
 62
256
370
9
 48
1.0
  6
BYLAYER
100
AcDbLine
 10
251.0583333333333371
 20
53.4966666666666555
 30
0.0
 11
248.9416666666666913
 21
53.4966666666666555
 31
0.0
  0
LINE
  5
5F7
100
AcDbEntity
  8
icons
 62
256
370
9
 48
1.0
  6
BYLAYER
100
AcDbLine
 10
248.9416666666666913
 20
53.4966666666666555
 30
0.0
 11
247.4599999999999795
 21
48.4166666666666714
 31
0.0
  0
LINE
  5
5F8
100
AcDbEntity
  8
icons
 62
256
370
9
 48
1.0
  6
BYLAYER
100
AcDbLine
 10
247.4599999999999795
 20
48.4166666666666714
 30
0.0
 11
245.7666666666666799
 21
48.4166666666666714
 31
0.0
  0
LINE
  5
5F9
100
AcDbEntity
  8
icons
 62
256
370
9
 48
1.0
  6
BYLAYER
100
AcDbLine
 10
245.7666666666666799
 20
48.4166666666666714
 30
0.0
 11
247.2483333333333064
 21
53.4966666666666555
 31
0.0
  0
LINE
  5
5FA
100
AcDbEntity
  8
icons
 62
256
370
9
 48
1.0
  6
BYLAYER
100
AcDbLine
 10
247.2483333333333064
 20
53.4966666666666555
 30
0.0
 11
242.3799999999999955
 21
53.4966666666666555
 31
0.0
  0
LINE
  5
5FB
100
AcDbEntity
  8
icons
 62
256
370
9
 48
1.0
  6
BYLAYER
100
AcDbLine
 10
242.3799999999999955
 20
53.4966666666666555
 30
0.0
 11
242.3799999999999955
 21
62.8099999999999952
 31
0.0
  0
LINE
  5
5FC
100
AcDbEntity
  8
icons
 62
256
370
9
 48
1.0
  6
BYLAYER
100
AcDbLine
 10
242.3799999999999955
 20
62.8099999999999952
 30
0.0
 11
241.533333333333303
 21
62.8099999999999952
 31
0.0
  0
LINE
  5
5FD
100
AcDbEntity
  8
icons
 62
256
370
9
 48
1.0
  6
BYLAYER
100
AcDbLine
 10
241.533333333333303
 20
62.8099999999999952
 30
0.0
 11
241.533333333333303
 21
64.5033333333333303
 31
0.0
  0
LINE
  5
5FE
100
AcDbEntity
  8
icons
 62
256
370
9
 48
1.0
  6
BYLAYER
100
AcDbLine
 10
244.0733333333332951
 20
62.8099999999999952
 30
0.0
 11
244.0733333333332951
 21
55.1899999999999977
 31
0.0
  0
LINE
  5
5FF
100
AcDbEntity
  8
icons
 62
256
370
9
 48
1.0
  6
BYLAYER
100
AcDbLine
 10
244.0733333333332951
 20
55.1899999999999977
 30
0.0
 11
255.9266666666666481
 21
55.1899999999999977
 31
0.0
  0
LINE
  5
600
100
AcDbEntity
  8
icons
 62
256
370
9
 48
1.0
  6
BYLAYER
100
AcDbLine
 10
255.9266666666666481
 20
55.1899999999999977
 30
0.0
 11
255.9266666666666481
 21
62.8099999999999952
 31
0.0
  0
LINE
  5
601
100
AcDbEntity
  8
icons
 62
256
370
9
 48
1.0
  6
BYLAYER
100
AcDbLine
 10
255.9266666666666481
 20
62.8099999999999952
 30
0.0
 11
244.0733333333332951
 21
62.8099999999999952
 31
0.0
  0
ENDSEC
  0
SECTION
  2
OBJECTS
  0
DICTIONARY
  5
C
100
AcDbDictionary
280
0
281
1
  3
ACAD_GROUP
350
D
  3
ACAD_LAYOUT
350
1A
  3
ACAD_MLINESTYLE
350
17
  3
ACAD_PLOTSETTINGS
350
19
  3
ACAD_PLOTSTYLENAME
350
E
  3
AcDbVariableDictionary
350
602
  3
QCAD_OBJECTS
350
603
  0
DICTIONARY
  5
D
100
AcDbDictionary
280
0
281
1
  0
ACDBDICTIONARYWDFLT
  5
E
100
AcDbDictionary
281
1
  3
Normal
350
F
100
AcDbDictionaryWithDefault
340
F
  0
ACDBPLACEHOLDER
  5
F
  0
DICTIONARY
  5
17
100
AcDbDictionary
280
0
281
1
  3
Standard
350
18
  0
MLINESTYLE
  5
18
100
AcDbMlineStyle
  2
STANDARD
 70
0
  3

 62
256
 51
90.0
 52
90.0
 71
2
 49
0.5
 62
256
  6
BYLAYER
 49
-0.5
 62
256
  6
BYLAYER
  0
DICTIONARY
  5
19
100
AcDbDictionary
280
0
281
1
  0
DICTIONARY
  5
1A
100
AcDbDictionary
281
1
  3
Layout1
350
1E
  3
Layout2
350
26
  3
Model
350
22
  0
LAYOUT
  5
1E
100
AcDbPlotSettings
  1

  2
none_device
  4

  6

 40
0.0
 41
0.0
 42
0.0
 43
0.0
 44
0.0
 45
0.0
 46
0.0
 47
0.0
 48
0.0
 49
0.0
140
0.0
141
0.0
142
1.0
143
1.0
 70
688
 72
0
 73
0
 74
5
  7

 75
16
147
1.0
148
0.0
149
0.0
100
AcDbLayout
  1
Layout1
 70
1
 71
1
 10
0.0
 20
0.0
 11
420.0
 21
297.0
 12
0.0
 22
0.0
 32
0.0
 14
100000000000000000000.0
 24
100000000000000000000.0
 34
100000000000000000000.0
 15
-100000000000000000000.0
 25
-100000000000000000000.0
 35
-100000000000000000000.0
146
0.0
 13
0.0
 23
0.0
 33
0.0
 16
1.0
 26
0.0
 36
0.0
 17
0.0
 27
1.0
 37
0.0
 76
0
330
1B
  0
LAYOUT
  5
22
100
AcDbPlotSettings
  1

  2
none_device
  4

  6

 40
0.0
 41
0.0
 42
0.0
 43
0.0
 44
0.0
 45
0.0
 46
0.0
 47
0.0
 48
0.0
 49
0.0
140
0.0
141
0.0
142
1.0
143
1.0
 70
1712
 72
0
 73
0
 74
0
  7

 75
0
147
1.0
148
0.0
149
0.0
100
AcDbLayout
  1
Model
 70
1
 71
0
 10
0.0
 20
0.0
 11
12.0
 21
9.0
 12
0.0
 22
0.0
 32
0.0
 14
0.0
 24
0.0
 34
0.0
 15
0.0
 25
0.0
 35
0.0
146
0.0
 13
0.0
 23
0.0
 33
0.0
 16
1.0
 26
0.0
 36
0.0
 17
0.0
 27
1.0
 37
0.0
 76
0
330
1F
  0
LAYOUT
  5
26
100
AcDbPlotSettings
  1

  2
none_device
  4

  6

 40
0.0
 41
0.0
 42
0.0
 43
0.0
 44
0.0
 45
0.0
 46
0.0
 47
0.0
 48
0.0
 49
0.0
140
0.0
141
0.0
142
1.0
143
1.0
 70
688
 72
0
 73
0
 74
5
  7

 75
16
147
1.0
148
0.0
149
0.0
100
AcDbLayout
  1
Layout2
 70
1
 71
2
 10
0.0
 20
0.0
 11
12.0
 21
9.0
 12
0.0
 22
0.0
 32
0.0
 14
0.0
 24
0.0
 34
0.0
 15
0.0
 25
0.0
 35
0.0
146
0.0
 13
0.0
 23
0.0
 33
0.0
 16
1.0
 26
0.0
 36
0.0
 17
0.0
 27
1.0
 37
0.0
 76
0
330
23
  0
DICTIONARY
  5
602
100
AcDbDictionary
281
1
  3
DIMASSOC
350
605
  3
HIDETEXT
350
604
  0
DICTIONARYVAR
  5
604
100
DictionaryVariables
280
0
  1
2
  0
DICTIONARYVAR
  5
605
100
DictionaryVariables
280
0
  1
1
  0
DICTIONARY
  5
603
100
AcDbDictionary
281
1
  3
ColorSettings/BackgroundColor
350
606
  3
ColorSettings/ColorMode
350
607
  3
Grid/DisplayGrid00
350
608
  3
Grid/DisplayGrid01
350
609
  3
Grid/DisplayGrid02
350
60A
  3
Grid/DisplayGrid03
350
60B
  3
Grid/GridSpacingX00
350
60C
  3
Grid/GridSpacingX01
350
60D
  3
Grid/GridSpacingX02
350
60E
  3
Grid/GridSpacingX03
350
60F
  3
Grid/GridSpacingY00
350
610
  3
Grid/GridSpacingY01
350
611
  3
Grid/GridSpacingY02
350
612
  3
Grid/GridSpacingY03
350
613
  3
Grid/IsometricGrid00
350
614
  3
Grid/IsometricGrid01
350
615
  3
Grid/IsometricGrid02
350
616
  3
Grid/IsometricGrid03
350
617
  3
Grid/IsometricProjection00
350
618
  3
Grid/IsometricProjection01
350
619
  3
Grid/IsometricProjection02
350
61A
  3
Grid/IsometricProjection03
350
61B
  3
Grid/MetaGridSpacingX00
350
61C
  3
Grid/MetaGridSpacingX01
350
61D
  3
Grid/MetaGridSpacingX02
350
61E
  3
Grid/MetaGridSpacingX03
350
61F
  3
Grid/MetaGridSpacingY00
350
620
  3
Grid/MetaGridSpacingY01
350
621
  3
Grid/MetaGridSpacingY02
350
622
  3
Grid/MetaGridSpacingY03
350
623
  3
MultiPageSettings/Columns
350
624
  3
MultiPageSettings/GlueMarginsBottom
350
625
  3
MultiPageSettings/GlueMarginsLeft
350
626
  3
MultiPageSettings/GlueMarginsRight
350
627
  3
MultiPageSettings/GlueMarginsTop
350
628
  3
MultiPageSettings/PrintCropMarks
350
629
  3
MultiPageSettings/Rows
350
62A
  3
PageSettings/OffsetX
350
62B
  3
PageSettings/OffsetY
350
62C
  3
PageSettings/PageOrientation
350
62D
  3
PageSettings/PaperHeight
350
62E
  3
PageSettings/PaperWidth
350
62F
  3
PageSettings/Scale
350
630
  3
PageSettings/ShowPaperBorders
350
631
  3
QCADVersion
350
632
  3
UnitSettings/PaperUnit
350
633
  3
ViewportCenter
350
634
  3
ViewportHeight
350
635
  3
ViewportWidth
350
636
  0
XRECORD
  5
606
330
603
100
AcDbXrecord
280
1
1000
Blanc
  0
XRECORD
  5
607
330
603
100
AcDbXrecord
280
1
1000
FullColor
  0
XRECORD
  5
608
330
603
100
AcDbXrecord
280
1
290
1
  0
XRECORD
  5
609
330
603
100
AcDbXrecord
280
1
290
1
  0
XRECORD
  5
60A
330
603
100
AcDbXrecord
280
1
290
1
  0
XRECORD
  5
60B
330
603
100
AcDbXrecord
280
1
290
1
  0
XRECORD
  5
60C
330
603
100
AcDbXrecord
280
1
1000
auto
  0
XRECORD
  5
60D
330
603
100
AcDbXrecord
280
1
1000
auto
  0
XRECORD
  5
60E
330
603
100
AcDbXrecord
280
1
1000
auto
  0
XRECORD
  5
60F
330
603
100
AcDbXrecord
280
1
1000
auto
  0
XRECORD
  5
610
330
603
100
AcDbXrecord
280
1
1000
auto
  0
XRECORD
  5
611
330
603
100
AcDbXrecord
280
1
1000
auto
  0
XRECORD
  5
612
330
603
100
AcDbXrecord
280
1
1000
auto
  0
XRECORD
  5
613
330
603
100
AcDbXrecord
280
1
1000
auto
  0
XRECORD
  5
614
330
603
100
AcDbXrecord
280
1
290
0
  0
XRECORD
  5
615
330
603
100
AcDbXrecord
280
1
290
0
  0
XRECORD
  5
616
330
603
100
AcDbXrecord
280
1
290
0
  0
XRECORD
  5
617
330
603
100
AcDbXrecord
280
1
290
0
  0
XRECORD
  5
618
330
603
100
AcDbXrecord
280
1
 90
65537
  0
XRECORD
  5
619
330
603
100
AcDbXrecord
280
1
 90
65537
  0
XRECORD
  5
61A
330
603
100
AcDbXrecord
280
1
 90
65537
  0
XRECORD
  5
61B
330
603
100
AcDbXrecord
280
1
 90
65537
  0
XRECORD
  5
61C
330
603
100
AcDbXrecord
280
1
1000
auto
  0
XRECORD
  5
61D
330
603
100
AcDbXrecord
280
1
1000
auto
  0
XRECORD
  5
61E
330
603
100
AcDbXrecord
280
1
1000
auto
  0
XRECORD
  5
61F
330
603
100
AcDbXrecord
280
1
1000
auto
  0
XRECORD
  5
620
330
603
100
AcDbXrecord
280
1
1000
auto
  0
XRECORD
  5
621
330
603
100
AcDbXrecord
280
1
1000
auto
  0
XRECORD
  5
622
330
603
100
AcDbXrecord
280
1
1000
auto
  0
XRECORD
  5
623
330
603
100
AcDbXrecord
280
1
1000
auto
  0
XRECORD
  5
624
330
603
100
AcDbXrecord
280
1
 90
1
  0
XRECORD
  5
625
330
603
100
AcDbXrecord
280
1
 40
10.0
  0
XRECORD
  5
626
330
603
100
AcDbXrecord
280
1
 40
10.0
  0
XRECORD
  5
627
330
603
100
AcDbXrecord
280
1
 40
10.0
  0
XRECORD
  5
628
330
603
100
AcDbXrecord
280
1
 40
10.0
  0
XRECORD
  5
629
330
603
100
AcDbXrecord
280
1
290
0
  0
XRECORD
  5
62A
330
603
100
AcDbXrecord
280
1
 90
1
  0
XRECORD
  5
62B
330
603
100
AcDbXrecord
280
1
 40
0.0
  0
XRECORD
  5
62C
330
603
100
AcDbXrecord
280
1
 40
0.0
  0
XRECORD
  5
62D
330
603
100
AcDbXrecord
280
1
1000
Landscape
  0
XRECORD
  5
62E
330
603
100
AcDbXrecord
280
1
 40
297.0
  0
XRECORD
  5
62F
330
603
100
AcDbXrecord
280
1
 40
210.0
  0
XRECORD
  5
630
330
603
100
AcDbXrecord
280
1
1000
1:1
  0
XRECORD
  5
631
330
603
100
AcDbXrecord
280
1
290
1
  0
XRECORD
  5
632
330
603
100
AcDbXrecord
280
1
1000
3.19.2.2
  0
XRECORD
  5
633
330
603
100
AcDbXrecord
280
1
 90
4
  0
XRECORD
  5
635
330
603
100
AcDbXrecord
280
1
 40
227.2591383812010406
  0
XRECORD
  5
636
330
603
100
AcDbXrecord
280
1
 40
271.911227154047026
  0
ENDSEC
  0
EOF
