999
dxflib 3.17.0.0
  0
SECTION
  2
HEADER
  9
$ACADVER
  1
AC1015
  9
$HANDSEED
  5
FFFF
  9
$DIMADEC
 70
0
  9
$DIMASZ
 40
2.5
  9
$DIMAUNIT
 70
0
  9
$DIMAZIN
 70
2
  9
$DIMDEC
 70
4
  9
$DIMDSEP
 70
46
  9
$DIMEXE
 40
1.25
  9
$DIMEXO
 40
0.625
  9
$DIMGAP
 40
0.625
  9
$DIMLUNIT
 70
2
  9
$DIMSCALE
 40
1.0
  9
$DIMTSZ
 40
0.0
  9
$DIMTXT
 40
2.5
  9
$DIMZIN
 70
8
  9
$DWGCODEPAGE
  3
ANSI_1252
  9
$INSUNITS
 70
4
  9
$LTSCALE
 40
1.0
  9
$MAXACTVP
 70
64
  9
$MEASUREMENT
 70
1
  9
$PDMODE
 70
0
  9
$PDSIZE
 40
0.0
  0
ENDSEC
  0
SECTION
  2
TABLES
  0
TABLE
  2
VPORT
  5
8
100
AcDbSymbolTable
 70
1
  0
VPORT
  5
30
100
AcDbSymbolTableRecord
100
AcDbViewportTableRecord
  2
*Active
 70
0
 10
0.0
 20
0.0
 11
1.0
 21
1.0
 12
286.3055555555554861
 22
148.5
 13
0.0
 23
0.0
 14
10.0
 24
10.0
 15
10.0
 25
10.0
 16
0.0
 26
0.0
 36
1.0
 17
0.0
 27
0.0
 37
0.0
 40
297.0
 41
1.92798353909465
 42
50.0
 43
0.0
 44
0.0
 50
0.0
 51
0.0
 71
0
 72
100
 73
1
 74
3
 75
1
 76
1
 77
0
 78
0
281
0
 65
1
110
0.0
120
0.0
130
0.0
111
1.0
121
0.0
131
0.0
112
0.0
122
1.0
132
0.0
 79
0
146
0.0
  0
ENDTAB
  0
TABLE
  2
LTYPE
  5
5
100
AcDbSymbolTable
 70
41
  0
LTYPE
  5
16
100
AcDbSymbolTableRecord
100
AcDbLinetypeTableRecord
  2
Continuous
 70
0
  3
Solid line
 72
65
 73
0
 40
0.0
  0
LTYPE
  5
31
100
AcDbSymbolTableRecord
100
AcDbLinetypeTableRecord
  2
ACAD_ISO15W100
 70
0
  3
ISO double-dash triple-dot __ __ . . . __ __ . .
 72
65
 73
10
 40
39.0000000000000071
 49
12.0
 74
0
 49
-3.0
 74
0
 49
12.0
 74
0
 49
-2.9500000000000002
 74
0
 49
0.1
 74
0
 49
-2.9000000000000004
 74
0
 49
0.1
 74
0
 49
-2.9000000000000004
 74
0
 49
0.1
 74
0
 49
-2.9500000000000002
 74
0
  0
LTYPE
  5
32
100
AcDbSymbolTableRecord
100
AcDbLinetypeTableRecord
  2
DIVIDE
 70
0
  3
Divide ____ . . ____ . . ____ . . ____ . . ____
 72
65
 73
6
 40
31.7500000000000036
 49
12.6999999999999993
 74
0
 49
-6.2999999999999998
 74
0
 49
0.1
 74
0
 49
-6.25
 74
0
 49
0.1
 74
0
 49
-6.2999999999999998
 74
0
  0
LTYPE
  5
33
100
AcDbSymbolTableRecord
100
AcDbLinetypeTableRecord
  2
ACAD_ISO10W100
 70
0
  3
ISO dash dot __ . __ . __ . __ . __ . __ . __ . 
 72
65
 73
4
 40
18.0
 49
12.0
 74
0
 49
-2.9500000000000002
 74
0
 49
0.1
 74
0
 49
-2.9500000000000002
 74
0
  0
LTYPE
  5
34
100
AcDbSymbolTableRecord
100
AcDbLinetypeTableRecord
  2
ACAD_ISO04W100
 70
0
  3
ISO long-dash dot ____ . ____ . ____ . ____ . _
 72
65
 73
4
 40
30.0
 49
24.0
 74
0
 49
-2.9500000000000002
 74
0
 49
0.1
 74
0
 49
-2.9500000000000002
 74
0
  0
LTYPE
  5
35
100
AcDbSymbolTableRecord
100
AcDbLinetypeTableRecord
  2
CENTER2
 70
0
  3
Center (.5x) ___ _ ___ _ ___ _ ___ _ ___ _ ___
 72
65
 73
4
 40
28.5750000000000028
 49
19.0500000000000007
 74
0
 49
-3.1749999999999998
 74
0
 49
3.1749999999999998
 74
0
 49
-3.1749999999999998
 74
0
  0
LTYPE
  5
36
100
AcDbSymbolTableRecord
100
AcDbLinetypeTableRecord
  2
ACAD_ISO11W100
 70
0
  3
ISO double-dash dot __ __ . __ __ . __ __ . __ _
 72
65
 73
6
 40
33.0
 49
12.0
 74
0
 49
-3.0
 74
0
 49
12.0
 74
0
 49
-2.9500000000000002
 74
0
 49
0.1
 74
0
 49
-2.9500000000000002
 74
0
  0
LTYPE
  5
37
100
AcDbSymbolTableRecord
100
AcDbLinetypeTableRecord
  2
HIDDEN2
 70
0
  3
Hidden (.5x) _ _ _ _ _ _ _ _ _ _ _ _ _ _ _ _ _ 
 72
65
 73
2
 40
4.7624999999999993
 49
3.1749999999999998
 74
0
 49
-1.5874999999999999
 74
0
  0
LTYPE
  5
38
100
AcDbSymbolTableRecord
100
AcDbLinetypeTableRecord
  2
BORDERX2
 70
0
  3
Border (2x) ____  ____  .  ____  ____  .  ___
 72
65
 73
6
 40
88.8999999999999773
 49
25.3999999999999986
 74
0
 49
-12.6999999999999993
 74
0
 49
25.3999999999999986
 74
0
 49
-12.6499999999999986
 74
0
 49
0.1
 74
0
 49
-12.6499999999999986
 74
0
  0
LTYPE
  5
39
100
AcDbSymbolTableRecord
100
AcDbLinetypeTableRecord
  2
ACAD_ISO05W100
 70
0
  3
ISO long-dash double-dot ____ .. ____ .. ____ . 
 72
65
 73
6
 40
33.0000000000000071
 49
24.0
 74
0
 49
-2.9500000000000002
 74
0
 49
0.1
 74
0
 49
-2.9000000000000004
 74
0
 49
0.1
 74
0
 49
-2.9500000000000002
 74
0
  0
LTYPE
  5
3A
100
AcDbSymbolTableRecord
100
AcDbLinetypeTableRecord
  2
DASHDOTX2
 70
0
  3
Dash dot (2x) ____  .  ____  .  ____  .  ___
 72
65
 73
4
 40
50.7999999999999972
 49
25.3999999999999986
 74
0
 49
-12.6499999999999986
 74
0
 49
0.1
 74
0
 49
-12.6499999999999986
 74
0
  0
LTYPE
  5
3B
100
AcDbSymbolTableRecord
100
AcDbLinetypeTableRecord
  2
HIDDENX2
 70
0
  3
Hidden (2x) ____ ____ ____ ____ ____ ____ ____ 
 72
65
 73
2
 40
19.0499999999999972
 49
12.6999999999999993
 74
0
 49
-6.3499999999999996
 74
0
  0
LTYPE
  5
3C
100
AcDbSymbolTableRecord
100
AcDbLinetypeTableRecord
  2
CENTERX2
 70
0
  3
Center (2x) ________  __  ________  __  _____
 72
65
 73
4
 40
101.6000000000000085
 49
63.5
 74
0
 49
-12.6999999999999993
 74
0
 49
12.6999999999999993
 74
0
 49
-12.6999999999999993
 74
0
  0
LTYPE
  5
3D
100
AcDbSymbolTableRecord
100
AcDbLinetypeTableRecord
  2
BORDER2
 70
0
  3
Border (.5x) __.__.__.__.__.__.__.__.__.__.__.
 72
65
 73
6
 40
22.2250000000000014
 49
6.3499999999999996
 74
0
 49
-3.1749999999999998
 74
0
 49
6.3499999999999996
 74
0
 49
-3.125
 74
0
 49
0.1
 74
0
 49
-3.125
 74
0
  0
LTYPE
  5
3E
100
AcDbSymbolTableRecord
100
AcDbLinetypeTableRecord
  2
DASHDOT2
 70
0
  3
Dash dot (.5x) _._._._._._._._._._._._._._._.
 72
65
 73
4
 40
12.6999999999999993
 49
6.3499999999999996
 74
0
 49
-3.125
 74
0
 49
0.1
 74
0
 49
-3.125
 74
0
  0
LTYPE
  5
3F
100
AcDbSymbolTableRecord
100
AcDbLinetypeTableRecord
  2
ACAD_ISO12W100
 70
0
  3
ISO dash double-dot __ . . __ . . __ . . __ . . 
 72
65
 73
6
 40
21.0
 49
12.0
 74
0
 49
-2.9500000000000002
 74
0
 49
0.1
 74
0
 49
-2.9000000000000004
 74
0
 49
0.1
 74
0
 49
-2.9500000000000002
 74
0
  0
LTYPE
  5
40
100
AcDbSymbolTableRecord
100
AcDbLinetypeTableRecord
  2
ACAD_ISO07W100
 70
0
  3
ISO dot . . . . . . . . . . . . . . . . . . . . 
 72
65
 73
2
 40
3.0
 49
0.1
 74
0
 49
-2.8999999999999999
 74
0
  0
LTYPE
  5
41
100
AcDbSymbolTableRecord
100
AcDbLinetypeTableRecord
  2
HIDDEN
 70
0
  3
Hidden __ __ __ __ __ __ __ __ __ __ __ __ __ __
 72
65
 73
2
 40
9.5249999999999986
 49
6.3499999999999996
 74
0
 49
-3.1749999999999998
 74
0
  0
LTYPE
  5
42
100
AcDbSymbolTableRecord
100
AcDbLinetypeTableRecord
  2
ACAD_ISO06W100
 70
0
  3
ISO long-dash triple-dot ____ ... ____ ... ____
 72
65
 73
8
 40
36.0000000000000071
 49
24.0
 74
0
 49
-2.9500000000000002
 74
0
 49
0.1
 74
0
 49
-2.9000000000000004
 74
0
 49
0.1
 74
0
 49
-2.9000000000000004
 74
0
 49
0.1
 74
0
 49
-2.9500000000000002
 74
0
  0
LTYPE
  5
43
100
AcDbSymbolTableRecord
100
AcDbLinetypeTableRecord
  2
CENTER
 70
0
  3
Center ____ _ ____ _ ____ _ ____ _ ____ _ ____
 72
65
 73
4
 40
50.8000000000000043
 49
31.75
 74
0
 49
-6.3499999999999996
 74
0
 49
6.3499999999999996
 74
0
 49
-6.3499999999999996
 74
0
  0
LTYPE
  5
44
100
AcDbSymbolTableRecord
100
AcDbLinetypeTableRecord
  2
DOTX2
 70
0
  3
Dot (2x) .  .  .  .  .  .  .  .  .  .  .  .  .  .
 72
65
 73
2
 40
12.6999999999999993
 49
0.1
 74
0
 49
-12.5999999999999996
 74
0
  0
LTYPE
  5
45
100
AcDbSymbolTableRecord
100
AcDbLinetypeTableRecord
  2
PHANTOM
 70
0
  3
Phantom ______  __  __  ______  __  __  ______ 
 72
65
 73
6
 40
63.5000000000000071
 49
31.75
 74
0
 49
-6.3499999999999996
 74
0
 49
6.3499999999999996
 74
0
 49
-6.3499999999999996
 74
0
 49
6.3499999999999996
 74
0
 49
-6.3499999999999996
 74
0
  0
LTYPE
  5
46
100
AcDbSymbolTableRecord
100
AcDbLinetypeTableRecord
  2
ACAD_ISO08W100
 70
0
  3
ISO long-dash short-dash ____ __ ____ __ ____ _
 72
65
 73
4
 40
36.0
 49
24.0
 74
0
 49
-3.0
 74
0
 49
6.0
 74
0
 49
-3.0
 74
0
  0
LTYPE
  5
47
100
AcDbSymbolTableRecord
100
AcDbLinetypeTableRecord
  2
DASHEDX2
 70
0
  3
Dashed (2x) ____  ____  ____  ____  ____  ___
 72
65
 73
2
 40
38.0999999999999943
 49
25.3999999999999986
 74
0
 49
-12.6999999999999993
 74
0
  0
LTYPE
  5
48
100
AcDbSymbolTableRecord
100
AcDbLinetypeTableRecord
  2
ACAD_ISO02W100
 70
0
  3
ISO dash __ __ __ __ __ __ __ __ __ __ __ __ __
 72
65
 73
2
 40
15.0
 49
12.0
 74
0
 49
-3.0
 74
0
  0
LTYPE
  5
49
100
AcDbSymbolTableRecord
100
AcDbLinetypeTableRecord
  2
PHANTOM2
 70
0
  3
Phantom (.5x) ___ _ _ ___ _ _ ___ _ _ ___ _ _
 72
65
 73
6
 40
31.7500000000000036
 49
15.875
 74
0
 49
-3.1749999999999998
 74
0
 49
3.1749999999999998
 74
0
 49
-3.1749999999999998
 74
0
 49
3.1749999999999998
 74
0
 49
-3.1749999999999998
 74
0
  0
LTYPE
  5
4A
100
AcDbSymbolTableRecord
100
AcDbLinetypeTableRecord
  2
DASHED2
 70
0
  3
Dashed (.5x) _ _ _ _ _ _ _ _ _ _ _ _ _ _ _ _ _ 
 72
65
 73
2
 40
9.5249999999999986
 49
6.3499999999999996
 74
0
 49
-3.1749999999999998
 74
0
  0
LTYPE
  5
4B
100
AcDbSymbolTableRecord
100
AcDbLinetypeTableRecord
  2
ACAD_ISO09W100
 70
0
  3
ISO long-dash double-short-dash ____ __ __ ____
 72
65
 73
6
 40
45.0
 49
24.0
 74
0
 49
-3.0
 74
0
 49
6.0
 74
0
 49
-3.0
 74
0
 49
6.0
 74
0
 49
-3.0
 74
0
  0
LTYPE
  5
4C
100
AcDbSymbolTableRecord
100
AcDbLinetypeTableRecord
  2
ACAD_ISO13W100
 70
0
  3
ISO double-dash double-dot __ __ . . __ __ . . _
 72
65
 73
8
 40
36.0000000000000071
 49
12.0
 74
0
 49
-3.0
 74
0
 49
12.0
 74
0
 49
-2.9500000000000002
 74
0
 49
0.1
 74
0
 49
-2.9000000000000004
 74
0
 49
0.1
 74
0
 49
-2.9500000000000002
 74
0
  0
LTYPE
  5
4D
100
AcDbSymbolTableRecord
100
AcDbLinetypeTableRecord
  2
DOT2
 70
0
  3
Dot (.5x) ........................................
 72
65
 73
2
 40
3.1749999999999998
 49
0.1
 74
0
 49
-3.0749999999999997
 74
0
  0
LTYPE
  5
4E
100
AcDbSymbolTableRecord
100
AcDbLinetypeTableRecord
  2
DASHED
 70
0
  3
Dashed __ __ __ __ __ __ __ __ __ __ __ __ __ _
 72
65
 73
2
 40
19.0499999999999972
 49
12.6999999999999993
 74
0
 49
-6.3499999999999996
 74
0
  0
LTYPE
  5
4F
100
AcDbSymbolTableRecord
100
AcDbLinetypeTableRecord
  2
ACAD_ISO14W100
 70
0
  3
ISO dash triple-dot __ . . . __ . . . __ . . . _
 72
65
 73
8
 40
24.0000000000000036
 49
12.0
 74
0
 49
-2.9500000000000002
 74
0
 49
0.1
 74
0
 49
-2.9000000000000004
 74
0
 49
0.1
 74
0
 49
-2.9000000000000004
 74
0
 49
0.1
 74
0
 49
-2.9500000000000002
 74
0
  0
LTYPE
  5
15
100
AcDbSymbolTableRecord
100
AcDbLinetypeTableRecord
  2
BYLAYER
 70
0
  3

 72
65
 73
0
 40
0.0
  0
LTYPE
  5
50
100
AcDbSymbolTableRecord
100
AcDbLinetypeTableRecord
  2
PHANTOMX2
 70
0
  3
Phantom (2x) ____________    ____    ____   _
 72
65
 73
6
 40
127.0000000000000142
 49
63.5
 74
0
 49
-12.6999999999999993
 74
0
 49
12.6999999999999993
 74
0
 49
-12.6999999999999993
 74
0
 49
12.6999999999999993
 74
0
 49
-12.6999999999999993
 74
0
  0
LTYPE
  5
14
100
AcDbSymbolTableRecord
100
AcDbLinetypeTableRecord
  2
BYBLOCK
 70
0
  3

 72
65
 73
0
 40
0.0
  0
LTYPE
  5
51
100
AcDbSymbolTableRecord
100
AcDbLinetypeTableRecord
  2
DIVIDEX2
 70
0
  3
Divide (2x) ________  .  .  ________  .  .  _
 72
65
 73
6
 40
63.5
 49
25.3999999999999986
 74
0
 49
-12.6499999999999986
 74
0
 49
0.1
 74
0
 49
-12.5999999999999979
 74
0
 49
0.1
 74
0
 49
-12.6499999999999986
 74
0
  0
LTYPE
  5
52
100
AcDbSymbolTableRecord
100
AcDbLinetypeTableRecord
  2
BORDER
 70
0
  3
Border __ __ . __ __ . __ __ . __ __ . __ __ .
 72
65
 73
6
 40
44.4499999999999957
 49
12.6999999999999993
 74
0
 49
-6.3499999999999996
 74
0
 49
12.6999999999999993
 74
0
 49
-6.2999999999999998
 74
0
 49
0.1
 74
0
 49
-6.2999999999999998
 74
0
  0
LTYPE
  5
53
100
AcDbSymbolTableRecord
100
AcDbLinetypeTableRecord
  2
DIVIDE2
 70
0
  3
Divide (.5x) __..__..__..__..__..__..__..__.._
 72
65
 73
6
 40
15.8749999999999982
 49
6.3499999999999996
 74
0
 49
-3.125
 74
0
 49
0.1
 74
0
 49
-3.0750000000000002
 74
0
 49
0.1
 74
0
 49
-3.125
 74
0
  0
LTYPE
  5
54
100
AcDbSymbolTableRecord
100
AcDbLinetypeTableRecord
  2
DOT
 70
0
  3
Dot . . . . . . . . . . . . . . . . . . . . . . . .
 72
65
 73
2
 40
6.3499999999999996
 49
0.1
 74
0
 49
-6.25
 74
0
  0
LTYPE
  5
55
100
AcDbSymbolTableRecord
100
AcDbLinetypeTableRecord
  2
DASHDOT
 70
0
  3
Dash dot __ . __ . __ . __ . __ . __ . __ . __
 72
65
 73
4
 40
25.4000000000000021
 49
12.6999999999999993
 74
0
 49
-6.2999999999999998
 74
0
 49
0.1
 74
0
 49
-6.2999999999999998
 74
0
  0
LTYPE
  5
56
100
AcDbSymbolTableRecord
100
AcDbLinetypeTableRecord
  2
ACAD_ISO03W100
 70
0
  3
ISO dash space __    __    __    __    __    __
 72
65
 73
2
 40
30.0
 49
12.0
 74
0
 49
-18.0
 74
0
  0
ENDTAB
  0
TABLE
  2
LAYER
  5
2
100
AcDbSymbolTable
 70
2
  0
LAYER
  5
57
100
AcDbSymbolTableRecord
100
AcDbLayerTableRecord
  2
page
 70
4
 62
1
420
16711680
  6
Continuous
370
25
390
F
  0
LAYER
  5
10
100
AcDbSymbolTableRecord
100
AcDbLayerTableRecord
  2
0
 70
0
 62
7
420
16777215
  6
Continuous
370
25
390
F
  0
ENDTAB
  0
TABLE
  2
STYLE
  5
3
100
AcDbSymbolTable
 70
1
  0
STYLE
  5
58
100
AcDbSymbolTableRecord
100
AcDbTextStyleTableRecord
  2
Standard
 70
0
 40
0.0
 41
1.0
 50
0.0
 71
0
 42
2.5
  3

  4

1001
ACAD
1000
txt
1071
0
  0
ENDTAB
  0
TABLE
  2
VIEW
  5
6
100
AcDbSymbolTable
 70
0
  0
ENDTAB
  0
TABLE
  2
UCS
  5
7
100
AcDbSymbolTable
 70
0
  0
ENDTAB
  0
TABLE
  2
APPID
  5
9
100
AcDbSymbolTable
 70
1
  0
APPID
  5
12
100
AcDbSymbolTableRecord
100
AcDbRegAppTableRecord
  2
ACAD
 70
0
  0
APPID
  5
59
100
AcDbSymbolTableRecord
100
AcDbRegAppTableRecord
  2
QCAD
 70
0
  0
ENDTAB
  0
TABLE
  2
DIMSTYLE
  5
A
100
AcDbSymbolTable
 70
1
100
AcDbDimStyleTable
 71
0
  0
DIMSTYLE
105
27
100
AcDbSymbolTableRecord
100
AcDbDimStyleTableRecord
  2
Standard
 41
2.5
 42
0.625
 43
3.75
 44
1.25
 70
0
 73
0
 74
0
 77
1
 78
8
140
2.5
141
2.5
143
0.03937007874016
147
0.625
171
3
172
1
271
2
272
2
274
3
278
44
283
0
284
8
340
58
  0
ENDTAB
  0
TABLE
  2
BLOCK_RECORD
  5
1
100
AcDbSymbolTable
 70
1
  0
BLOCK_RECORD
  5
1F
100
AcDbSymbolTableRecord
100
AcDbBlockTableRecord
  2
*Model_Space
340
22
  0
BLOCK_RECORD
  5
1B
100
AcDbSymbolTableRecord
100
AcDbBlockTableRecord
  2
*Paper_Space
340
1E
  0
BLOCK_RECORD
  5
23
100
AcDbSymbolTableRecord
100
AcDbBlockTableRecord
  2
*Paper_Space0
340
26
  0
ENDTAB
  0
ENDSEC
  0
SECTION
  2
BLOCKS
  0
BLOCK
  5
20
100
AcDbEntity
  8
0
100
AcDbBlockBegin
  2
*Model_Space
 70
0
 10
0.0
 20
0.0
 30
0.0
  3
*Model_Space
  1

  0
ENDBLK
  5
21
100
AcDbEntity
  8
0
100
AcDbBlockEnd
  0
BLOCK
  5
1C
100
AcDbEntity
 67
1
  8
0
100
AcDbBlockBegin
  2
*Paper_Space
 70
0
 10
0.0
 20
0.0
 30
0.0
  3
*Paper_Space
  1

  0
ENDBLK
  5
1D
100
AcDbEntity
 67
1
  8
0
100
AcDbBlockEnd
  0
BLOCK
  5
24
100
AcDbEntity
  8
0
100
AcDbBlockBegin
  2
*Paper_Space0
 70
0
 10
0.0
 20
0.0
 30
0.0
  3
*Paper_Space0
  1

  0
ENDBLK
  5
25
100
AcDbEntity
  8
0
100
AcDbBlockEnd
  0
ENDSEC
  0
SECTION
  2
ENTITIES
  0
ARC
  5
5A
100
AcDbEntity
  8
0
 62
256
370
100
 48
1.0
  6
BYLAYER
100
AcDbCircle
 10
29.7702843170510363
 20
102.6481127487560627
 30
0.0
 40
7.6665897837377699
100
AcDbArc
 50
213.4698770317653782
 51
241.9827449560472417
  0
LINE
  5
5B
100
AcDbEntity
  8
0
 62
256
370
100
 48
1.0
  6
BYLAYER
100
AcDbLine
 10
38.6150000000000162
 20
160.8000000000000114
 30
0.0
 11
8.1349999999999838
 21
160.8000000000000114
 31
0.0
  0
LINE
  5
5C
100
AcDbEntity
  8
0
 62
256
370
100
 48
1.0
  6
BYLAYER
100
AcDbLine
 10
112.7750000000000057
 20
255.4499999999999886
 30
0.0
 11
125.4749999999999943
 21
255.4499999999999886
 31
0.0
  0
LINE
  5
5D
100
AcDbEntity
  8
0
 62
256
370
100
 48
1.0
  6
BYLAYER
100
AcDbLine
 10
162.8149999999999693
 20
24.7821499999999872
 30
0.0
 11
162.8149999999999693
 21
32.402150000000006
 31
0.0
  0
LINE
  5
5E
100
AcDbEntity
  8
0
 62
256
370
100
 48
1.0
  6
BYLAYER
100
AcDbLine
 10
26.169000000000068
 20
95.8799999999999812
 30
0.0
 11
23.3749999999999574
 21
93.0859999999999985
 31
0.0
  0
LINE
  5
5F
100
AcDbEntity
  8
0
 62
256
370
100
 48
1.0
  6
BYLAYER
100
AcDbLine
 10
8.1349999999999838
 20
160.8000000000000114
 30
0.0
 11
8.1349999999999838
 21
186.1999999999999886
 31
0.0
  0
ARC
  5
60
100
AcDbEntity
  8
0
 62
256
370
100
 48
1.0
  6
BYLAYER
100
AcDbCircle
 10
125.4749999999999943
 20
252.910000000000025
 30
0.0
 40
2.54
100
AcDbArc
 50
0.0
 51
90.0000000000000142
  0
LINE
  5
61
100
AcDbEntity
  8
0
 62
256
370
100
 48
1.0
  6
BYLAYER
100
AcDbLine
 10
162.8149999999999693
 20
32.402150000000006
 30
0.0
 11
165.3549999999999613
 21
32.402150000000006
 31
0.0
  0
LINE
  5
62
100
AcDbEntity
  8
0
 62
256
370
100
 48
1.0
  6
BYLAYER
100
AcDbLine
 10
23.3749999999999574
 20
93.0859999999999985
 30
0.0
 11
20.5809999999999746
 21
95.8799999999999812
 31
0.0
  0
LINE
  5
63
100
AcDbEntity
  8
0
 62
256
370
100
 48
1.0
  6
BYLAYER
100
AcDbLine
 10
8.1349999999999838
 20
186.1999999999999886
 30
0.0
 11
38.6150000000000162
 21
186.1999999999999886
 31
0.0
  0
LINE
  5
64
100
AcDbEntity
  8
0
 62
256
370
100
 48
1.0
  6
BYLAYER
100
AcDbLine
 10
128.0149999999999579
 20
252.910000000000025
 30
0.0
 11
128.0149999999999579
 21
232.589999999999975
 31
0.0
  0
LINE
  5
65
100
AcDbEntity
  8
0
 62
256
370
100
 48
1.0
  6
BYLAYER
100
AcDbLine
 10
165.3549999999999613
 20
32.402150000000006
 30
0.0
 11
167.8949999999999534
 21
32.402150000000006
 31
0.0
  0
ARC
  5
66
100
AcDbEntity
  8
0
 62
256
370
100
 48
1.0
  6
BYLAYER
100
AcDbCircle
 10
17.0487629127621432
 20
102.5721607959615227
 30
0.0
 40
7.5671470819234985
100
AcDbArc
 50
297.8258597334825026
 51
326.7215182787049912
  0
LINE
  5
67
100
AcDbEntity
  8
0
 62
256
370
100
 48
1.0
  6
BYLAYER
100
AcDbLine
 10
38.6150000000000162
 20
186.1999999999999886
 30
0.0
 11
38.6150000000000162
 21
160.8000000000000114
 31
0.0
  0
ARC
  5
68
100
AcDbEntity
  8
0
 62
256
370
100
 48
1.0
  6
BYLAYER
100
AcDbCircle
 10
125.4749999999999943
 20
232.589999999999975
 30
0.0
 40
2.54
100
AcDbArc
 50
270.0
 51
0.0
  0
LINE
  5
69
100
AcDbEntity
  8
0
 62
256
370
100
 48
1.0
  6
BYLAYER
100
AcDbLine
 10
167.8949999999999534
 20
32.402150000000006
 30
0.0
 11
170.4350000000000023
 21
32.402150000000006
 31
0.0
  0
ARC
  5
6A
100
AcDbEntity
  8
0
 62
256
370
100
 48
1.0
  6
BYLAYER
100
AcDbCircle
 10
29.7250000000000227
 20
101.9759999999999707
 30
0.0
 40
2.54
100
AcDbArc
 50
90.0000000000000142
 51
180.0
  0
LINE
  5
6B
100
AcDbEntity
  8
0
 62
256
370
100
 48
1.0
  6
BYLAYER
100
AcDbLine
 10
32.2649999999999508
 20
168.4200000000000159
 30
0.0
 11
32.2649999999999508
 21
167.1499999999999773
 31
0.0
  0
LINE
  5
6C
100
AcDbEntity
  8
0
 62
256
370
100
 48
1.0
  6
BYLAYER
100
AcDbLine
 10
125.4749999999999943
 20
230.0500000000000398
 30
0.0
 11
112.7750000000000057
 21
230.0500000000000398
 31
0.0
  0
LINE
  5
6D
100
AcDbEntity
  8
0
 62
256
370
100
 48
1.0
  6
BYLAYER
100
AcDbLine
 10
170.4350000000000023
 20
32.402150000000006
 30
0.0
 11
170.4350000000000023
 21
24.7821499999999872
 31
0.0
  0
ARC
  5
6E
100
AcDbEntity
  8
0
 62
256
370
100
 48
1.0
  6
BYLAYER
100
AcDbCircle
 10
29.7250000000000227
 20
101.9759999999999707
 30
0.0
 40
2.54
100
AcDbArc
 50
180.0
 51
270.0
  0
LINE
  5
6F
100
AcDbEntity
  8
0
 62
256
370
100
 48
1.0
  6
BYLAYER
100
AcDbLine
 10
32.2649999999999508
 20
167.1499999999999773
 30
0.0
 11
27.1849999999999241
 21
167.1499999999999773
 31
0.0
  0
ARC
  5
70
100
AcDbEntity
  8
0
 62
256
370
100
 48
1.0
  6
BYLAYER
100
AcDbCircle
 10
112.7750000000000057
 20
232.589999999999975
 30
0.0
 40
2.54
100
AcDbArc
 50
180.0
 51
270.0
  0
LINE
  5
71
100
AcDbEntity
  8
0
 62
256
370
100
 48
1.0
  6
BYLAYER
100
AcDbLine
 10
170.4350000000000023
 20
24.7821499999999872
 30
0.0
 11
174.2449999999999761
 21
24.7821499999999872
 31
0.0
  0
ARC
  5
72
100
AcDbEntity
  8
0
 62
256
370
100
 48
1.0
  6
BYLAYER
100
AcDbCircle
 10
29.7250000000000227
 20
101.9759999999999707
 30
0.0
 40
2.54
100
AcDbArc
 50
270.0
 51
0.0
  0
LINE
  5
73
100
AcDbEntity
  8
0
 62
256
370
100
 48
1.0
  6
BYLAYER
100
AcDbLine
 10
27.1849999999999241
 20
167.1499999999999773
 30
0.0
 11
27.1849999999999241
 21
168.4200000000000159
 31
0.0
  0
LINE
  5
74
100
AcDbEntity
  8
0
 62
256
370
100
 48
1.0
  6
BYLAYER
100
AcDbLine
 10
110.2349999999999852
 20
232.589999999999975
 30
0.0
 11
110.2349999999999852
 21
252.910000000000025
 31
0.0
  0
LINE
  5
75
100
AcDbEntity
  8
0
 62
256
370
100
 48
1.0
  6
BYLAYER
100
AcDbLine
 10
174.2449999999999761
 20
24.7821499999999872
 30
0.0
 11
174.2449999999999761
 21
35.0564499999999981
 31
0.0
  0
ARC
  5
76
100
AcDbEntity
  8
0
 62
256
370
100
 48
1.0
  6
BYLAYER
100
AcDbCircle
 10
29.7257051564856738
 20
101.9767051564856644
 30
0.0
 40
2.539294941424513
100
AcDbArc
 50
359.984089090884595
 51
90.0159109091153766
  0
LINE
  5
77
100
AcDbEntity
  8
0
 62
256
370
100
 48
1.0
  6
BYLAYER
100
AcDbLine
 10
27.1849999999999241
 20
168.4200000000000159
 30
0.0
 11
32.2649999999999508
 21
168.4200000000000159
 31
0.0
  0
ARC
  5
78
100
AcDbEntity
  8
0
 62
256
370
100
 48
1.0
  6
BYLAYER
100
AcDbCircle
 10
112.7750000000000057
 20
252.910000000000025
 30
0.0
 40
2.54
100
AcDbArc
 50
90.0000000000000142
 51
180.0
  0
LINE
  5
79
100
AcDbEntity
  8
0
 62
256
370
100
 48
1.0
  6
BYLAYER
100
AcDbLine
 10
174.2449999999999761
 20
35.0564499999999981
 30
0.0
 11
166.625
 21
42.6764499999999742
 31
0.0
  0
ARC
  5
7A
100
AcDbEntity
  8
0
 62
256
370
100
 48
1.0
  6
BYLAYER
100
AcDbCircle
 10
17.0250000000000199
 20
101.9759999999999707
 30
0.0
 40
2.54
100
AcDbArc
 50
90.0000000000000142
 51
180.0
  0
LINE
  5
7B
100
AcDbEntity
  8
0
 62
256
370
100
 48
1.0
  6
BYLAYER
100
AcDbLine
 10
24.6424599999999501
 20
167.1499999999999773
 30
0.0
 11
10.6762700000000095
 21
167.1499999999999773
 31
0.0
  0
LINE
  5
7C
100
AcDbEntity
  8
0
 62
256
370
100
 48
1.0
  6
BYLAYER
100
AcDbLine
 10
112.7750000000000057
 20
252.910000000000025
 30
0.0
 11
112.7750000000000057
 21
247.8300000000000409
 31
0.0
  0
LINE
  5
7D
100
AcDbEntity
  8
0
 62
256
370
100
 48
1.0
  6
BYLAYER
100
AcDbLine
 10
166.625
 20
42.6764499999999742
 30
0.0
 11
159.0049999999999955
 21
35.0564499999999981
 31
0.0
  0
ARC
  5
7E
100
AcDbEntity
  8
0
 62
256
370
100
 48
1.0
  6
BYLAYER
100
AcDbCircle
 10
17.0250000000000199
 20
101.9759999999999707
 30
0.0
 40
2.54
100
AcDbArc
 50
180.0
 51
270.0
  0
LINE
  5
7F
100
AcDbEntity
  8
0
 62
256
370
100
 48
1.0
  6
BYLAYER
100
AcDbLine
 10
10.6762700000000095
 20
167.1499999999999773
 30
0.0
 11
10.6749999999999332
 21
168.3107800000000225
 31
0.0
  0
LINE
  5
80
100
AcDbEntity
  8
0
 62
256
370
100
 48
1.0
  6
BYLAYER
100
AcDbLine
 10
112.7750000000000057
 20
247.8300000000000409
 30
0.0
 11
125.4749999999999943
 21
247.8300000000000409
 31
0.0
  0
LINE
  5
81
100
AcDbEntity
  8
0
 62
256
370
100
 48
1.0
  6
BYLAYER
100
AcDbLine
 10
159.0049999999999955
 20
35.0564499999999981
 30
0.0
 11
159.0049999999999955
 21
24.7821499999999872
 31
0.0
  0
ARC
  5
82
100
AcDbEntity
  8
0
 62
256
370
100
 48
1.0
  6
BYLAYER
100
AcDbCircle
 10
17.0250000000000199
 20
101.9759999999999707
 30
0.0
 40
2.54
100
AcDbArc
 50
270.0
 51
0.0
  0
ARC
  5
83
100
AcDbEntity
  8
0
 62
256
370
100
 48
1.0
  6
BYLAYER
100
AcDbCircle
 10
13.2167242664114539
 20
168.9362447177931301
 30
0.0
 40
2.6175500682258201
100
AcDbArc
 50
98.0986344464901947
 51
193.8246022578609029
  0
LINE
  5
84
100
AcDbEntity
  8
0
 62
256
370
100
 48
1.0
  6
BYLAYER
100
AcDbLine
 10
125.4749999999999943
 20
247.8300000000000409
 30
0.0
 11
125.4749999999999943
 21
252.910000000000025
 31
0.0
  0
LINE
  5
85
100
AcDbEntity
  8
0
 62
256
370
100
 48
1.0
  6
BYLAYER
100
AcDbLine
 10
159.0049999999999955
 20
24.7821499999999872
 30
0.0
 11
162.8149999999999693
 21
24.7821499999999872
 31
0.0
  0
ARC
  5
86
100
AcDbEntity
  8
0
 62
256
370
100
 48
1.0
  6
BYLAYER
100
AcDbCircle
 10
17.025705156485671
 20
101.9767051564856644
 30
0.0
 40
2.5392949414245152
100
AcDbArc
 50
359.984089090884595
 51
90.0159109091212741
  0
ARC
  5
87
100
AcDbEntity
  8
0
 62
256
370
100
 48
1.0
  6
BYLAYER
100
AcDbCircle
 10
12.3892690331005682
 20
176.4080162403013219
 30
0.0
 40
4.9018354510130298
100
AcDbArc
 50
275.3694454883223557
 51
305.7160930057654014
  0
LINE
  5
88
100
AcDbEntity
  8
0
 62
256
370
100
 48
1.0
  6
BYLAYER
100
AcDbLine
 10
125.4749999999999943
 20
252.910000000000025
 30
0.0
 11
112.7750000000000057
 21
252.910000000000025
 31
0.0
  0
LINE
  5
89
100
AcDbEntity
  8
0
 62
256
370
100
 48
1.0
  6
BYLAYER
100
AcDbLine
 10
166.625
 20
46.2578500000000048
 30
0.0
 11
179.2107000000000028
 21
33.672150000000002
 31
0.0
  0
ARC
  5
8A
100
AcDbEntity
  8
0
 62
256
370
100
 48
1.0
  6
BYLAYER
100
AcDbCircle
 10
29.7250000000000227
 20
102.61099999999999
 30
0.0
 40
5.0800000000000001
100
AcDbArc
 50
0.0
 51
90.0000000000000142
  0
ARC
  5
8B
100
AcDbEntity
  8
0
 62
256
370
100
 48
1.0
  6
BYLAYER
100
AcDbCircle
 10
14.5169716643975946
 20
172.524850953589663
 30
0.0
 40
0.7401861794048592
100
AcDbArc
 50
352.4908440206475575
 51
34.5857969628881605
  0
LINE
  5
8C
100
AcDbEntity
  8
0
 62
256
370
100
 48
1.0
  6
BYLAYER
100
AcDbLine
 10
112.7750000000000057
 20
245.289999999999992
 30
0.0
 11
112.7750000000000057
 21
242.75
 31
0.0
  0
LINE
  5
8D
100
AcDbEntity
  8
0
 62
256
370
100
 48
1.0
  6
BYLAYER
100
AcDbLine
 10
179.2107000000000028
 20
33.672150000000002
 30
0.0
 11
176.7849999999999682
 21
33.672150000000002
 31
0.0
  0
ARC
  5
8E
100
AcDbEntity
  8
0
 62
256
370
100
 48
1.0
  6
BYLAYER
100
AcDbCircle
 10
29.7250000000000227
 20
102.61099999999999
 30
0.0
 40
5.0800000000000001
100
AcDbArc
 50
270.0
 51
0.0
  0
ARC
  5
8F
100
AcDbEntity
  8
0
 62
256
370
100
 48
1.0
  6
BYLAYER
100
AcDbCircle
 10
20.5274702336063726
 20
176.812820954599232
 30
0.0
 40
6.6431966219877694
100
AcDbArc
 50
157.1353662005257661
 51
215.6069332327856216
  0
LINE
  5
90
100
AcDbEntity
  8
0
 62
256
370
100
 48
1.0
  6
BYLAYER
100
AcDbLine
 10
112.7750000000000057
 20
242.75
 30
0.0
 11
115.3150000000000119
 21
242.75
 31
0.0
  0
LINE
  5
91
100
AcDbEntity
  8
0
 62
256
370
100
 48
1.0
  6
BYLAYER
100
AcDbLine
 10
176.7849999999999682
 20
33.672150000000002
 30
0.0
 11
176.7849999999999682
 21
22.2421499999999952
 31
0.0
  0
ARC
  5
92
100
AcDbEntity
  8
0
 62
256
370
100
 48
1.0
  6
BYLAYER
100
AcDbCircle
 10
29.7250000000000227
 20
102.61099999999999
 30
0.0
 40
5.0800000000000001
100
AcDbArc
 50
180.0
 51
270.0
  0
ARC
  5
93
100
AcDbEntity
  8
0
 62
256
370
100
 48
1.0
  6
BYLAYER
100
AcDbCircle
 10
17.5138493192909905
 20
177.4655685570099592
 30
0.0
 40
3.6573527575264144
100
AcDbArc
 50
87.7098059778819703
 51
148.1771734603274808
  0
LINE
  5
94
100
AcDbEntity
  8
0
 62
256
370
100
 48
1.0
  6
BYLAYER
100
AcDbLine
 10
115.3150000000000119
 20
242.75
 30
0.0
 11
115.3150000000000119
 21
245.289999999999992
 31
0.0
  0
LINE
  5
95
100
AcDbEntity
  8
0
 62
256
370
100
 48
1.0
  6
BYLAYER
100
AcDbLine
 10
176.7849999999999682
 20
22.2421499999999952
 30
0.0
 11
167.8949999999999534
 21
22.2421499999999952
 31
0.0
  0
ARC
  5
96
100
AcDbEntity
  8
0
 62
256
370
100
 48
1.0
  6
BYLAYER
100
AcDbCircle
 10
29.7250000000000227
 20
102.61099999999999
 30
0.0
 40
5.0800000000000001
100
AcDbArc
 50
90.0000000000000142
 51
180.0
  0
ARC
  5
97
100
AcDbEntity
  8
0
 62
256
370
100
 48
1.0
  6
BYLAYER
100
AcDbCircle
 10
17.8081726541720755
 20
177.4797339020673235
 30
0.0
 40
3.64328044476441
100
AcDbArc
 50
32.1687526382822568
 51
92.3308691156901773
  0
LINE
  5
98
100
AcDbEntity
  8
0
 62
256
370
100
 48
1.0
  6
BYLAYER
100
AcDbLine
 10
115.3150000000000119
 20
245.289999999999992
 30
0.0
 11
112.7750000000000057
 21
245.289999999999992
 31
0.0
  0
LINE
  5
99
100
AcDbEntity
  8
0
 62
256
370
100
 48
1.0
  6
BYLAYER
100
AcDbLine
 10
167.8949999999999534
 20
22.2421499999999952
 30
0.0
 11
167.8949999999999534
 21
29.862150000000014
 31
0.0
  0
ARC
  5
9A
100
AcDbEntity
  8
0
 62
256
370
100
 48
1.0
  6
BYLAYER
100
AcDbCircle
 10
17.0250000000000199
 20
102.61099999999999
 30
0.0
 40
5.0800000000000001
100
AcDbArc
 50
0.0
 51
90.0000000000000142
  0
ARC
  5
9B
100
AcDbEntity
  8
0
 62
256
370
100
 48
1.0
  6
BYLAYER
100
AcDbCircle
 10
14.6977932135356539
 20
176.8129604031369411
 30
0.0
 40
6.7204128055169683
100
AcDbArc
 50
324.9013781782568913
 51
22.820762892924062
  0
LINE
  5
9C
100
AcDbEntity
  8
0
 62
256
370
100
 48
1.0
  6
BYLAYER
100
AcDbLine
 10
117.8549999999999613
 20
245.289999999999992
 30
0.0
 11
117.8549999999999613
 21
242.75
 31
0.0
  0
LINE
  5
9D
100
AcDbEntity
  8
0
 62
256
370
100
 48
1.0
  6
BYLAYER
100
AcDbLine
 10
167.8949999999999534
 20
29.862150000000014
 30
0.0
 11
165.3549999999999613
 21
29.862150000000014
 31
0.0
  0
ARC
  5
9E
100
AcDbEntity
  8
0
 62
256
370
100
 48
1.0
  6
BYLAYER
100
AcDbCircle
 10
17.0250000000000199
 20
102.61099999999999
 30
0.0
 40
5.0800000000000001
100
AcDbArc
 50
270.0
 51
0.0
  0
ARC
  5
9F
100
AcDbEntity
  8
0
 62
256
370
100
 48
1.0
  6
BYLAYER
100
AcDbCircle
 10
20.8135454761019858
 20
172.5314464750495915
 30
0.0
 40
0.7452036253284871
100
AcDbArc
 50
145.9386808226632297
 51
187.9700450514393424
  0
LINE
  5
A0
100
AcDbEntity
  8
0
 62
256
370
100
 48
1.0
  6
BYLAYER
100
AcDbLine
 10
117.8549999999999613
 20
242.75
 30
0.0
 11
120.3949999999999818
 21
242.75
 31
0.0
  0
LINE
  5
A1
100
AcDbEntity
  8
0
 62
256
370
100
 48
1.0
  6
BYLAYER
100
AcDbLine
 10
165.3549999999999613
 20
29.862150000000014
 30
0.0
 11
165.3549999999999613
 21
22.2421499999999952
 31
0.0
  0
ARC
  5
A2
100
AcDbEntity
  8
0
 62
256
370
100
 48
1.0
  6
BYLAYER
100
AcDbCircle
 10
17.0250000000000199
 20
102.61099999999999
 30
0.0
 40
5.0800000000000001
100
AcDbArc
 50
180.0
 51
270.0
  0
ARC
  5
A3
100
AcDbEntity
  8
0
 62
256
370
100
 48
1.0
  6
BYLAYER
100
AcDbCircle
 10
22.8759123599750112
 20
176.2938179292447956
 30
0.0
 40
4.7734375281006418
100
AcDbArc
 50
234.0798371050373703
 51
264.2737541375899468
  0
LINE
  5
A4
100
AcDbEntity
  8
0
 62
256
370
100
 48
1.0
  6
BYLAYER
100
AcDbLine
 10
120.3949999999999818
 20
242.75
 30
0.0
 11
120.3949999999999818
 21
245.289999999999992
 31
0.0
  0
LINE
  5
A5
100
AcDbEntity
  8
0
 62
256
370
100
 48
1.0
  6
BYLAYER
100
AcDbLine
 10
165.3549999999999613
 20
22.2421499999999952
 30
0.0
 11
156.4649999999999466
 21
22.2421499999999952
 31
0.0
  0
ARC
  5
A6
100
AcDbEntity
  8
0
 62
256
370
100
 48
1.0
  6
BYLAYER
100
AcDbCircle
 10
17.0250000000000199
 20
102.61099999999999
 30
0.0
 40
5.0800000000000001
100
AcDbArc
 50
90.0000000000000142
 51
180.0
  0
ARC
  5
A7
100
AcDbEntity
  8
0
 62
256
370
100
 48
1.0
  6
BYLAYER
100
AcDbCircle
 10
22.0708193053994322
 20
168.9171626240784576
 30
0.0
 40
2.6475362931764663
100
AcDbArc
 50
346.3640308372420122
 51
82.8655131081850129
  0
LINE
  5
A8
100
AcDbEntity
  8
0
 62
256
370
100
 48
1.0
  6
BYLAYER
100
AcDbLine
 10
120.3949999999999818
 20
245.289999999999992
 30
0.0
 11
117.8549999999999613
 21
245.289999999999992
 31
0.0
  0
LINE
  5
A9
100
AcDbEntity
  8
0
 62
256
370
100
 48
1.0
  6
BYLAYER
100
AcDbLine
 10
156.4649999999999466
 20
22.2421499999999952
 30
0.0
 11
156.4649999999999466
 21
33.672150000000002
 31
0.0
  0
SPLINE
  5
AA
100
AcDbEntity
  8
0
 62
256
370
100
 48
1.0
  6
BYLAYER
100
AcDbSpline
 70
8
 71
3
 72
8
 73
4
 74
0
 40
0.0
 40
0.0
 40
0.0
 40
0.0
 40
1.0
 40
1.0
 40
1.0
 40
1.0
 10
10.9797999999999689
 20
117.4699999999999989
 30
0.0
 10
13.2150000000000318
 20
112.7709999999999582
 30
0.0
 10
11.602099999999993
 20
109.2657999999999845
 30
0.0
 10
10.1035000000000394
 20
105.7860000000000014
 30
0.0
  0
LINE
  5
AB
100
AcDbEntity
  8
0
 62
256
370
100
 48
1.0
  6
BYLAYER
100
AcDbLine
 10
24.6437300000000263
 20
168.2930000000000064
 30
0.0
 11
24.6424599999999501
 21
167.1499999999999773
 31
0.0
  0
LINE
  5
AC
100
AcDbEntity
  8
0
 62
256
370
100
 48
1.0
  6
BYLAYER
100
AcDbLine
 10
122.9349999999999881
 20
245.289999999999992
 30
0.0
 11
122.9349999999999881
 21
242.75
 31
0.0
  0
LINE
  5
AD
100
AcDbEntity
  8
0
 62
256
370
100
 48
1.0
  6
BYLAYER
100
AcDbLine
 10
156.4649999999999466
 20
33.672150000000002
 30
0.0
 11
154.0392999999999972
 21
33.672150000000002
 31
0.0
  0
ARC
  5
AE
100
AcDbEntity
  8
0
 62
256
370
100
 48
1.0
  6
BYLAYER
100
AcDbCircle
 10
17.0580961751909115
 20
102.5916538414579975
 30
0.0
 40
7.6531206275984198
100
AcDbArc
 50
155.3299998645055382
 51
179.8551630806959452
  0
LINE
  5
AF
100
AcDbEntity
  8
0
 62
256
370
100
 48
1.0
  6
BYLAYER
100
AcDbLine
 10
24.6424599999999501
 20
167.1499999999999773
 30
0.0
 11
24.6424599999999501
 21
167.1499999999999773
 31
0.0
  0
LINE
  5
B0
100
AcDbEntity
  8
0
 62
256
370
100
 48
1.0
  6
BYLAYER
100
AcDbLine
 10
122.9349999999999881
 20
242.75
 30
0.0
 11
125.4749999999999943
 21
242.75
 31
0.0
  0
LINE
  5
B1
100
AcDbEntity
  8
0
 62
256
370
100
 48
1.0
  6
BYLAYER
100
AcDbLine
 10
154.0392999999999972
 20
33.672150000000002
 30
0.0
 11
166.625
 21
46.2578500000000048
 31
0.0
  0
ARC
  5
B2
100
AcDbEntity
  8
0
 62
256
370
100
 48
1.0
  6
BYLAYER
100
AcDbCircle
 10
17.0250000000000199
 20
102.61099999999999
 30
0.0
 40
7.6200000000000001
100
AcDbArc
 50
180.0
 51
270.0
  0
LINE
  5
B3
100
AcDbEntity
  8
0
 62
256
370
100
 48
1.0
  6
BYLAYER
100
AcDbLine
 10
34.8050000000000281
 20
172.2300000000000466
 30
0.0
 11
34.8050000000000281
 21
170.960000000000008
 31
0.0
  0
LINE
  5
B4
100
AcDbEntity
  8
0
 62
256
370
100
 48
1.0
  6
BYLAYER
100
AcDbLine
 10
125.4749999999999943
 20
242.75
 30
0.0
 11
125.4749999999999943
 21
245.289999999999992
 31
0.0
  0
ARC
  5
B5
100
AcDbEntity
  8
0
 62
256
370
100
 48
1.0
  6
BYLAYER
100
AcDbCircle
 10
110.2350000000000136
 20
27.3919900366544873
 30
0.0
 40
4.4449999999999994
100
AcDbArc
 50
180.0
 51
270.0
  0
ARC
  5
B6
100
AcDbEntity
  8
0
 62
256
370
100
 48
1.0
  6
BYLAYER
100
AcDbCircle
 10
16.7544782407408519
 20
103.4719541666646307
 30
0.0
 40
8.4852675620335702
100
AcDbArc
 50
271.8269762115662047
 51
277.2485688042472134
  0
LINE
  5
B7
100
AcDbEntity
  8
0
 62
256
370
100
 48
1.0
  6
BYLAYER
100
AcDbLine
 10
34.8050000000000281
 20
170.960000000000008
 30
0.0
 11
27.1849999999999241
 21
170.960000000000008
 31
0.0
  0
LINE
  5
B8
100
AcDbEntity
  8
0
 62
256
370
100
 48
1.0
  6
BYLAYER
100
AcDbLine
 10
125.4749999999999943
 20
245.289999999999992
 30
0.0
 11
122.9349999999999881
 21
245.289999999999992
 31
0.0
  0
ARC
  5
B9
100
AcDbEntity
  8
0
 62
256
370
100
 48
1.0
  6
BYLAYER
100
AcDbCircle
 10
110.2350000000000136
 20
27.3919900366544873
 30
0.0
 40
4.4449999999999994
100
AcDbArc
 50
90.0000000000000142
 51
180.0
  0
LINE
  5
BA
100
AcDbEntity
  8
0
 62
256
370
100
 48
1.0
  6
BYLAYER
100
AcDbLine
 10
17.8250999999999777
 20
95.0544999999999902
 30
0.0
 11
21.5842999999999847
 21
91.2952999999999832
 31
0.0
  0
LINE
  5
BB
100
AcDbEntity
  8
0
 62
256
370
100
 48
1.0
  6
BYLAYER
100
AcDbLine
 10
27.1849999999999241
 20
170.960000000000008
 30
0.0
 11
27.1849999999999241
 21
172.2300000000000466
 31
0.0
  0
LINE
  5
BC
100
AcDbEntity
  8
0
 62
256
370
100
 48
1.0
  6
BYLAYER
100
AcDbLine
 10
112.7750000000000057
 20
240.210000000000008
 30
0.0
 11
112.7750000000000057
 21
237.6700000000000159
 31
0.0
  0
ARC
  5
BD
100
AcDbEntity
  8
0
 62
256
370
100
 48
1.0
  6
BYLAYER
100
AcDbCircle
 10
110.2350000000000136
 20
27.3919900366544873
 30
0.0
 40
4.4449999999999994
100
AcDbArc
 50
0.0
 51
90.0000000000000142
  0
LINE
  5
BE
100
AcDbEntity
  8
0
 62
256
370
100
 48
1.0
  6
BYLAYER
100
AcDbLine
 10
21.5842999999999847
 20
91.2952999999999832
 30
0.0
 11
23.3749999999999574
 21
89.5300000000000011
 31
0.0
  0
LINE
  5
BF
100
AcDbEntity
  8
0
 62
256
370
100
 48
1.0
  6
BYLAYER
100
AcDbLine
 10
27.1849999999999241
 20
172.2300000000000466
 30
0.0
 11
34.8050000000000281
 21
172.2300000000000466
 31
0.0
  0
LINE
  5
C0
100
AcDbEntity
  8
0
 62
256
370
100
 48
1.0
  6
BYLAYER
100
AcDbLine
 10
112.7750000000000057
 20
237.6700000000000159
 30
0.0
 11
115.3150000000000119
 21
237.6700000000000159
 31
0.0
  0
ARC
  5
C1
100
AcDbEntity
  8
0
 62
256
370
100
 48
1.0
  6
BYLAYER
100
AcDbCircle
 10
110.2350000000000136
 20
27.3919900366544873
 30
0.0
 40
4.4449999999999994
100
AcDbArc
 50
270.0
 51
0.0
  0
LINE
  5
C2
100
AcDbEntity
  8
0
 62
256
370
100
 48
1.0
  6
BYLAYER
100
AcDbLine
 10
23.3749999999999574
 20
89.5300000000000011
 30
0.0
 11
25.1657000000000579
 21
91.2952999999999832
 31
0.0
  0
LINE
  5
C3
100
AcDbEntity
  8
0
 62
256
370
100
 48
1.0
  6
BYLAYER
100
AcDbLine
 10
34.8050000000000281
 20
176.039999999999992
 30
0.0
 11
34.8050000000000281
 21
174.7700000000000387
 31
0.0
  0
LINE
  5
C4
100
AcDbEntity
  8
0
 62
256
370
100
 48
1.0
  6
BYLAYER
100
AcDbLine
 10
115.3150000000000119
 20
237.6700000000000159
 30
0.0
 11
115.3150000000000119
 21
240.210000000000008
 31
0.0
  0
ARC
  5
C5
100
AcDbEntity
  8
0
 62
256
370
100
 48
1.0
  6
BYLAYER
100
AcDbCircle
 10
110.2350000000000136
 20
27.3919900366544873
 30
0.0
 40
6.3499999999999988
100
AcDbArc
 50
90.0000000000000142
 51
180.0
  0
LINE
  5
C6
100
AcDbEntity
  8
0
 62
256
370
100
 48
1.0
  6
BYLAYER
100
AcDbLine
 10
25.1657000000000579
 20
91.2952999999999832
 30
0.0
 11
28.9249000000000649
 21
95.0544999999999902
 31
0.0
  0
LINE
  5
C7
100
AcDbEntity
  8
0
 62
256
370
100
 48
1.0
  6
BYLAYER
100
AcDbLine
 10
34.8050000000000281
 20
174.7700000000000387
 30
0.0
 11
27.1849999999999241
 21
174.7700000000000387
 31
0.0
  0
LINE
  5
C8
100
AcDbEntity
  8
0
 62
256
370
100
 48
1.0
  6
BYLAYER
100
AcDbLine
 10
115.3150000000000119
 20
240.210000000000008
 30
0.0
 11
112.7750000000000057
 21
240.210000000000008
 31
0.0
  0
ARC
  5
C9
100
AcDbEntity
  8
0
 62
256
370
100
 48
1.0
  6
BYLAYER
100
AcDbCircle
 10
110.2350000000000136
 20
27.3919900366544873
 30
0.0
 40
6.3499999999999988
100
AcDbArc
 50
180.0
 51
270.0
  0
ARC
  5
CA
100
AcDbEntity
  8
0
 62
256
370
100
 48
1.0
  6
BYLAYER
100
AcDbCircle
 10
29.9955217592590628
 20
103.4719541666639913
 30
0.0
 40
8.4852675620329219
100
AcDbArc
 50
262.7514311957523887
 51
268.173023788433909
  0
LINE
  5
CB
100
AcDbEntity
  8
0
 62
256
370
100
 48
1.0
  6
BYLAYER
100
AcDbLine
 10
27.1849999999999241
 20
174.7700000000000387
 30
0.0
 11
27.1849999999999241
 21
176.039999999999992
 31
0.0
  0
LINE
  5
CC
100
AcDbEntity
  8
0
 62
256
370
100
 48
1.0
  6
BYLAYER
100
AcDbLine
 10
117.8549999999999613
 20
240.210000000000008
 30
0.0
 11
117.8549999999999613
 21
237.6700000000000159
 31
0.0
  0
ARC
  5
CD
100
AcDbEntity
  8
0
 62
256
370
100
 48
1.0
  6
BYLAYER
100
AcDbCircle
 10
110.2350000000000136
 20
27.3919900366544873
 30
0.0
 40
6.3499999999999988
100
AcDbArc
 50
270.0
 51
0.0
  0
ARC
  5
CE
100
AcDbEntity
  8
0
 62
256
370
100
 48
1.0
  6
BYLAYER
100
AcDbCircle
 10
29.7250000000000227
 20
102.61099999999999
 30
0.0
 40
7.6200000000000001
100
AcDbArc
 50
270.0
 51
0.0
  0
LINE
  5
CF
100
AcDbEntity
  8
0
 62
256
370
100
 48
1.0
  6
BYLAYER
100
AcDbLine
 10
27.1849999999999241
 20
176.039999999999992
 30
0.0
 11
34.8050000000000281
 21
176.039999999999992
 31
0.0
  0
LINE
  5
D0
100
AcDbEntity
  8
0
 62
256
370
100
 48
1.0
  6
BYLAYER
100
AcDbLine
 10
117.8549999999999613
 20
237.6700000000000159
 30
0.0
 11
120.3949999999999818
 21
237.6700000000000159
 31
0.0
  0
ARC
  5
D1
100
AcDbEntity
  8
0
 62
256
370
100
 48
1.0
  6
BYLAYER
100
AcDbCircle
 10
110.2350000000000136
 20
27.3919900366544873
 30
0.0
 40
6.3499999999999988
100
AcDbArc
 50
0.0
 51
90.0000000000000142
  0
ARC
  5
D2
100
AcDbEntity
  8
0
 62
256
370
100
 48
1.0
  6
BYLAYER
100
AcDbCircle
 10
29.6919038248090033
 20
102.5916538414579549
 30
0.0
 40
7.6531206275984474
100
AcDbArc
 50
0.1448369193040411
 51
24.6700001354945897
  0
LINE
  5
D3
100
AcDbEntity
  8
0
 62
256
370
100
 48
1.0
  6
BYLAYER
100
AcDbLine
 10
34.8050000000000281
 20
179.8500000000000227
 30
0.0
 11
34.8050000000000281
 21
178.5800000000000409
 31
0.0
  0
LINE
  5
D4
100
AcDbEntity
  8
0
 62
256
370
100
 48
1.0
  6
BYLAYER
100
AcDbLine
 10
120.3949999999999818
 20
237.6700000000000159
 30
0.0
 11
120.3949999999999818
 21
240.210000000000008
 31
0.0
  0
LINE
  5
D5
100
AcDbEntity
  8
0
 62
256
370
100
 48
1.0
  6
BYLAYER
100
AcDbLine
 10
122.6809999999999974
 20
36.281990036654463
 30
0.0
 11
128.0150000000000148
 21
36.281990036654463
 31
0.0
  0
SPLINE
  5
D6
100
AcDbEntity
  8
0
 62
256
370
100
 48
1.0
  6
BYLAYER
100
AcDbSpline
 70
8
 71
3
 72
8
 73
4
 74
0
 40
0.0
 40
0.0
 40
0.0
 40
0.0
 40
1.0
 40
1.0
 40
1.0
 40
1.0
 10
36.6465000000000032
 20
105.7860000000000014
 30
0.0
 10
35.1479000000000497
 20
109.2657999999999845
 30
0.0
 10
33.5350000000000108
 20
112.7709999999999582
 30
0.0
 10
35.7701999999999458
 20
117.4699999999999989
 30
0.0
  0
LINE
  5
D7
100
AcDbEntity
  8
0
 62
256
370
100
 48
1.0
  6
BYLAYER
100
AcDbLine
 10
34.8050000000000281
 20
178.5800000000000409
 30
0.0
 11
27.1849999999999241
 21
178.5800000000000409
 31
0.0
  0
LINE
  5
D8
100
AcDbEntity
  8
0
 62
256
370
100
 48
1.0
  6
BYLAYER
100
AcDbLine
 10
120.3949999999999818
 20
240.210000000000008
 30
0.0
 11
117.8549999999999613
 21
240.210000000000008
 31
0.0
  0
LINE
  5
D9
100
AcDbEntity
  8
0
 62
256
370
100
 48
1.0
  6
BYLAYER
100
AcDbLine
 10
128.0150000000000148
 20
36.281990036654463
 30
0.0
 11
128.0150000000000148
 21
38.567990036654507
 31
0.0
  0
ARC
  5
DA
100
AcDbEntity
  8
0
 62
256
370
100
 48
1.0
  6
BYLAYER
100
AcDbCircle
 10
22.2292315494700574
 20
134.4911151559926736
 30
0.0
 40
21.7503146582253954
100
AcDbArc
 50
273.0196389136729067
 51
308.5036327489827954
  0
LINE
  5
DB
100
AcDbEntity
  8
0
 62
256
370
100
 48
1.0
  6
BYLAYER
100
AcDbLine
 10
27.1849999999999241
 20
178.5800000000000409
 30
0.0
 11
27.1849999999999241
 21
179.8500000000000227
 31
0.0
  0
LINE
  5
DC
100
AcDbEntity
  8
0
 62
256
370
100
 48
1.0
  6
BYLAYER
100
AcDbLine
 10
122.9349999999999881
 20
240.210000000000008
 30
0.0
 11
122.9349999999999881
 21
237.6700000000000159
 31
0.0
  0
LINE
  5
DD
100
AcDbEntity
  8
0
 62
256
370
100
 48
1.0
  6
BYLAYER
100
AcDbLine
 10
128.0150000000000148
 20
38.567990036654507
 30
0.0
 11
123.951000000000036
 21
38.567990036654507
 31
0.0
  0
ARC
  5
DE
100
AcDbEntity
  8
0
 62
256
370
100
 48
1.0
  6
BYLAYER
100
AcDbCircle
 10
24.5207684505299852
 20
134.4911151559926736
 30
0.0
 40
21.7503146582253422
100
AcDbArc
 50
231.4963672510171762
 51
266.9803610863270933
  0
LINE
  5
DF
100
AcDbEntity
  8
0
 62
256
370
100
 48
1.0
  6
BYLAYER
100
AcDbLine
 10
27.1849999999999241
 20
179.8500000000000227
 30
0.0
 11
34.8050000000000281
 21
179.8500000000000227
 31
0.0
  0
LINE
  5
E0
100
AcDbEntity
  8
0
 62
256
370
100
 48
1.0
  6
BYLAYER
100
AcDbLine
 10
122.9349999999999881
 20
237.6700000000000159
 30
0.0
 11
125.4749999999999943
 21
237.6700000000000159
 31
0.0
  0
LINE
  5
E1
100
AcDbEntity
  8
0
 62
256
370
100
 48
1.0
  6
BYLAYER
100
AcDbLine
 10
123.951000000000036
 20
38.567990036654507
 30
0.0
 11
121.4872000000000156
 21
42.7208900366544952
 31
0.0
  0
LINE
  5
E2
100
AcDbEntity
  8
0
 62
256
370
100
 48
1.0
  6
BYLAYER
100
AcDbLine
 10
57.8045833333333547
 20
107.4793333333333436
 30
0.0
 11
60.1752500000000339
 21
107.4793333333333436
 31
0.0
  0
ARC
  5
E3
100
AcDbEntity
  8
0
 62
256
370
100
 48
1.0
  6
BYLAYER
100
AcDbCircle
 10
64.5250000000000199
 20
173.5
 30
0.0
 40
2.54
100
AcDbArc
 50
180.0
 51
270.0
  0
LINE
  5
E4
100
AcDbEntity
  8
0
 62
256
370
100
 48
1.0
  6
BYLAYER
100
AcDbLine
 10
125.4749999999999943
 20
237.6700000000000159
 30
0.0
 11
125.4749999999999943
 21
240.210000000000008
 31
0.0
  0
ARC
  5
E5
100
AcDbEntity
  8
0
 62
256
370
100
 48
1.0
  6
BYLAYER
100
AcDbCircle
 10
119.6256067543215522
 20
41.6041326406417937
 30
0.0
 40
2.1708699854907669
100
AcDbArc
 50
30.9592629538533473
 51
89.804869662403604
  0
LINE
  5
E6
100
AcDbEntity
  8
0
 62
256
370
100
 48
1.0
  6
BYLAYER
100
AcDbLine
 10
60.1752500000000339
 20
107.4793333333333436
 30
0.0
 11
62.2072499999999877
 21
104.9393333333333516
 31
0.0
  0
ARC
  5
E7
100
AcDbEntity
  8
0
 62
256
370
100
 48
1.0
  6
BYLAYER
100
AcDbCircle
 10
64.5250000000000199
 20
173.5
 30
0.0
 40
2.54
100
AcDbArc
 50
90.0000000000000142
 51
180.0
  0
LINE
  5
E8
100
AcDbEntity
  8
0
 62
256
370
100
 48
1.0
  6
BYLAYER
100
AcDbLine
 10
125.4749999999999943
 20
240.210000000000008
 30
0.0
 11
122.9349999999999881
 21
240.210000000000008
 31
0.0
  0
ARC
  5
E9
100
AcDbEntity
  8
0
 62
256
370
100
 48
1.0
  6
BYLAYER
100
AcDbCircle
 10
119.6211834883296916
 20
41.6570496646632051
 30
0.0
 40
2.1179733353511661
100
AcDbArc
 50
89.6803360323860801
 51
135.5593938636947939
  0
LINE
  5
EA
100
AcDbEntity
  8
0
 62
256
370
100
 48
1.0
  6
BYLAYER
100
AcDbLine
 10
62.2072499999999877
 20
104.9393333333333516
 30
0.0
 11
68.3032499999999771
 21
104.9393333333333516
 31
0.0
  0
ARC
  5
EB
100
AcDbEntity
  8
0
 62
256
370
100
 48
1.0
  6
BYLAYER
100
AcDbCircle
 10
64.5250000000000199
 20
173.5
 30
0.0
 40
2.54
100
AcDbArc
 50
0.0
 51
90.0000000000000142
  0
LINE
  5
EC
100
AcDbEntity
  8
0
 62
256
370
100
 48
1.0
  6
BYLAYER
100
AcDbLine
 10
112.7750000000000057
 20
235.1300000000000239
 30
0.0
 11
112.7750000000000057
 21
232.589999999999975
 31
0.0
  0
LINE
  5
ED
100
AcDbEntity
  8
0
 62
256
370
100
 48
1.0
  6
BYLAYER
100
AcDbLine
 10
118.1089999999999947
 20
43.1399900366544671
 30
0.0
 11
113.4099999999999966
 21
38.4536900366544643
 31
0.0
  0
LINE
  5
EE
100
AcDbEntity
  8
0
 62
256
370
100
 48
1.0
  6
BYLAYER
100
AcDbLine
 10
68.3032499999999771
 20
104.9393333333333516
 30
0.0
 11
64.5779166666666669
 21
116.2000000000000028
 31
0.0
  0
ARC
  5
EF
100
AcDbEntity
  8
0
 62
256
370
100
 48
1.0
  6
BYLAYER
100
AcDbCircle
 10
64.5250000000000199
 20
173.5
 30
0.0
 40
2.54
100
AcDbArc
 50
270.0
 51
0.0
  0
LINE
  5
F0
100
AcDbEntity
  8
0
 62
256
370
100
 48
1.0
  6
BYLAYER
100
AcDbLine
 10
112.7750000000000057
 20
232.589999999999975
 30
0.0
 11
115.3150000000000119
 21
232.589999999999975
 31
0.0
  0
ARC
  5
F1
100
AcDbEntity
  8
0
 62
256
370
100
 48
1.0
  6
BYLAYER
100
AcDbCircle
 10
114.8792011389421077
 20
36.9470337808932783
 30
0.0
 40
2.1044156100193399
100
AcDbArc
 50
134.2788946108650805
 51
180.8180124771277804
  0
LINE
  5
F2
100
AcDbEntity
  8
0
 62
256
370
100
 48
1.0
  6
BYLAYER
100
AcDbLine
 10
64.5779166666666669
 20
116.2000000000000028
 30
0.0
 11
67.5412500000000051
 21
116.2000000000000028
 31
0.0
  0
ARC
  5
F3
100
AcDbEntity
  8
0
 62
256
370
100
 48
1.0
  6
BYLAYER
100
AcDbCircle
 10
64.5246748115985014
 20
173.511843796382891
 30
0.0
 40
7.60815621056675
100
AcDbArc
 50
19.4081634063473842
 51
89.9975510593575763
  0
LINE
  5
F4
100
AcDbEntity
  8
0
 62
256
370
100
 48
1.0
  6
BYLAYER
100
AcDbLine
 10
115.3150000000000119
 20
232.589999999999975
 30
0.0
 11
115.3150000000000119
 21
235.1300000000000239
 31
0.0
  0
ARC
  5
F5
100
AcDbEntity
  8
0
 62
256
370
100
 48
1.0
  6
BYLAYER
100
AcDbCircle
 10
114.9201567059050717
 20
36.9118364312254386
 30
0.0
 40
2.1451628965042127
100
AcDbArc
 50
179.8623507217625388
 51
240.2133387695836575
  0
LINE
  5
F6
100
AcDbEntity
  8
0
 62
256
370
100
 48
1.0
  6
BYLAYER
100
AcDbLine
 10
67.5412500000000051
 20
116.2000000000000028
 30
0.0
 11
74.3145833333333314
 21
105.0239999999999867
 31
0.0
  0
ARC
  5
F7
100
AcDbEntity
  8
0
 62
256
370
100
 48
1.0
  6
BYLAYER
100
AcDbCircle
 10
64.5250000000000199
 20
173.5
 30
0.0
 40
7.6200000000000001
100
AcDbArc
 50
90.0000000000000142
 51
180.0
  0
LINE
  5
F8
100
AcDbEntity
  8
0
 62
256
370
100
 48
1.0
  6
BYLAYER
100
AcDbLine
 10
115.3150000000000119
 20
235.1300000000000239
 30
0.0
 11
112.7750000000000057
 21
235.1300000000000239
 31
0.0
  0
LINE
  5
F9
100
AcDbEntity
  8
0
 62
256
370
100
 48
1.0
  6
BYLAYER
100
AcDbLine
 10
113.8545000000000016
 20
35.0500900366544954
 30
0.0
 11
118.1089999999999947
 21
32.4719900366544749
 31
0.0
  0
LINE
  5
FA
100
AcDbEntity
  8
0
 62
256
370
100
 48
1.0
  6
BYLAYER
100
AcDbLine
 10
74.3145833333333314
 20
105.0239999999999867
 30
0.0
 11
82.6119166666666871
 21
105.0239999999999867
 31
0.0
  0
ARC
  5
FB
100
AcDbEntity
  8
0
 62
256
370
100
 48
1.0
  6
BYLAYER
100
AcDbCircle
 10
64.5250000000000199
 20
173.5
 30
0.0
 40
7.6200000000000001
100
AcDbArc
 50
180.0
 51
270.0
  0
LINE
  5
FC
100
AcDbEntity
  8
0
 62
256
370
100
 48
1.0
  6
BYLAYER
100
AcDbLine
 10
117.8549999999999613
 20
235.1300000000000239
 30
0.0
 11
117.8549999999999613
 21
232.589999999999975
 31
0.0
  0
LINE
  5
FD
100
AcDbEntity
  8
0
 62
256
370
100
 48
1.0
  6
BYLAYER
100
AcDbLine
 10
118.1089999999999947
 20
32.4719900366544749
 30
0.0
 11
118.1089999999999947
 21
26.1219900366544913
 31
0.0
  0
SPLINE
  5
FE
100
AcDbEntity
  8
0
 62
256
370
100
 48
1.0
  6
BYLAYER
100
AcDbSpline
 70
8
 71
3
 72
8
 73
4
 74
0
 40
0.0
 40
0.0
 40
0.0
 40
0.0
 40
1.0
 40
1.0
 40
1.0
 40
1.0
 10
82.6119166666666871
 20
105.0239999999999867
 30
0.0
 10
84.3899166666666218
 20
105.0239999999999867
 30
0.0
 10
84.3899166666666218
 20
102.1453333333333262
 30
0.0
 10
82.6119166666666871
 20
102.1453333333333262
 30
0.0
  0
ARC
  5
FF
100
AcDbEntity
  8
0
 62
256
370
100
 48
1.0
  6
BYLAYER
100
AcDbCircle
 10
64.5246748115985014
 20
173.488156203617109
 30
0.0
 40
7.6081562105667615
100
AcDbArc
 50
270.0024489406426369
 51
340.5918365936527152
  0
LINE
  5
100
100
AcDbEntity
  8
0
 62
256
370
100
 48
1.0
  6
BYLAYER
100
AcDbLine
 10
117.8549999999999613
 20
232.589999999999975
 30
0.0
 11
120.3949999999999818
 21
232.589999999999975
 31
0.0
  0
LINE
  5
101
100
AcDbEntity
  8
0
 62
256
370
100
 48
1.0
  6
BYLAYER
100
AcDbLine
 10
118.1089999999999947
 20
26.1219900366544913
 30
0.0
 11
120.394999999999996
 21
26.1219900366544913
 31
0.0
  0
LINE
  5
102
100
AcDbEntity
  8
0
 62
256
370
100
 48
1.0
  6
BYLAYER
100
AcDbLine
 10
82.6119166666666871
 20
102.1453333333333262
 30
0.0
 11
74.3145833333333314
 21
102.1453333333333262
 31
0.0
  0
LINE
  5
103
100
AcDbEntity
  8
0
 62
256
370
100
 48
1.0
  6
BYLAYER
100
AcDbLine
 10
71.7005000000000337
 20
170.960000000000008
 30
0.0
 11
77.2250000000000227
 21
170.960000000000008
 31
0.0
  0
LINE
  5
104
100
AcDbEntity
  8
0
 62
256
370
100
 48
1.0
  6
BYLAYER
100
AcDbLine
 10
120.3949999999999818
 20
232.589999999999975
 30
0.0
 11
120.3949999999999818
 21
235.1300000000000239
 31
0.0
  0
LINE
  5
105
100
AcDbEntity
  8
0
 62
256
370
100
 48
1.0
  6
BYLAYER
100
AcDbLine
 10
120.394999999999996
 20
26.1219900366544913
 30
0.0
 11
120.394999999999996
 21
34.3769900366544903
 31
0.0
  0
LINE
  5
106
100
AcDbEntity
  8
0
 62
256
370
100
 48
1.0
  6
BYLAYER
100
AcDbLine
 10
74.3145833333333314
 20
102.1453333333333262
 30
0.0
 11
67.5412500000000051
 21
90.7999999999999972
 31
0.0
  0
LINE
  5
107
100
AcDbEntity
  8
0
 62
256
370
100
 48
1.0
  6
BYLAYER
100
AcDbLine
 10
77.2250000000000227
 20
170.960000000000008
 30
0.0
 11
77.2250000000000227
 21
165.8800000000000239
 31
0.0
  0
LINE
  5
108
100
AcDbEntity
  8
0
 62
256
370
100
 48
1.0
  6
BYLAYER
100
AcDbLine
 10
120.3949999999999818
 20
235.1300000000000239
 30
0.0
 11
117.8549999999999613
 21
235.1300000000000239
 31
0.0
  0
LINE
  5
109
100
AcDbEntity
  8
0
 62
256
370
100
 48
1.0
  6
BYLAYER
100
AcDbLine
 10
120.394999999999996
 20
34.3769900366544903
 30
0.0
 11
117.5374999999999943
 21
36.4724900366544773
 31
0.0
  0
LINE
  5
10A
100
AcDbEntity
  8
0
 62
256
370
100
 48
1.0
  6
BYLAYER
100
AcDbLine
 10
67.5412500000000051
 20
90.7999999999999972
 30
0.0
 11
64.5779166666666669
 21
90.7999999999999972
 31
0.0
  0
LINE
  5
10B
100
AcDbEntity
  8
0
 62
256
370
100
 48
1.0
  6
BYLAYER
100
AcDbLine
 10
77.2250000000000227
 20
165.8800000000000239
 30
0.0
 11
82.3050000000000495
 21
165.8800000000000239
 31
0.0
  0
LINE
  5
10C
100
AcDbEntity
  8
0
 62
256
370
100
 48
1.0
  6
BYLAYER
100
AcDbLine
 10
122.9349999999999881
 20
235.1300000000000239
 30
0.0
 11
122.9349999999999881
 21
232.589999999999975
 31
0.0
  0
LINE
  5
10D
100
AcDbEntity
  8
0
 62
256
370
100
 48
1.0
  6
BYLAYER
100
AcDbLine
 10
117.5374999999999943
 20
36.4724900366544773
 30
0.0
 11
120.4839000000000055
 21
39.4569900366544744
 31
0.0
  0
LINE
  5
10E
100
AcDbEntity
  8
0
 62
256
370
100
 48
1.0
  6
BYLAYER
100
AcDbLine
 10
64.5779166666666669
 20
90.7999999999999972
 30
0.0
 11
68.218583333333342
 21
102.0606666666666911
 31
0.0
  0
LINE
  5
10F
100
AcDbEntity
  8
0
 62
256
370
100
 48
1.0
  6
BYLAYER
100
AcDbLine
 10
82.3050000000000495
 20
165.8800000000000239
 30
0.0
 11
82.3050000000000495
 21
170.960000000000008
 31
0.0
  0
LINE
  5
110
100
AcDbEntity
  8
0
 62
256
370
100
 48
1.0
  6
BYLAYER
100
AcDbLine
 10
122.9349999999999881
 20
232.589999999999975
 30
0.0
 11
125.4749999999999943
 21
232.589999999999975
 31
0.0
  0
ARC
  5
111
100
AcDbEntity
  8
0
 62
256
370
100
 48
1.0
  6
BYLAYER
100
AcDbCircle
 10
128.0150000000000148
 20
27.3919900366544873
 30
0.0
 40
4.4449999999999994
100
AcDbArc
 50
180.0
 51
270.0
  0
LINE
  5
112
100
AcDbEntity
  8
0
 62
256
370
100
 48
1.0
  6
BYLAYER
100
AcDbLine
 10
68.218583333333342
 20
102.0606666666666911
 30
0.0
 11
62.2072499999999877
 21
102.0606666666666911
 31
0.0
  0
LINE
  5
113
100
AcDbEntity
  8
0
 62
256
370
100
 48
1.0
  6
BYLAYER
100
AcDbLine
 10
82.3050000000000495
 20
170.960000000000008
 30
0.0
 11
84.8449999999999989
 21
170.960000000000008
 31
0.0
  0
LINE
  5
114
100
AcDbEntity
  8
0
 62
256
370
100
 48
1.0
  6
BYLAYER
100
AcDbLine
 10
125.4749999999999943
 20
232.589999999999975
 30
0.0
 11
125.4749999999999943
 21
235.1300000000000239
 31
0.0
  0
ARC
  5
115
100
AcDbEntity
  8
0
 62
256
370
100
 48
1.0
  6
BYLAYER
100
AcDbCircle
 10
128.0150000000000148
 20
27.3919900366544873
 30
0.0
 40
4.4449999999999994
100
AcDbArc
 50
90.0000000000000142
 51
180.0
  0
LINE
  5
116
100
AcDbEntity
  8
0
 62
256
370
100
 48
1.0
  6
BYLAYER
100
AcDbLine
 10
62.2072499999999877
 20
102.0606666666666911
 30
0.0
 11
60.1752500000000339
 21
99.5206666666666564
 31
0.0
  0
LINE
  5
117
100
AcDbEntity
  8
0
 62
256
370
100
 48
1.0
  6
BYLAYER
100
AcDbLine
 10
84.8449999999999989
 20
170.960000000000008
 30
0.0
 11
84.8449999999999989
 21
176.039999999999992
 31
0.0
  0
LINE
  5
118
100
AcDbEntity
  8
0
 62
256
370
100
 48
1.0
  6
BYLAYER
100
AcDbLine
 10
125.4749999999999943
 20
235.1300000000000239
 30
0.0
 11
122.9349999999999881
 21
235.1300000000000239
 31
0.0
  0
ARC
  5
119
100
AcDbEntity
  8
0
 62
256
370
100
 48
1.0
  6
BYLAYER
100
AcDbCircle
 10
128.0150000000000148
 20
27.3919900366544873
 30
0.0
 40
4.4449999999999994
100
AcDbArc
 50
0.0
 51
90.0000000000000142
  0
LINE
  5
11A
100
AcDbEntity
  8
0
 62
256
370
100
 48
1.0
  6
BYLAYER
100
AcDbLine
 10
60.1752500000000339
 20
99.5206666666666564
 30
0.0
 11
57.8045833333333547
 21
99.5206666666666564
 31
0.0
  0
LINE
  5
11B
100
AcDbEntity
  8
0
 62
256
370
100
 48
1.0
  6
BYLAYER
100
AcDbLine
 10
84.8449999999999989
 20
176.039999999999992
 30
0.0
 11
71.7005000000000337
 21
176.039999999999992
 31
0.0
  0
LINE
  5
11C
100
AcDbEntity
  8
0
 62
256
370
100
 48
1.0
  6
BYLAYER
100
AcDbLine
 10
23.375000000000032
 20
248.1474999999999795
 30
0.0
 11
21.6859000000000215
 21
248.0331999999999937
 31
0.0
  0
ARC
  5
11D
100
AcDbEntity
  8
0
 62
256
370
100
 48
1.0
  6
BYLAYER
100
AcDbCircle
 10
128.0150000000000148
 20
27.3919900366544873
 30
0.0
 40
4.4449999999999994
100
AcDbArc
 50
270.0
 51
0.0
  0
LINE
  5
11E
100
AcDbEntity
  8
0
 62
256
370
100
 48
1.0
  6
BYLAYER
100
AcDbLine
 10
57.8045833333333547
 20
99.5206666666666564
 30
0.0
 11
59.0745833333333508
 21
103.5
 31
0.0
  0
ARC
  5
11F
100
AcDbEntity
  8
0
 62
256
370
100
 48
1.0
  6
BYLAYER
100
AcDbCircle
 10
119.125
 20
173.5
 30
0.0
 40
12.6999999999999975
100
AcDbArc
 50
90.0000000000000142
 51
180.0
  0
SPLINE
  5
120
100
AcDbEntity
  8
0
 62
256
370
100
 48
1.0
  6
BYLAYER
100
AcDbSpline
 70
8
 71
3
 72
8
 73
4
 74
0
 40
0.0
 40
0.0
 40
0.0
 40
0.0
 40
1.0
 40
1.0
 40
1.0
 40
1.0
 10
21.6859000000000215
 20
248.0331999999999937
 30
0.0
 10
20.5937000000000445
 20
249.3286000000000229
 30
0.0
 10
17.5330000000000332
 20
252.5925000000000011
 30
0.0
 10
14.4850000000000172
 20
252.5925000000000011
 30
0.0
  0
ARC
  5
121
100
AcDbEntity
  8
0
 62
256
370
100
 48
1.0
  6
BYLAYER
100
AcDbCircle
 10
128.0150000000000148
 20
27.3919900366544873
 30
0.0
 40
6.3499999999999988
100
AcDbArc
 50
90.0000000000000142
 51
180.0
  0
LINE
  5
122
100
AcDbEntity
  8
0
 62
256
370
100
 48
1.0
  6
BYLAYER
100
AcDbLine
 10
57.8045833333333547
 20
107.4793333333333436
 30
0.0
 11
59.0745833333333508
 21
103.5
 31
0.0
  0
ARC
  5
123
100
AcDbEntity
  8
0
 62
256
370
100
 48
1.0
  6
BYLAYER
100
AcDbCircle
 10
119.125
 20
173.5
 30
0.0
 40
12.6999999999999975
100
AcDbArc
 50
180.0
 51
270.0
  0
ARC
  5
124
100
AcDbEntity
  8
0
 62
256
370
100
 48
1.0
  6
BYLAYER
100
AcDbCircle
 10
22.4538542082891617
 20
248.1583735646408968
 30
0.0
 40
9.1194360920902628
100
AcDbArc
 50
150.9070319229243751
 51
208.4296379520670541
  0
ARC
  5
125
100
AcDbEntity
  8
0
 62
256
370
100
 48
1.0
  6
BYLAYER
100
AcDbCircle
 10
128.0150000000000148
 20
27.3919900366544873
 30
0.0
 40
6.3499999999999988
100
AcDbArc
 50
180.0
 51
270.0
  0
ARC
  5
126
100
AcDbEntity
  8
0
 62
256
370
100
 48
1.0
  6
BYLAYER
100
AcDbCircle
 10
114.9849916502855365
 20
102.0784516321903368
 30
0.0
 40
1.2726412189901657
100
AcDbArc
 50
345.4237757286069268
 51
74.9722281045256835
  0
ARC
  5
127
100
AcDbEntity
  8
0
 62
256
370
100
 48
1.0
  6
BYLAYER
100
AcDbCircle
 10
119.125
 20
173.5
 30
0.0
 40
12.6999999999999975
100
AcDbArc
 50
270.0
 51
0.0
  0
ARC
  5
128
100
AcDbEntity
  8
0
 62
256
370
100
 48
1.0
  6
BYLAYER
100
AcDbCircle
 10
18.3339184581711798
 20
240.4640741245135871
 30
0.0
 40
5.142817792723843
100
AcDbArc
 50
139.3131861378241183
 51
174.4741601456331352
  0
ARC
  5
129
100
AcDbEntity
  8
0
 62
256
370
100
 48
1.0
  6
BYLAYER
100
AcDbCircle
 10
128.0150000000000148
 20
27.3919900366544873
 30
0.0
 40
6.3499999999999988
100
AcDbArc
 50
270.0
 51
0.0
  0
LINE
  5
12A
100
AcDbEntity
  8
0
 62
256
370
100
 48
1.0
  6
BYLAYER
100
AcDbLine
 10
116.2166712407391032
 20
101.7581688528641308
 30
0.0
 11
114.5656712407390785
 21
95.6240688528641272
 31
0.0
  0
ARC
  5
12B
100
AcDbEntity
  8
0
 62
256
370
100
 48
1.0
  6
BYLAYER
100
AcDbCircle
 10
119.125
 20
173.5
 30
0.0
 40
12.6999999999999975
100
AcDbArc
 50
0.0
 51
90.0000000000000142
  0
LINE
  5
12C
100
AcDbEntity
  8
0
 62
256
370
100
 48
1.0
  6
BYLAYER
100
AcDbLine
 10
13.2150000000000425
 20
240.9592999999999847
 30
0.0
 11
10.763899999999996
 21
240.5910000000000082
 31
0.0
  0
ARC
  5
12D
100
AcDbEntity
  8
0
 62
256
370
100
 48
1.0
  6
BYLAYER
100
AcDbCircle
 10
128.0150000000000148
 20
27.3919900366544873
 30
0.0
 40
6.3499999999999988
100
AcDbArc
 50
0.0
 51
90.0000000000000142
  0
ARC
  5
12E
100
AcDbEntity
  8
0
 62
256
370
100
 48
1.0
  6
BYLAYER
100
AcDbCircle
 10
113.3436270595747715
 20
95.9418947697944304
 30
0.0
 40
1.2626976257957381
100
AcDbArc
 50
254.9743669752874382
 51
345.4216368578449874
  0
ARC
  5
12F
100
AcDbEntity
  8
0
 62
256
370
100
 48
1.0
  6
BYLAYER
100
AcDbCircle
 10
119.0991861693940024
 20
173.6572570139738048
 30
0.0
 40
11.272772541963807
100
AcDbArc
 50
57.2612902417344429
 51
89.8687967104900025
  0
LINE
  5
130
100
AcDbEntity
  8
0
 62
256
370
100
 48
1.0
  6
BYLAYER
100
AcDbLine
 10
10.763899999999996
 20
240.5910000000000082
 30
0.0
 11
11.0306000000000246
 21
239.3463999999999885
 31
0.0
  0
ARC
  5
131
100
AcDbEntity
  8
0
 62
256
370
100
 48
1.0
  6
BYLAYER
100
AcDbCircle
 10
124.2145250000000232
 20
45.1624650366544813
 30
0.0
 40
2.276494926691031
100
AcDbArc
 50
269.7602701039189128
 51
0.2397298960808339
  0
ARC
  5
132
100
AcDbEntity
  8
0
 62
256
370
100
 48
1.0
  6
BYLAYER
100
AcDbCircle
 10
113.3154204041410225
 20
95.9140659206898079
 30
0.0
 40
1.2286708767722692
100
AcDbArc
 50
163.0743813984181259
 51
255.9083422079224874
  0
LINE
  5
133
100
AcDbEntity
  8
0
 62
256
370
100
 48
1.0
  6
BYLAYER
100
AcDbLine
 10
125.1956000000000415
 20
183.1392999999999915
 30
0.0
 11
124.840000000000046
 21
182.3900000000000148
 31
0.0
  0
LINE
  5
134
100
AcDbEntity
  8
0
 62
256
370
100
 48
1.0
  6
BYLAYER
100
AcDbLine
 10
11.0306000000000246
 20
239.3463999999999885
 30
0.0
 11
13.2658000000000236
 21
239.6765999999999508
 31
0.0
  0
ARC
  5
135
100
AcDbEntity
  8
0
 62
256
370
100
 48
1.0
  6
BYLAYER
100
AcDbCircle
 10
124.2145250000000232
 20
45.1815150366544742
 30
0.0
 40
2.2764949266910368
100
AcDbArc
 50
359.760270103919197
 51
90.2397298960810019
  0
LINE
  5
136
100
AcDbEntity
  8
0
 62
256
370
100
 48
1.0
  6
BYLAYER
100
AcDbLine
 10
112.1399712407390865
 20
96.2717688528641418
 30
0.0
 11
113.7655712407391206
 21
102.4058688528641454
 31
0.0
  0
LINE
  5
137
100
AcDbEntity
  8
0
 62
256
370
100
 48
1.0
  6
BYLAYER
100
AcDbLine
 10
124.840000000000046
 20
182.3900000000000148
 30
0.0
 11
120.3950000000000387
 21
182.3900000000000148
 31
0.0
  0
LINE
  5
138
100
AcDbEntity
  8
0
 62
256
370
100
 48
1.0
  6
BYLAYER
100
AcDbLine
 10
13.2658000000000236
 20
239.6765999999999508
 30
0.0
 11
13.4436000000000213
 21
238.7748999999999455
 31
0.0
  0
ARC
  5
139
100
AcDbEntity
  8
0
 62
256
370
100
 48
1.0
  6
BYLAYER
100
AcDbCircle
 10
124.1954750000000303
 20
45.1815150366544742
 30
0.0
 40
2.2764949266910328
100
AcDbArc
 50
89.760270103919197
 51
180.2397298960808314
  0
ARC
  5
13A
100
AcDbEntity
  8
0
 62
256
370
100
 48
1.0
  6
BYLAYER
100
AcDbCircle
 10
114.9876154219034277
 20
102.0880429359338848
 30
0.0
 40
1.2626976257957303
100
AcDbArc
 50
74.9743669752870545
 51
165.4216368578454137
  0
LINE
  5
13B
100
AcDbEntity
  8
0
 62
256
370
100
 48
1.0
  6
BYLAYER
100
AcDbLine
 10
120.3950000000000387
 20
182.3900000000000148
 30
0.0
 11
119.125
 21
182.3900000000000148
 31
0.0
  0
LINE
  5
13C
100
AcDbEntity
  8
0
 62
256
370
100
 48
1.0
  6
BYLAYER
100
AcDbLine
 10
13.4436000000000213
 20
238.7748999999999455
 30
0.0
 11
11.4496999999999964
 21
237.5810999999999638
 31
0.0
  0
ARC
  5
13D
100
AcDbEntity
  8
0
 62
256
370
100
 48
1.0
  6
BYLAYER
100
AcDbCircle
 10
124.1954750000000303
 20
45.1624650366544813
 30
0.0
 40
2.2764949266910328
100
AcDbArc
 50
179.7602701039191686
 51
270.239729896080803
  0
ARC
  5
13E
100
AcDbEntity
  8
0
 62
256
370
100
 48
1.0
  6
BYLAYER
100
AcDbCircle
 10
120.0649916502855632
 20
102.0784516321903368
 30
0.0
 40
1.2726412189901635
100
AcDbArc
 50
345.4237757286069268
 51
74.972228104525783
  0
LINE
  5
13F
100
AcDbEntity
  8
0
 62
256
370
100
 48
1.0
  6
BYLAYER
100
AcDbLine
 10
119.125
 20
182.3900000000000148
 30
0.0
 11
116.9406000000000461
 21
183.456799999999987
 31
0.0
  0
LINE
  5
140
100
AcDbEntity
  8
0
 62
256
370
100
 48
1.0
  6
BYLAYER
100
AcDbLine
 10
11.4496999999999964
 20
237.5810999999999638
 30
0.0
 11
12.04660000000003
 21
236.4508000000000152
 31
0.0
  0
ARC
  5
141
100
AcDbEntity
  8
0
 62
256
370
100
 48
1.0
  6
BYLAYER
100
AcDbCircle
 10
30.4862294405710443
 20
30.0475614448103556
 30
0.0
 40
14.9919253405435864
100
AcDbArc
 50
73.2573689529314436
 51
90.4824263387567242
  0
LINE
  5
142
100
AcDbEntity
  8
0
 62
256
370
100
 48
1.0
  6
BYLAYER
100
AcDbLine
 10
121.2966712407391299
 20
101.7581688528641308
 30
0.0
 11
118.6677712407390857
 21
91.9410688528641344
 31
0.0
  0
LINE
  5
143
100
AcDbEntity
  8
0
 62
256
370
100
 48
1.0
  6
BYLAYER
100
AcDbLine
 10
116.9406000000000461
 20
183.456799999999987
 30
0.0
 11
117.3851000000000084
 21
184.7649000000000115
 31
0.0
  0
LINE
  5
144
100
AcDbEntity
  8
0
 62
256
370
100
 48
1.0
  6
BYLAYER
100
AcDbLine
 10
12.04660000000003
 20
236.4508000000000152
 30
0.0
 11
13.8881000000000476
 21
237.5810999999999638
 31
0.0
  0
ARC
  5
145
100
AcDbEntity
  8
0
 62
256
370
100
 48
1.0
  6
BYLAYER
100
AcDbCircle
 10
29.8257362132352952
 20
33.2395892456171538
 30
0.0
 40
11.8114553935696573
100
AcDbArc
 50
87.407473755083501
 51
123.1027636510321059
  0
ARC
  5
146
100
AcDbEntity
  8
0
 62
256
370
100
 48
1.0
  6
BYLAYER
100
AcDbCircle
 10
117.4464472628176139
 20
92.2529470117985397
 30
0.0
 40
1.26051586466267
100
AcDbArc
 50
254.3151147683591375
 51
345.6750444659203367
  0
ARC
  5
147
100
AcDbEntity
  8
0
 62
256
370
100
 48
1.0
  6
BYLAYER
100
AcDbCircle
 10
119.1820698232323537
 20
175.0780872474746275
 30
0.0
 40
9.8520780471987344
100
AcDbArc
 50
90.3318973195380437
 51
100.5092932479869319
  0
SPLINE
  5
148
100
AcDbEntity
  8
0
 62
256
370
100
 48
1.0
  6
BYLAYER
100
AcDbSpline
 70
8
 71
3
 72
8
 73
4
 74
0
 40
0.0
 40
0.0
 40
0.0
 40
0.0
 40
1.0
 40
1.0
 40
1.0
 40
1.0
 10
13.8881000000000476
 20
237.5810999999999638
 30
0.0
 10
15.3486000000000153
 20
234.4822999999999524
 30
0.0
 10
19.044300000000046
 20
232.9074999999999989
 30
0.0
 10
23.375000000000032
 20
232.9074999999999989
 30
0.0
  0
ARC
  5
149
100
AcDbEntity
  8
0
 62
256
370
100
 48
1.0
  6
BYLAYER
100
AcDbCircle
 10
16.9242637867647012
 20
33.2395892456171111
 30
0.0
 40
11.8114553935697106
100
AcDbArc
 50
56.8972363489680717
 51
92.5925262449164848
  0
ARC
  5
14A
100
AcDbEntity
  8
0
 62
256
370
100
 48
1.0
  6
BYLAYER
100
AcDbCircle
 10
117.4560627053382831
 20
92.2829240885270821
 30
0.0
 40
1.2919767035858698
100
AcDbArc
 50
165.726185699521892
 51
254.2639735347579801
  0
LINE
  5
14B
100
AcDbEntity
  8
0
 62
256
370
100
 48
1.0
  6
BYLAYER
100
AcDbLine
 10
115.9881000000000171
 20
184.447400000000016
 30
0.0
 11
115.55630000000005
 21
183.1392999999999915
 31
0.0
  0
SPLINE
  5
14C
100
AcDbEntity
  8
0
 62
256
370
100
 48
1.0
  6
BYLAYER
100
AcDbSpline
 70
8
 71
3
 72
8
 73
4
 74
0
 40
0.0
 40
0.0
 40
0.0
 40
0.0
 40
1.0
 40
1.0
 40
1.0
 40
1.0
 10
23.375000000000032
 20
232.9074999999999989
 30
0.0
 10
27.705700000000018
 20
232.9074999999999989
 30
0.0
 10
31.4014000000000486
 20
234.4822999999999524
 30
0.0
 10
32.8619000000000199
 20
237.5810999999999638
 30
0.0
  0
ARC
  5
14D
100
AcDbEntity
  8
0
 62
256
370
100
 48
1.0
  6
BYLAYER
100
AcDbCircle
 10
15.8557362132352999
 20
33.2395892456171111
 30
0.0
 40
11.8114553935696804
100
AcDbArc
 50
87.4074737550835579
 51
123.1027636510320207
  0
LINE
  5
14E
100
AcDbEntity
  8
0
 62
256
370
100
 48
1.0
  6
BYLAYER
100
AcDbLine
 10
116.2039712407391079
 20
92.6014688528641443
 30
0.0
 11
118.8455712407391474
 21
102.4058688528641454
 31
0.0
  0
LINE
  5
14F
100
AcDbEntity
  8
0
 62
256
370
100
 48
1.0
  6
BYLAYER
100
AcDbLine
 10
115.55630000000005
 20
183.1392999999999915
 30
0.0
 11
112.3051000000001096
 21
181.5137
 31
0.0
  0
LINE
  5
150
100
AcDbEntity
  8
0
 62
256
370
100
 48
1.0
  6
BYLAYER
100
AcDbLine
 10
32.8619000000000199
 20
237.5810999999999638
 30
0.0
 11
34.7034000000000304
 21
236.4508000000000152
 31
0.0
  0
LINE
  5
151
100
AcDbEntity
  8
0
 62
256
370
100
 48
1.0
  6
BYLAYER
100
AcDbLine
 10
9.4050000000000118
 20
43.1339553608132178
 30
0.0
 11
9.4050000000000118
 21
24.5284553608131972
 31
0.0
  0
ARC
  5
152
100
AcDbEntity
  8
0
 62
256
370
100
 48
1.0
  6
BYLAYER
100
AcDbCircle
 10
120.0676154219034544
 20
102.0880429359338848
 30
0.0
 40
1.2626976257957323
100
AcDbArc
 50
74.9743669752870545
 51
165.4216368578453284
  0
LINE
  5
153
100
AcDbEntity
  8
0
 62
256
370
100
 48
1.0
  6
BYLAYER
100
AcDbLine
 10
112.3051000000001096
 20
181.5137
 30
0.0
 11
110.7176000000000613
 21
181.1961999999999762
 31
0.0
  0
LINE
  5
154
100
AcDbEntity
  8
0
 62
256
370
100
 48
1.0
  6
BYLAYER
100
AcDbLine
 10
34.7034000000000304
 20
236.4508000000000152
 30
0.0
 11
35.3003000000000071
 21
237.5810999999999638
 31
0.0
  0
ARC
  5
155
100
AcDbEntity
  8
0
 62
256
370
100
 48
1.0
  6
BYLAYER
100
AcDbCircle
 10
10.0863020833333366
 20
24.5747574441465133
 30
0.0
 40
0.6828736425396409
100
AcDbArc
 50
183.8879095608336627
 51
266.1120904391669342
  0
ARC
  5
156
100
AcDbEntity
  8
0
 62
256
370
100
 48
1.0
  6
BYLAYER
100
AcDbCircle
 10
125.1449916502855899
 20
102.0784516321903368
 30
0.0
 40
1.2726412189901635
100
AcDbArc
 50
345.42377572860687
 51
74.9722281045256835
  0
ARC
  5
157
100
AcDbEntity
  8
0
 62
256
370
100
 48
1.0
  6
BYLAYER
100
AcDbCircle
 10
119.1413240082591756
 20
173.438140963173737
 30
0.0
 40
11.451925872367557
100
AcDbArc
 50
105.9825410213634882
 51
137.3556304897002747
  0
LINE
  5
158
100
AcDbEntity
  8
0
 62
256
370
100
 48
1.0
  6
BYLAYER
100
AcDbLine
 10
35.3003000000000071
 20
237.5810999999999638
 30
0.0
 11
33.3064000000000391
 21
238.7748999999999455
 31
0.0
  0
LINE
  5
159
100
AcDbEntity
  8
0
 62
256
370
100
 48
1.0
  6
BYLAYER
100
AcDbLine
 10
10.0399999999999991
 20
23.8934553608132205
 30
0.0
 11
10.3575000000000088
 21
23.9569553608131969
 31
0.0
  0
LINE
  5
15A
100
AcDbEntity
  8
0
 62
256
370
100
 48
1.0
  6
BYLAYER
100
AcDbLine
 10
126.3766712407390287
 20
101.7581688528641308
 30
0.0
 11
124.7256712407391319
 21
95.6240688528641272
 31
0.0
  0
LINE
  5
15B
100
AcDbEntity
  8
0
 62
256
370
100
 48
1.0
  6
BYLAYER
100
AcDbLine
 10
120.3950000000000387
 20
181.1200000000000045
 30
0.0
 11
124.2050000000000267
 21
181.1200000000000045
 31
0.0
  0
LINE
  5
15C
100
AcDbEntity
  8
0
 62
256
370
100
 48
1.0
  6
BYLAYER
100
AcDbLine
 10
33.3064000000000391
 20
238.7748999999999455
 30
0.0
 11
33.4842000000000439
 21
239.6765999999999508
 31
0.0
  0
ARC
  5
15D
100
AcDbEntity
  8
0
 62
256
370
100
 48
1.0
  6
BYLAYER
100
AcDbCircle
 10
16.800418605029968
 20
9.8584772936384581
 30
0.0
 40
15.5009123590080655
100
AcDbArc
 50
91.5172011637796601
 51
114.5601120022663935
  0
ARC
  5
15E
100
AcDbEntity
  8
0
 62
256
370
100
 48
1.0
  6
BYLAYER
100
AcDbCircle
 10
123.503627059574697
 20
95.9418947697944304
 30
0.0
 40
1.2626976257957436
100
AcDbArc
 50
254.9743669752875235
 51
345.4216368578448737
  0
LINE
  5
15F
100
AcDbEntity
  8
0
 62
256
370
100
 48
1.0
  6
BYLAYER
100
AcDbLine
 10
124.2050000000000267
 20
181.1200000000000045
 30
0.0
 11
127.6213000000000335
 21
176.5606999999999971
 31
0.0
  0
LINE
  5
160
100
AcDbEntity
  8
0
 62
256
370
100
 48
1.0
  6
BYLAYER
100
AcDbLine
 10
33.4842000000000439
 20
239.6765999999999508
 30
0.0
 11
35.7194000000000358
 21
239.3463999999999885
 31
0.0
  0
ARC
  5
161
100
AcDbEntity
  8
0
 62
256
370
100
 48
1.0
  6
BYLAYER
100
AcDbCircle
 10
16.9242637867647012
 20
13.5545892456171089
 30
0.0
 40
11.811455393569636
100
AcDbArc
 50
56.8972363489679083
 51
92.5925262449165132
  0
ARC
  5
162
100
AcDbEntity
  8
0
 62
256
370
100
 48
1.0
  6
BYLAYER
100
AcDbCircle
 10
123.475420404140948
 20
95.9140659206898079
 30
0.0
 40
1.2286708767722789
100
AcDbArc
 50
163.0743813984180974
 51
255.9083422079218906
  0
LINE
  5
163
100
AcDbEntity
  8
0
 62
256
370
100
 48
1.0
  6
BYLAYER
100
AcDbLine
 10
127.6213000000000335
 20
176.5606999999999971
 30
0.0
 11
126.0338000000001131
 21
173.2967999999999904
 31
0.0
  0
LINE
  5
164
100
AcDbEntity
  8
0
 62
256
370
100
 48
1.0
  6
BYLAYER
100
AcDbLine
 10
35.7194000000000358
 20
239.3463999999999885
 30
0.0
 11
35.9861000000000075
 21
240.5910000000000082
 31
0.0
  0
ARC
  5
165
100
AcDbEntity
  8
0
 62
256
370
100
 48
1.0
  6
BYLAYER
100
AcDbCircle
 10
30.7782070312500124
 20
10.062196246229874
 30
0.0
 40
15.2974767180548081
100
AcDbArc
 50
91.5665644755820978
 51
118.9436729305335376
  0
LINE
  5
166
100
AcDbEntity
  8
0
 62
256
370
100
 48
1.0
  6
BYLAYER
100
AcDbLine
 10
122.2999712407391399
 20
96.2717688528641418
 30
0.0
 11
123.9255712407390462
 21
102.4058688528641454
 31
0.0
  0
LINE
  5
167
100
AcDbEntity
  8
0
 62
256
370
100
 48
1.0
  6
BYLAYER
100
AcDbLine
 10
126.0338000000001131
 20
173.2967999999999904
 30
0.0
 11
122.6937000000000779
 21
172.509399999999971
 31
0.0
  0
LINE
  5
168
100
AcDbEntity
  8
0
 62
256
370
100
 48
1.0
  6
BYLAYER
100
AcDbLine
 10
35.9861000000000075
 20
240.5910000000000082
 30
0.0
 11
33.535000000000025
 21
240.9592999999999847
 31
0.0
  0
ARC
  5
169
100
AcDbEntity
  8
0
 62
256
370
100
 48
1.0
  6
BYLAYER
100
AcDbCircle
 10
30.6670152369280942
 20
12.43114333739274
 30
0.0
 40
12.9264584843787684
100
AcDbArc
 50
63.7091790628934191
 51
91.3609552529765949
  0
ARC
  5
16A
100
AcDbEntity
  8
0
 62
256
370
100
 48
1.0
  6
BYLAYER
100
AcDbCircle
 10
125.1476154219034811
 20
102.0880429359338848
 30
0.0
 40
1.2626976257957261
100
AcDbArc
 50
74.9743669752866708
 51
165.4216368578457548
  0
LINE
  5
16B
100
AcDbEntity
  8
0
 62
256
370
100
 48
1.0
  6
BYLAYER
100
AcDbLine
 10
122.6937000000000779
 20
172.509399999999971
 30
0.0
 11
118.5281000000000944
 21
177.3862000000000023
 31
0.0
  0
ARC
  5
16C
100
AcDbEntity
  8
0
 62
256
370
100
 48
1.0
  6
BYLAYER
100
AcDbCircle
 10
28.4160815418287562
 20
240.4640741245135587
 30
0.0
 40
5.1428177927239549
100
AcDbArc
 50
5.5258398543677121
 51
40.6868138621757751
  0
ARC
  5
16D
100
AcDbEntity
  8
0
 62
256
370
100
 48
1.0
  6
BYLAYER
100
AcDbCircle
 10
36.6589354166666652
 20
24.527132444146531
 30
0.0
 40
0.5724591671285633
100
AcDbArc
 50
242.2624265329033051
 51
275.1177085190565208
  0
LINE
  5
16E
100
AcDbEntity
  8
0
 62
256
370
100
 48
1.0
  6
BYLAYER
100
AcDbLine
 10
125.4749712407391087
 20
105.8475688528641427
 30
0.0
 11
125.4749712407391087
 21
107.1175688528641388
 31
0.0
  0
LINE
  5
16F
100
AcDbEntity
  8
0
 62
256
370
100
 48
1.0
  6
BYLAYER
100
AcDbLine
 10
118.5281000000000944
 20
177.3862000000000023
 30
0.0
 11
120.3950000000000387
 21
181.1200000000000045
 31
0.0
  0
ARC
  5
170
100
AcDbEntity
  8
0
 62
256
370
100
 48
1.0
  6
BYLAYER
100
AcDbCircle
 10
24.2961457917108383
 20
248.1583735646408968
 30
0.0
 40
9.119436092090293
100
AcDbArc
 50
331.5703620479332017
 51
29.0929680770755965
  0
ARC
  5
171
100
AcDbEntity
  8
0
 62
256
370
100
 48
1.0
  6
BYLAYER
100
AcDbCircle
 10
36.6636979166666634
 20
24.6382574441465749
 30
0.0
 40
0.6828736425396406
100
AcDbArc
 50
273.8879095608336343
 51
356.1120904391667068
  0
ARC
  5
172
100
AcDbEntity
  8
0
 62
256
370
100
 48
1.0
  6
BYLAYER
100
AcDbCircle
 10
119.1249712407390433
 20
107.1175688528641388
 30
0.0
 40
6.3499999999999988
100
AcDbArc
 50
0.0
 51
90.0000000000000142
  0
LINE
  5
173
100
AcDbEntity
  8
0
 62
256
370
100
 48
1.0
  6
BYLAYER
100
AcDbLine
 10
111.7082000000000761
 20
180.2818000000000325
 30
0.0
 11
112.7750000000000625
 21
176.039999999999992
 31
0.0
  0
SPLINE
  5
174
100
AcDbEntity
  8
0
 62
256
370
100
 48
1.0
  6
BYLAYER
100
AcDbSpline
 70
8
 71
3
 72
8
 73
4
 74
0
 40
0.0
 40
0.0
 40
0.0
 40
0.0
 40
1.0
 40
1.0
 40
1.0
 40
1.0
 10
32.2649999999999864
 20
252.5925000000000011
 30
0.0
 10
29.2170000000000307
 20
252.5925000000000011
 30
0.0
 10
26.1563000000000194
 20
249.3286000000000229
 30
0.0
 10
25.0641000000000425
 20
248.0331999999999937
 30
0.0
  0
LINE
  5
175
100
AcDbEntity
  8
0
 62
256
370
100
 48
1.0
  6
BYLAYER
100
AcDbLine
 10
37.3449999999999989
 20
24.5919553608132162
 30
0.0
 11
37.3449999999999989
 21
43.1339553608132178
 31
0.0
  0
ARC
  5
176
100
AcDbEntity
  8
0
 62
256
370
100
 48
1.0
  6
BYLAYER
100
AcDbCircle
 10
119.1211373414939914
 20
107.1130413975587601
 30
0.0
 40
6.3545286118651614
100
AcDbArc
 50
89.9654315414149721
 51
170.6423308189228862
  0
LINE
  5
177
100
AcDbEntity
  8
0
 62
256
370
100
 48
1.0
  6
BYLAYER
100
AcDbLine
 10
112.7750000000000625
 20
176.039999999999992
 30
0.0
 11
111.2256
 21
172.1537999999999897
 31
0.0
  0
LINE
  5
178
100
AcDbEntity
  8
0
 62
256
370
100
 48
1.0
  6
BYLAYER
100
AcDbLine
 10
25.0641000000000425
 20
248.0331999999999937
 30
0.0
 11
23.375000000000032
 21
248.1474999999999795
 31
0.0
  0
ARC
  5
179
100
AcDbEntity
  8
0
 62
256
370
100
 48
1.0
  6
BYLAYER
100
AcDbCircle
 10
32.253574810605997
 20
36.1261049820251969
 30
0.0
 40
8.6621346901716691
100
AcDbArc
 50
54.0004074479859781
 51
72.8694901978581697
  0
ARC
  5
17A
100
AcDbEntity
  8
0
 62
256
370
100
 48
1.0
  6
BYLAYER
100
AcDbCircle
 10
111.4914641438054019
 20
104.4363739962864344
 30
0.0
 40
3.9512179434085466
100
AcDbArc
 50
69.871697562343698
 51
89.8041360496549714
  0
LINE
  5
17B
100
AcDbEntity
  8
0
 62
256
370
100
 48
1.0
  6
BYLAYER
100
AcDbLine
 10
111.2256
 20
172.1537999999999897
 30
0.0
 11
107.9744000000000597
 21
171.036200000000008
 31
0.0
  0
ARC
  5
17C
100
AcDbEntity
  8
0
 62
256
370
100
 48
1.0
  6
BYLAYER
100
AcDbCircle
 10
19.5650000000000439
 20
243.067499999999967
 30
0.0
 40
1.27
100
AcDbArc
 50
0.0
 51
90.0000000000000142
  0
ARC
  5
17D
100
AcDbEntity
  8
0
 62
256
370
100
 48
1.0
  6
BYLAYER
100
AcDbCircle
 10
30.5197097630718943
 20
13.1369237023164374
 30
0.0
 40
14.7578958723219547
100
AcDbArc
 50
73.1197289845253806
 51
90.6200663071627446
  0
ARC
  5
17E
100
AcDbEntity
  8
0
 62
256
370
100
 48
1.0
  6
BYLAYER
100
AcDbCircle
 10
111.5049712407390672
 20
104.5775688528641183
 30
0.0
 40
3.8100000000000001
100
AcDbArc
 50
90.0000000000000142
 51
180.0
  0
ARC
  5
17F
100
AcDbEntity
  8
0
 62
256
370
100
 48
1.0
  6
BYLAYER
100
AcDbCircle
 10
118.9647817700904397
 20
173.530274221350453
 30
0.0
 40
11.2698224331148893
100
AcDbArc
 50
180.1539143325411487
 51
192.7857256378066211
  0
ARC
  5
180
100
AcDbEntity
  8
0
 62
256
370
100
 48
1.0
  6
BYLAYER
100
AcDbCircle
 10
19.5650000000000439
 20
243.067499999999967
 30
0.0
 40
1.27
100
AcDbArc
 50
270.0
 51
0.0
  0
ARC
  5
181
100
AcDbEntity
  8
0
 62
256
370
100
 48
1.0
  6
BYLAYER
100
AcDbCircle
 10
30.7782070312500124
 20
12.6021962462299086
 30
0.0
 40
15.2974767180548064
100
AcDbArc
 50
91.5665644755821972
 51
118.9436729305334381
  0
ARC
  5
182
100
AcDbEntity
  8
0
 62
256
370
100
 48
1.0
  6
BYLAYER
100
AcDbCircle
 10
111.5001838001705465
 20
104.572364560228479
 30
0.0
 40
3.8052161183193252
100
AcDbArc
 50
179.9216380654634122
 51
240.0416406722282829
  0
ARC
  5
183
100
AcDbEntity
  8
0
 62
256
370
100
 48
1.0
  6
BYLAYER
100
AcDbCircle
 10
119.0079620740748965
 20
173.5136301183145235
 30
0.0
 40
11.3129702850127636
100
AcDbArc
 50
145.2357387624166734
 51
180.0690312467057481
  0
ARC
  5
184
100
AcDbEntity
  8
0
 62
256
370
100
 48
1.0
  6
BYLAYER
100
AcDbCircle
 10
19.5650000000000439
 20
243.067499999999967
 30
0.0
 40
1.27
100
AcDbArc
 50
180.0
 51
270.0
  0
LINE
  5
185
100
AcDbEntity
  8
0
 62
256
370
100
 48
1.0
  6
BYLAYER
100
AcDbLine
 10
23.3750000000000071
 20
25.9889553608132076
 30
0.0
 11
23.3750000000000071
 21
40.5939553608132258
 31
0.0
  0
LINE
  5
186
100
AcDbEntity
  8
0
 62
256
370
100
 48
1.0
  6
BYLAYER
100
AcDbLine
 10
109.5999712407391371
 20
101.27556885286414
 30
0.0
 11
109.5999712407391371
 21
101.2882688528641353
 31
0.0
  0
LINE
  5
187
100
AcDbEntity
  8
0
 62
256
370
100
 48
1.0
  6
BYLAYER
100
AcDbLine
 10
109.7143000000000512
 20
179.964300000000037
 30
0.0
 11
111.7082000000000761
 21
180.2818000000000325
 31
0.0
  0
ARC
  5
188
100
AcDbEntity
  8
0
 62
256
370
100
 48
1.0
  6
BYLAYER
100
AcDbCircle
 10
19.5650000000000439
 20
243.067499999999967
 30
0.0
 40
1.27
100
AcDbArc
 50
90.0000000000000142
 51
180.0
  0
ARC
  5
189
100
AcDbEntity
  8
0
 62
256
370
100
 48
1.0
  6
BYLAYER
100
AcDbCircle
 10
30.7782070312500124
 20
27.2071962462298842
 30
0.0
 40
15.2974767180548348
100
AcDbArc
 50
91.5665644755823109
 51
118.9436729305334381
  0
ARC
  5
18A
100
AcDbEntity
  8
0
 62
256
370
100
 48
1.0
  6
BYLAYER
100
AcDbCircle
 10
108.9754076672140144
 20
100.1861874497953124
 30
0.0
 40
1.2667529658005456
100
AcDbArc
 50
329.7677265857898306
 51
60.4592195333620879
  0
ARC
  5
18B
100
AcDbEntity
  8
0
 62
256
370
100
 48
1.0
  6
BYLAYER
100
AcDbCircle
 10
119.383051529541973
 20
173.5412995226612907
 30
0.0
 40
11.1720248065040675
100
AcDbArc
 50
359.7881947297071861
 51
18.1993900678041065
  0
ARC
  5
18C
100
AcDbEntity
  8
0
 62
256
370
100
 48
1.0
  6
BYLAYER
100
AcDbCircle
 10
27.18500000000002
 20
243.067499999999967
 30
0.0
 40
1.27
100
AcDbArc
 50
0.0
 51
90.0000000000000142
  0
ARC
  5
18D
100
AcDbEntity
  8
0
 62
256
370
100
 48
1.0
  6
BYLAYER
100
AcDbCircle
 10
30.5197097630718943
 20
27.7419237023164555
 30
0.0
 40
14.757895872321944
100
AcDbArc
 50
73.1197289845253806
 51
90.6200663071627446
  0
ARC
  5
18E
100
AcDbEntity
  8
0
 62
256
370
100
 48
1.0
  6
BYLAYER
100
AcDbCircle
 10
108.9709330799908997
 20
100.1911960201557861
 30
0.0
 40
1.2731425089740656
100
AcDbArc
 50
239.7715776463800523
 51
329.6743724771202437
  0
ARC
  5
18F
100
AcDbEntity
  8
0
 62
256
370
100
 48
1.0
  6
BYLAYER
100
AcDbCircle
 10
119.1528415380020363
 20
173.5756555520344762
 30
0.0
 40
11.402409453929728
100
AcDbArc
 50
333.1179742402424608
 51
359.6198368729166646
  0
ARC
  5
190
100
AcDbEntity
  8
0
 62
256
370
100
 48
1.0
  6
BYLAYER
100
AcDbCircle
 10
27.18500000000002
 20
243.067499999999967
 30
0.0
 40
1.27
100
AcDbArc
 50
270.0
 51
0.0
  0
LINE
  5
191
100
AcDbEntity
  8
0
 62
256
370
100
 48
1.0
  6
BYLAYER
100
AcDbLine
 10
34.8049999999999997
 20
41.8639553608131791
 30
0.0
 11
34.8049999999999997
 21
27.2589553608132036
 31
0.0
  0
LINE
  5
192
100
AcDbEntity
  8
0
 62
256
370
100
 48
1.0
  6
BYLAYER
100
AcDbLine
 10
108.3299712407390984
 20
99.091168852864115
 30
0.0
 11
108.3299712407390984
 21
99.0784688528641198
 31
0.0
  0
LINE
  5
193
100
AcDbEntity
  8
0
 62
256
370
100
 48
1.0
  6
BYLAYER
100
AcDbLine
 10
129.3231000000000392
 20
168.4199999999999591
 30
0.0
 11
128.0150000000000148
 21
168.4199999999999591
 31
0.0
  0
ARC
  5
194
100
AcDbEntity
  8
0
 62
256
370
100
 48
1.0
  6
BYLAYER
100
AcDbCircle
 10
27.18500000000002
 20
243.067499999999967
 30
0.0
 40
1.27
100
AcDbArc
 50
180.0
 51
270.0
  0
LINE
  5
195
100
AcDbEntity
  8
0
 62
256
370
100
 48
1.0
  6
BYLAYER
100
AcDbLine
 10
78.4949999999999761
 20
34.8850000000000406
 30
0.0
 11
63.2550000000000026
 21
34.8850000000000406
 31
0.0
  0
ARC
  5
196
100
AcDbEntity
  8
0
 62
256
370
100
 48
1.0
  6
BYLAYER
100
AcDbCircle
 10
111.479742305515245
 20
104.5631638094323108
 30
0.0
 40
6.3247874689277239
100
AcDbArc
 50
179.8695056695669336
 51
240.1319498920888407
  0
LINE
  5
197
100
AcDbEntity
  8
0
 62
256
370
100
 48
1.0
  6
BYLAYER
100
AcDbLine
 10
128.0150000000000148
 20
168.4199999999999591
 30
0.0
 11
126.9482000000000284
 21
172.6618000000000279
 31
0.0
  0
ARC
  5
198
100
AcDbEntity
  8
0
 62
256
370
100
 48
1.0
  6
BYLAYER
100
AcDbCircle
 10
27.18500000000002
 20
243.067499999999967
 30
0.0
 40
1.27
100
AcDbArc
 50
90.0000000000000142
 51
180.0
  0
LINE
  5
199
100
AcDbEntity
  8
0
 62
256
370
100
 48
1.0
  6
BYLAYER
100
AcDbLine
 10
63.2550000000000026
 20
34.8850000000000406
 30
0.0
 11
63.2550000000000026
 21
41.2350000000000207
 31
0.0
  0
ARC
  5
19A
100
AcDbEntity
  8
0
 62
256
370
100
 48
1.0
  6
BYLAYER
100
AcDbCircle
 10
111.5049712407390672
 20
104.5775688528641183
 30
0.0
 40
6.3499999999999988
100
AcDbArc
 50
90.0000000000000142
 51
180.0
  0
LINE
  5
19B
100
AcDbEntity
  8
0
 62
256
370
100
 48
1.0
  6
BYLAYER
100
AcDbLine
 10
126.9482000000000284
 20
172.6618000000000279
 30
0.0
 11
128.8532000000000721
 21
176.4718000000000018
 31
0.0
  0
LINE
  5
19C
100
AcDbEntity
  8
0
 62
256
370
100
 48
1.0
  6
BYLAYER
100
AcDbLine
 10
22.1049999999999933
 20
240.527499999999975
 30
0.0
 11
24.6450000000000067
 21
240.527499999999975
 31
0.0
  0
LINE
  5
19D
100
AcDbEntity
  8
0
 62
256
370
100
 48
1.0
  6
BYLAYER
100
AcDbLine
 10
63.2550000000000026
 20
41.2350000000000207
 30
0.0
 11
78.4949999999999761
 21
41.2350000000000207
 31
0.0
  0
ARC
  5
19E
100
AcDbEntity
  8
0
 62
256
370
100
 48
1.0
  6
BYLAYER
100
AcDbCircle
 10
119.1446567471187166
 20
107.7230405932947548
 30
0.0
 40
8.28455164766115
100
AcDbArc
 50
90.1361446632824084
 51
157.2439903886773038
  0
LINE
  5
19F
100
AcDbEntity
  8
0
 62
256
370
100
 48
1.0
  6
BYLAYER
100
AcDbLine
 10
128.8532000000000721
 20
176.4718000000000018
 30
0.0
 11
129.9962000000000444
 21
177.0305999999999926
 31
0.0
  0
LINE
  5
1A0
100
AcDbEntity
  8
0
 62
256
370
100
 48
1.0
  6
BYLAYER
100
AcDbLine
 10
24.6450000000000067
 20
240.527499999999975
 30
0.0
 11
23.756000000000018
 21
238.7621999999999503
 31
0.0
  0
ARC
  5
1A1
100
AcDbEntity
  8
0
 62
256
370
100
 48
1.0
  6
BYLAYER
100
AcDbCircle
 10
76.5900000000000034
 20
29.1699999999999946
 30
0.0
 40
1.905
100
AcDbArc
 50
180.0
 51
270.0
  0
ARC
  5
1A2
100
AcDbEntity
  8
0
 62
256
370
100
 48
1.0
  6
BYLAYER
100
AcDbCircle
 10
119.1097804624073007
 20
107.7129317783770688
 30
0.0
 40
8.2946509846528009
100
AcDbArc
 50
4.4012436579112002
 51
89.8950687649087001
  0
LINE
  5
1A3
100
AcDbEntity
  8
0
 62
256
370
100
 48
1.0
  6
BYLAYER
100
AcDbLine
 10
114.0450000000001012
 20
176.039999999999992
 30
0.0
 11
117.8550000000000892
 21
176.039999999999992
 31
0.0
  0
ARC
  5
1A4
100
AcDbEntity
  8
0
 62
256
370
100
 48
1.0
  6
BYLAYER
100
AcDbCircle
 10
25.6246409220225679
 20
239.2955858891285175
 30
0.0
 40
1.9432754313732128
100
AcDbArc
 50
195.9308945456348852
 51
269.1997475912296522
  0
ARC
  5
1A5
100
AcDbEntity
  8
0
 62
256
370
100
 48
1.0
  6
BYLAYER
100
AcDbCircle
 10
76.5900000000000034
 20
29.1699999999999946
 30
0.0
 40
1.905
100
AcDbArc
 50
90.0000000000000142
 51
180.0
  0
LINE
  5
1A6
100
AcDbEntity
  8
0
 62
256
370
100
 48
1.0
  6
BYLAYER
100
AcDbLine
 10
127.3799712407390388
 20
108.3494688528641348
 30
0.0
 11
128.0149712407390439
 21
108.387568852864149
 31
0.0
  0
LINE
  5
1A7
100
AcDbEntity
  8
0
 62
256
370
100
 48
1.0
  6
BYLAYER
100
AcDbLine
 10
117.8550000000000892
 20
176.039999999999992
 30
0.0
 11
121.4237000000000393
 21
171.8744000000000085
 31
0.0
  0
ARC
  5
1A8
100
AcDbEntity
  8
0
 62
256
370
100
 48
1.0
  6
BYLAYER
100
AcDbCircle
 10
25.5975000000000357
 20
239.2574999999999932
 30
0.0
 40
1.905
100
AcDbArc
 50
270.0
 51
0.0
  0
ARC
  5
1A9
100
AcDbEntity
  8
0
 62
256
370
100
 48
1.0
  6
BYLAYER
100
AcDbCircle
 10
76.5900000000000034
 20
29.1699999999999946
 30
0.0
 40
1.905
100
AcDbArc
 50
0.0
 51
90.0000000000000142
  0
ARC
  5
1AA
100
AcDbEntity
  8
0
 62
256
370
100
 48
1.0
  6
BYLAYER
100
AcDbCircle
 10
128.0149712407390439
 20
103.3075688528641507
 30
0.0
 40
5.0800000000000001
100
AcDbArc
 50
0.0
 51
90.0000000000000142
  0
LINE
  5
1AB
100
AcDbEntity
  8
0
 62
256
370
100
 48
1.0
  6
BYLAYER
100
AcDbLine
 10
121.4237000000000393
 20
171.8744000000000085
 30
0.0
 11
119.125
 21
168.4199999999999591
 31
0.0
  0
LINE
  5
1AC
100
AcDbEntity
  8
0
 62
256
370
100
 48
1.0
  6
BYLAYER
100
AcDbLine
 10
27.5025000000000297
 20
239.2574999999999932
 30
0.0
 11
28.1374999999999851
 21
239.2574999999999932
 31
0.0
  0
ARC
  5
1AD
100
AcDbEntity
  8
0
 62
256
370
100
 48
1.0
  6
BYLAYER
100
AcDbCircle
 10
76.5900000000000034
 20
29.1699999999999946
 30
0.0
 40
1.905
100
AcDbArc
 50
270.0
 51
0.0
  0
ARC
  5
1AE
100
AcDbEntity
  8
0
 62
256
370
100
 48
1.0
  6
BYLAYER
100
AcDbCircle
 10
128.0711368825587897
 20
103.2803153026793268
 30
0.0
 40
5.0239082808536946
100
AcDbArc
 50
299.6303784894830642
 51
0.310817987487996
  0
LINE
  5
1AF
100
AcDbEntity
  8
0
 62
256
370
100
 48
1.0
  6
BYLAYER
100
AcDbLine
 10
119.125
 20
168.4199999999999591
 30
0.0
 11
115.1118000000000876
 21
167.4293999999999869
 31
0.0
  0
ARC
  5
1B0
100
AcDbEntity
  8
0
 62
256
370
100
 48
1.0
  6
BYLAYER
100
AcDbCircle
 10
25.5975000000000357
 20
239.2574999999999932
 30
0.0
 40
2.54
100
AcDbArc
 50
270.0
 51
0.0
  0
ARC
  5
1B1
100
AcDbEntity
  8
0
 62
256
370
100
 48
1.0
  6
BYLAYER
100
AcDbCircle
 10
65.1599999999999966
 20
29.1699999999999946
 30
0.0
 40
1.905
100
AcDbArc
 50
180.0
 51
270.0
  0
LINE
  5
1B2
100
AcDbEntity
  8
0
 62
256
370
100
 48
1.0
  6
BYLAYER
100
AcDbLine
 10
130.5549712407391212
 20
98.9133688528641244
 30
0.0
 11
130.5549712407391212
 21
98.9133688528641244
 31
0.0
  0
LINE
  5
1B3
100
AcDbEntity
  8
0
 62
256
370
100
 48
1.0
  6
BYLAYER
100
AcDbLine
 10
115.1118000000000876
 20
167.4293999999999869
 30
0.0
 11
112.178100000000029
 21
171.3537000000000319
 31
0.0
  0
ARC
  5
1B4
100
AcDbEntity
  8
0
 62
256
370
100
 48
1.0
  6
BYLAYER
100
AcDbCircle
 10
25.6023409976730996
 20
239.305659245927842
 30
0.0
 40
2.5881637733227629
100
AcDbArc
 50
210.6174056231692759
 51
269.8928317829463026
  0
ARC
  5
1B5
100
AcDbEntity
  8
0
 62
256
370
100
 48
1.0
  6
BYLAYER
100
AcDbCircle
 10
65.1599999999999966
 20
29.1699999999999946
 30
0.0
 40
1.905
100
AcDbArc
 50
90.0000000000000142
 51
180.0
  0
ARC
  5
1B6
100
AcDbEntity
  8
0
 62
256
370
100
 48
1.0
  6
BYLAYER
100
AcDbCircle
 10
129.9209343966067536
 20
100.0218351326985271
 30
0.0
 40
1.2769887287079473
100
AcDbArc
 50
210.003725936729353
 51
299.7693279441185155
  0
LINE
  5
1B7
100
AcDbEntity
  8
0
 62
256
370
100
 48
1.0
  6
BYLAYER
100
AcDbLine
 10
112.178100000000029
 20
171.3537000000000319
 30
0.0
 11
114.0450000000001012
 21
176.039999999999992
 31
0.0
  0
LINE
  5
1B8
100
AcDbEntity
  8
0
 62
256
370
100
 48
1.0
  6
BYLAYER
100
AcDbLine
 10
23.375000000000032
 20
237.9874999999999829
 30
0.0
 11
23.375000000000032
 21
237.9874999999999829
 31
0.0
  0
ARC
  5
1B9
100
AcDbEntity
  8
0
 62
256
370
100
 48
1.0
  6
BYLAYER
100
AcDbCircle
 10
65.1599999999999966
 20
29.1699999999999946
 30
0.0
 40
1.905
100
AcDbArc
 50
0.0
 51
90.0000000000000142
  0
ARC
  5
1BA
100
AcDbEntity
  8
0
 62
256
370
100
 48
1.0
  6
BYLAYER
100
AcDbCircle
 10
129.90170439709334
 20
100.0232022339947662
 30
0.0
 40
1.2610655608546577
100
AcDbArc
 50
119.2786310189176788
 51
210.494422861930218
  0
LINE
  5
1BB
100
AcDbEntity
  8
0
 62
256
370
100
 48
1.0
  6
BYLAYER
100
AcDbLine
 10
119.125
 20
167.1500000000000341
 30
0.0
 11
122.9349999999999881
 21
164.6099999999999852
 31
0.0
  0
LINE
  5
1BC
100
AcDbEntity
  8
0
 62
256
370
100
 48
1.0
  6
BYLAYER
100
AcDbLine
 10
23.375000000000032
 20
237.9874999999999829
 30
0.0
 11
23.375000000000032
 21
237.9874999999999829
 31
0.0
  0
ARC
  5
1BD
100
AcDbEntity
  8
0
 62
256
370
100
 48
1.0
  6
BYLAYER
100
AcDbCircle
 10
65.1599999999999966
 20
29.1699999999999946
 30
0.0
 40
1.905
100
AcDbArc
 50
270.0
 51
0.0
  0
LINE
  5
1BE
100
AcDbEntity
  8
0
 62
256
370
100
 48
1.0
  6
BYLAYER
100
AcDbLine
 10
129.2849712407390825
 20
101.1231688528641257
 30
0.0
 11
129.2849712407390825
 21
101.1104688528641304
 31
0.0
  0
LINE
  5
1BF
100
AcDbEntity
  8
0
 62
256
370
100
 48
1.0
  6
BYLAYER
100
AcDbLine
 10
122.9349999999999881
 20
164.6099999999999852
 30
0.0
 11
121.8301000000000158
 21
162.4256000000000313
 31
0.0
  0
ARC
  5
1C0
100
AcDbEntity
  8
0
 62
256
370
100
 48
1.0
  6
BYLAYER
100
AcDbCircle
 10
21.1476590023269644
 20
239.305659245927842
 30
0.0
 40
2.5881637733227736
100
AcDbArc
 50
270.1071682170536974
 51
329.3825943768304683
  0
ARC
  5
1C1
100
AcDbEntity
  8
0
 62
256
370
100
 48
1.0
  6
BYLAYER
100
AcDbCircle
 10
64.5071284185369649
 20
28.5474299182598727
 30
0.0
 40
3.7921487900059714
100
AcDbArc
 50
180.187804638137294
 51
228.3106041826651733
  0
ARC
  5
1C2
100
AcDbEntity
  8
0
 62
256
370
100
 48
1.0
  6
BYLAYER
100
AcDbCircle
 10
128.0353748476004512
 20
103.2983809298228834
 30
0.0
 40
2.5196131453552391
100
AcDbArc
 50
299.7322634586525965
 51
0.208933018317057
  0
ARC
  5
1C3
100
AcDbEntity
  8
0
 62
256
370
100
 48
1.0
  6
BYLAYER
100
AcDbCircle
 10
118.9285348484848015
 20
174.0313795454548824
 30
0.0
 40
11.9629929025384598
100
AcDbArc
 50
270.9409961331364798
 51
284.0368022701437098
  0
ARC
  5
1C4
100
AcDbEntity
  8
0
 62
256
370
100
 48
1.0
  6
BYLAYER
100
AcDbCircle
 10
21.1525000000000283
 20
239.2574999999999932
 30
0.0
 40
2.54
100
AcDbArc
 50
180.0
 51
270.0
  0
LINE
  5
1C5
100
AcDbEntity
  8
0
 62
256
370
100
 48
1.0
  6
BYLAYER
100
AcDbLine
 10
61.9849999999999852
 20
25.715600000000002
 30
0.0
 11
61.9849999999999852
 21
23.4549999999999912
 31
0.0
  0
ARC
  5
1C6
100
AcDbEntity
  8
0
 62
256
370
100
 48
1.0
  6
BYLAYER
100
AcDbCircle
 10
128.0149712407390439
 20
103.3075688528641507
 30
0.0
 40
2.54
100
AcDbArc
 50
0.0
 51
90.0000000000000142
  0
ARC
  5
1C7
100
AcDbEntity
  8
0
 62
256
370
100
 48
1.0
  6
BYLAYER
100
AcDbCircle
 10
119.1010446635520594
 20
173.314694271439663
 30
0.0
 40
11.2447197882513557
100
AcDbArc
 50
237.7005893898058275
 51
270.1220609085269189
  0
LINE
  5
1C8
100
AcDbEntity
  8
0
 62
256
370
100
 48
1.0
  6
BYLAYER
100
AcDbLine
 10
18.6125000000000149
 20
239.2574999999999932
 30
0.0
 11
19.2475000000000342
 21
239.2574999999999932
 31
0.0
  0
ARC
  5
1C9
100
AcDbEntity
  8
0
 62
256
370
100
 48
1.0
  6
BYLAYER
100
AcDbCircle
 10
63.2550000000000026
 20
23.4549999999999912
 30
0.0
 40
1.27
100
AcDbArc
 50
180.0
 51
270.0
  0
LINE
  5
1CA
100
AcDbEntity
  8
0
 62
256
370
100
 48
1.0
  6
BYLAYER
100
AcDbLine
 10
128.0149712407390439
 20
105.8475688528641427
 30
0.0
 11
125.4749712407391087
 21
105.8475688528641427
 31
0.0
  0
LINE
  5
1CB
100
AcDbEntity
  8
0
 62
256
370
100
 48
1.0
  6
BYLAYER
100
AcDbLine
 10
113.0925000000000722
 20
163.8099000000000274
 30
0.0
 11
114.5657000000000352
 21
165.9942999999999813
 31
0.0
  0
ARC
  5
1CC
100
AcDbEntity
  8
0
 62
256
370
100
 48
1.0
  6
BYLAYER
100
AcDbCircle
 10
21.1525000000000283
 20
239.2574999999999932
 30
0.0
 40
1.905
100
AcDbArc
 50
180.0
 51
270.0
  0
LINE
  5
1CD
100
AcDbEntity
  8
0
 62
256
370
100
 48
1.0
  6
BYLAYER
100
AcDbLine
 10
63.2550000000000026
 20
22.1850000000000378
 30
0.0
 11
64.5250000000000199
 21
22.1850000000000378
 31
0.0
  0
LINE
  5
1CE
100
AcDbEntity
  8
0
 62
256
370
100
 48
1.0
  6
BYLAYER
100
AcDbLine
 10
153.9250000000000114
 20
114.2949999999999875
 30
0.0
 11
164.0850000000000364
 21
114.2949999999999875
 31
0.0
  0
LINE
  5
1CF
100
AcDbEntity
  8
0
 62
256
370
100
 48
1.0
  6
BYLAYER
100
AcDbLine
 10
114.5657000000000352
 20
165.9942999999999813
 30
0.0
 11
119.125
 21
167.1500000000000341
 31
0.0
  0
ARC
  5
1D0
100
AcDbEntity
  8
0
 62
256
370
100
 48
1.0
  6
BYLAYER
100
AcDbCircle
 10
21.1253590779774321
 20
239.2955858891285175
 30
0.0
 40
1.9432754313732155
100
AcDbArc
 50
270.8002524087703478
 51
344.069105454365058
  0
ARC
  5
1D1
100
AcDbEntity
  8
0
 62
256
370
100
 48
1.0
  6
BYLAYER
100
AcDbCircle
 10
64.5250000000000199
 20
23.4549999999999912
 30
0.0
 40
1.27
100
AcDbArc
 50
270.0
 51
0.0
  0
ARC
  5
1D2
100
AcDbEntity
  8
0
 62
256
370
100
 48
1.0
  6
BYLAYER
100
AcDbCircle
 10
166.625
 20
114.2949999999999875
 30
0.0
 40
2.54
100
AcDbArc
 50
90.0000000000000142
 51
180.0
  0
LINE
  5
1D3
100
AcDbEntity
  8
0
 62
256
370
100
 48
1.0
  6
BYLAYER
100
AcDbLine
 10
128.0150000000000148
 20
167.1500000000000341
 30
0.0
 11
128.6500000000000341
 21
167.1500000000000341
 31
0.0
  0
LINE
  5
1D4
100
AcDbEntity
  8
0
 62
256
370
100
 48
1.0
  6
BYLAYER
100
AcDbLine
 10
22.993999999999982
 20
238.7621999999999503
 30
0.0
 11
22.1049999999999933
 21
240.527499999999975
 31
0.0
  0
LINE
  5
1D5
100
AcDbEntity
  8
0
 62
256
370
100
 48
1.0
  6
BYLAYER
100
AcDbLine
 10
65.7949999999999733
 20
23.4549999999999912
 30
0.0
 11
65.7949999999999733
 21
24.7250000000000298
 31
0.0
  0
ARC
  5
1D6
100
AcDbEntity
  8
0
 62
256
370
100
 48
1.0
  6
BYLAYER
100
AcDbCircle
 10
166.625
 20
114.2949999999999875
 30
0.0
 40
2.54
100
AcDbArc
 50
0.0
 51
90.0000000000000142
  0
ARC
  5
1D7
100
AcDbEntity
  8
0
 62
256
370
100
 48
1.0
  6
BYLAYER
100
AcDbCircle
 10
119.1287821465219849
 20
173.6356207503212943
 30
0.0
 40
11.5202806359215124
100
AcDbArc
 50
291.3809573558220336
 51
325.7382660735827926
  0
ARC
  5
1D8
100
AcDbEntity
  8
0
 62
256
370
100
 48
1.0
  6
BYLAYER
100
AcDbCircle
 10
63.2549999999999386
 20
233.8600000000000705
 30
0.0
 40
1.27
100
AcDbArc
 50
180.0
 51
270.0
  0
LINE
  5
1D9
100
AcDbEntity
  8
0
 62
256
370
100
 48
1.0
  6
BYLAYER
100
AcDbLine
 10
65.7949999999999733
 20
24.7250000000000298
 30
0.0
 11
75.9550000000000125
 21
24.7250000000000298
 31
0.0
  0
LINE
  5
1DA
100
AcDbEntity
  8
0
 62
256
370
100
 48
1.0
  6
BYLAYER
100
AcDbLine
 10
169.1650000000000773
 20
114.2949999999999875
 30
0.0
 11
179.3249999999999886
 21
114.2949999999999875
 31
0.0
  0
LINE
  5
1DB
100
AcDbEntity
  8
0
 62
256
370
100
 48
1.0
  6
BYLAYER
100
AcDbLine
 10
123.3287000000000972
 20
162.9081999999999653
 30
0.0
 11
124.2050000000000267
 21
164.6099999999999852
 31
0.0
  0
LINE
  5
1DC
100
AcDbEntity
  8
0
 62
256
370
100
 48
1.0
  6
BYLAYER
100
AcDbLine
 10
63.2549999999999386
 20
232.5900000000000318
 30
0.0
 11
78.4949999999999761
 21
232.5900000000000318
 31
0.0
  0
LINE
  5
1DD
100
AcDbEntity
  8
0
 62
256
370
100
 48
1.0
  6
BYLAYER
100
AcDbLine
 10
75.9550000000000125
 20
24.7250000000000298
 30
0.0
 11
75.9550000000000125
 21
23.4549999999999912
 31
0.0
  0
LINE
  5
1DE
100
AcDbEntity
  8
0
 62
256
370
100
 48
1.0
  6
BYLAYER
100
AcDbLine
 10
179.3249999999999886
 20
114.2949999999999875
 30
0.0
 11
179.3249999999999886
 21
111.7549999999999955
 31
0.0
  0
LINE
  5
1DF
100
AcDbEntity
  8
0
 62
256
370
100
 48
1.0
  6
BYLAYER
100
AcDbLine
 10
124.2050000000000267
 20
164.6099999999999852
 30
0.0
 11
128.0150000000000148
 21
167.1500000000000341
 31
0.0
  0
ARC
  5
1E0
100
AcDbEntity
  8
0
 62
256
370
100
 48
1.0
  6
BYLAYER
100
AcDbCircle
 10
78.4949999999999761
 20
233.8600000000000705
 30
0.0
 40
1.27
100
AcDbArc
 50
270.0
 51
0.0
  0
ARC
  5
1E1
100
AcDbEntity
  8
0
 62
256
370
100
 48
1.0
  6
BYLAYER
100
AcDbCircle
 10
77.2249999999999801
 20
23.4549999999999912
 30
0.0
 40
1.27
100
AcDbArc
 50
180.0
 51
270.0
  0
LINE
  5
1E2
100
AcDbEntity
  8
0
 62
256
370
100
 48
1.0
  6
BYLAYER
100
AcDbLine
 10
179.3249999999999886
 20
111.7549999999999955
 30
0.0
 11
178.0550000000000637
 21
111.7549999999999955
 31
0.0
  0
LINE
  5
1E3
100
AcDbEntity
  8
0
 62
256
370
100
 48
1.0
  6
BYLAYER
100
AcDbLine
 10
178.4133543220470415
 20
165.7579574821395454
 30
0.0
 11
156.7508943964512014
 21
165.7579574821395454
 31
0.0
  0
ARC
  5
1E4
100
AcDbEntity
  8
0
 62
256
370
100
 48
1.0
  6
BYLAYER
100
AcDbCircle
 10
78.4758769351464878
 20
233.8509532426779174
 30
0.0
 40
1.2891548084521682
100
AcDbArc
 50
0.4020814753607023
 51
34.6490552720850573
  0
LINE
  5
1E5
100
AcDbEntity
  8
0
 62
256
370
100
 48
1.0
  6
BYLAYER
100
AcDbLine
 10
77.2249999999999801
 20
22.1850000000000378
 30
0.0
 11
78.4949999999999761
 21
22.1850000000000378
 31
0.0
  0
LINE
  5
1E6
100
AcDbEntity
  8
0
 62
256
370
100
 48
1.0
  6
BYLAYER
100
AcDbLine
 10
178.0550000000000637
 20
111.7549999999999955
 30
0.0
 11
178.0550000000000637
 21
97.7849999999999682
 31
0.0
  0
SPLINE
  5
1E7
100
AcDbEntity
  8
0
 62
256
370
100
 48
1.0
  6
BYLAYER
100
AcDbSpline
 70
8
 71
3
 72
8
 73
4
 74
0
 40
0.0
 40
0.0
 40
0.0
 40
0.0
 40
1.0
 40
1.0
 40
1.0
 40
1.0
 10
156.7508943964512014
 20
165.7579574821395454
 30
0.0
 10
155.7292442667737475
 20
165.7579574821395454
 30
0.0
 10
154.5104054857224583
 20
167.5431793075847793
 30
0.0
 10
154.5104054857224583
 20
168.7060817455839015
 30
0.0
  0
LINE
  5
1E8
100
AcDbEntity
  8
0
 62
256
370
100
 48
1.0
  6
BYLAYER
100
AcDbLine
 10
79.536399999999972
 20
234.5839000000000567
 30
0.0
 11
72.1449999999999534
 21
247.3854999999999791
 31
0.0
  0
ARC
  5
1E9
100
AcDbEntity
  8
0
 62
256
370
100
 48
1.0
  6
BYLAYER
100
AcDbCircle
 10
78.4949999999999761
 20
23.4549999999999912
 30
0.0
 40
1.27
100
AcDbArc
 50
270.0
 51
0.0
  0
LINE
  5
1EA
100
AcDbEntity
  8
0
 62
256
370
100
 48
1.0
  6
BYLAYER
100
AcDbLine
 10
178.0550000000000637
 20
97.7849999999999682
 30
0.0
 11
170.7524999999999977
 21
97.7849999999999682
 31
0.0
  0
LINE
  5
1EB
100
AcDbEntity
  8
0
 62
256
370
100
 48
1.0
  6
BYLAYER
100
AcDbLine
 10
154.5104054857224583
 20
168.7060817455839015
 30
0.0
 11
154.629713496762065
 21
174.5017140282793662
 31
0.0
  0
LINE
  5
1EC
100
AcDbEntity
  8
0
 62
256
370
100
 48
1.0
  6
BYLAYER
100
AcDbLine
 10
72.1449999999999534
 20
247.3854999999999791
 30
0.0
 11
72.1449999999999534
 21
252.9099999999999682
 31
0.0
  0
LINE
  5
1ED
100
AcDbEntity
  8
0
 62
256
370
100
 48
1.0
  6
BYLAYER
100
AcDbLine
 10
79.7649999999999864
 20
23.4549999999999912
 30
0.0
 11
79.7649999999999864
 21
25.715600000000002
 31
0.0
  0
LINE
  5
1EE
100
AcDbEntity
  8
0
 62
256
370
100
 48
1.0
  6
BYLAYER
100
AcDbLine
 10
170.7524999999999977
 20
97.7849999999999682
 30
0.0
 11
172.9750000000000796
 21
90.164999999999992
 31
0.0
  0
SPLINE
  5
1EF
100
AcDbEntity
  8
0
 62
256
370
100
 48
1.0
  6
BYLAYER
100
AcDbSpline
 70
8
 71
3
 72
8
 73
4
 74
0
 40
0.0
 40
0.0
 40
0.0
 40
0.0
 40
1.0
 40
1.0
 40
1.0
 40
1.0
 10
154.629713496762065
 20
174.5017140282793662
 30
0.0
 10
154.9046992295807854
 20
176.6927003230380251
 30
0.0
 10
155.6614075927127203
 20
178.6972842986833996
 30
0.0
 10
156.4119372923520075
 20
180.7042585524797005
 30
0.0
  0
LINE
  5
1F0
100
AcDbEntity
  8
0
 62
256
370
100
 48
1.0
  6
BYLAYER
100
AcDbLine
 10
72.1449999999999534
 20
252.9099999999999682
 30
0.0
 11
69.6049999999999613
 21
252.9099999999999682
 31
0.0
  0
ARC
  5
1F1
100
AcDbEntity
  8
0
 62
256
370
100
 48
1.0
  6
BYLAYER
100
AcDbCircle
 10
77.2428715814630209
 20
28.5474299182598727
 30
0.0
 40
3.7921487900059714
100
AcDbArc
 50
311.6893958173348551
 51
359.8121953618626776
  0
LINE
  5
1F2
100
AcDbEntity
  8
0
 62
256
370
100
 48
1.0
  6
BYLAYER
100
AcDbLine
 10
172.9750000000000796
 20
90.164999999999992
 30
0.0
 11
170.4350000000000023
 21
90.164999999999992
 31
0.0
  0
SPLINE
  5
1F3
100
AcDbEntity
  8
0
 62
256
370
100
 48
1.0
  6
BYLAYER
100
AcDbSpline
 70
8
 71
3
 72
8
 73
4
 74
0
 40
0.0
 40
0.0
 40
0.0
 40
0.0
 40
1.0
 40
1.0
 40
1.0
 40
1.0
 10
156.4119372923520075
 20
180.7042585524797005
 30
0.0
 10
156.5959668269483984
 20
181.1237326796394882
 30
0.0
 10
156.8171575345733686
 20
181.5336117487989895
 30
0.0
 10
157.2667841627351493
 20
181.5336117487989895
 30
0.0
  0
LINE
  5
1F4
100
AcDbEntity
  8
0
 62
256
370
100
 48
1.0
  6
BYLAYER
100
AcDbLine
 10
69.6049999999999613
 20
252.9099999999999682
 30
0.0
 11
69.6049999999999613
 21
247.3854999999999791
 31
0.0
  0
LINE
  5
1F5
100
AcDbEntity
  8
0
 62
256
370
100
 48
1.0
  6
BYLAYER
100
AcDbLine
 10
81.0350000000000108
 20
28.5350000000000605
 30
0.0
 11
81.0350000000000108
 21
41.2350000000000207
 31
0.0
  0
LINE
  5
1F6
100
AcDbEntity
  8
0
 62
256
370
100
 48
1.0
  6
BYLAYER
100
AcDbLine
 10
170.4350000000000023
 20
90.164999999999992
 30
0.0
 11
168.2125000000000341
 21
97.7849999999999682
 31
0.0
  0
LINE
  5
1F7
100
AcDbEntity
  8
0
 62
256
370
100
 48
1.0
  6
BYLAYER
100
AcDbLine
 10
157.2667841627351493
 20
181.5336117487989895
 30
0.0
 11
165.1164771019469413
 21
181.5336117487989895
 31
0.0
  0
LINE
  5
1F8
100
AcDbEntity
  8
0
 62
256
370
100
 48
1.0
  6
BYLAYER
100
AcDbLine
 10
69.6049999999999613
 20
247.3854999999999791
 30
0.0
 11
62.2135999999999427
 21
234.5839000000000567
 31
0.0
  0
SPLINE
  5
1F9
100
AcDbEntity
  8
0
 62
256
370
100
 48
1.0
  6
BYLAYER
100
AcDbSpline
 70
8
 71
3
 72
8
 73
4
 74
0
 40
0.0
 40
0.0
 40
0.0
 40
0.0
 40
1.0
 40
1.0
 40
1.0
 40
1.0
 10
81.0350000000000108
 20
41.2350000000000207
 30
0.0
 10
81.0350000000000108
 20
45.6800000000000708
 30
0.0
 10
76.4883999999999986
 20
46.3150000000000048
 30
0.0
 10
70.875
 20
46.3150000000000048
 30
0.0
  0
LINE
  5
1FA
100
AcDbEntity
  8
0
 62
256
370
100
 48
1.0
  6
BYLAYER
100
AcDbLine
 10
168.2125000000000341
 20
97.7849999999999682
 30
0.0
 11
165.0375000000000796
 21
97.7849999999999682
 31
0.0
  0
SPLINE
  5
1FB
100
AcDbEntity
  8
0
 62
256
370
100
 48
1.0
  6
BYLAYER
100
AcDbSpline
 70
8
 71
3
 72
8
 73
4
 74
0
 40
0.0
 40
0.0
 40
0.0
 40
0.0
 40
1.0
 40
1.0
 40
1.0
 40
1.0
 10
165.1164771019469413
 20
181.5336117487989895
 30
0.0
 10
165.8294409782058096
 20
181.1762379566927166
 30
0.0
 10
166.6003552913919634
 20
180.9036930837724526
 30
0.0
 10
166.9250172533639898
 20
179.9779239943999869
 30
0.0
  0
ARC
  5
1FC
100
AcDbEntity
  8
0
 62
256
370
100
 48
1.0
  6
BYLAYER
100
AcDbCircle
 10
63.2741230648535549
 20
233.8509532426778321
 30
0.0
 40
1.2891548084522326
100
AcDbArc
 50
145.350944727915504
 51
179.5979185246374925
  0
SPLINE
  5
1FD
100
AcDbEntity
  8
0
 62
256
370
100
 48
1.0
  6
BYLAYER
100
AcDbSpline
 70
8
 71
3
 72
8
 73
4
 74
0
 40
0.0
 40
0.0
 40
0.0
 40
0.0
 40
1.0
 40
1.0
 40
1.0
 40
1.0
 10
70.875
 20
46.3150000000000048
 30
0.0
 10
65.2616000000000014
 20
46.3150000000000048
 30
0.0
 10
60.7149999999999892
 20
45.6800000000000708
 30
0.0
 10
60.7149999999999892
 20
41.2350000000000207
 30
0.0
  0
LINE
  5
1FE
100
AcDbEntity
  8
0
 62
256
370
100
 48
1.0
  6
BYLAYER
100
AcDbLine
 10
165.0375000000000796
 20
97.7849999999999682
 30
0.0
 11
162.8149999999999977
 21
90.164999999999992
 31
0.0
  0
SPLINE
  5
1FF
100
AcDbEntity
  8
0
 62
256
370
100
 48
1.0
  6
BYLAYER
100
AcDbSpline
 70
8
 71
3
 72
8
 73
4
 74
0
 40
0.0
 40
0.0
 40
0.0
 40
0.0
 40
1.0
 40
1.0
 40
1.0
 40
1.0
 10
166.9250172533639898
 20
179.9779239943999869
 30
0.0
 10
169.1778381417520336
 20
173.8094671240295384
 30
0.0
 10
173.6289225358268595
 20
170.8611757447870048
 30
0.0
 10
178.7329999340660152
 20
169.820819321598151
 30
0.0
  0
ARC
  5
200
100
AcDbEntity
  8
0
 62
256
370
100
 48
1.0
  6
BYLAYER
100
AcDbCircle
 10
63.2549999999999386
 20
233.8600000000000705
 30
0.0
 40
3.8100000000000001
100
AcDbArc
 50
180.0
 51
270.0
  0
LINE
  5
201
100
AcDbEntity
  8
0
 62
256
370
100
 48
1.0
  6
BYLAYER
100
AcDbLine
 10
60.7149999999999892
 20
41.2350000000000207
 30
0.0
 11
60.7149999999999892
 21
28.5350000000000605
 31
0.0
  0
LINE
  5
202
100
AcDbEntity
  8
0
 62
256
370
100
 48
1.0
  6
BYLAYER
100
AcDbLine
 10
162.8149999999999977
 20
90.164999999999992
 30
0.0
 11
160.2750000000000625
 21
90.164999999999992
 31
0.0
  0
LINE
  5
203
100
AcDbEntity
  8
0
 62
256
370
100
 48
1.0
  6
BYLAYER
100
AcDbLine
 10
178.7329999340660152
 20
169.820819321598151
 30
0.0
 11
178.7369901057487027
 21
166.0862011105691067
 31
0.0
  0
ARC
  5
204
100
AcDbEntity
  8
0
 62
256
370
100
 48
1.0
  6
BYLAYER
100
AcDbCircle
 10
63.1030256517075401
 20
233.8703488798443288
 30
0.0
 40
3.6580402906289167
100
AcDbArc
 50
145.7312760400056675
 51
180.1620944225944356
  0
LINE
  5
205
100
AcDbEntity
  8
0
 62
256
370
100
 48
1.0
  6
BYLAYER
100
AcDbLine
 10
78.4949999999999761
 20
41.2350000000000207
 30
0.0
 11
78.4949999999999761
 21
34.8850000000000406
 31
0.0
  0
LINE
  5
206
100
AcDbEntity
  8
0
 62
256
370
100
 48
1.0
  6
BYLAYER
100
AcDbLine
 10
160.2750000000000625
 20
90.164999999999992
 30
0.0
 11
162.4975000000000023
 21
97.7849999999999682
 31
0.0
  0
ELLIPSE
  5
207
100
AcDbEntity
  8
0
 62
256
370
100
 48
1.0
  6
BYLAYER
100
AcDbEllipse
 10
178.3755843961181995
 20
166.1656269810074207
 30
0.0
 11
0.0
 21
-0.4098292063770506
 31
0.0
 40
0.8988870572579851
 41
0.1027074433083936
 42
1.375759801966262
  0
LINE
  5
208
100
AcDbEntity
  8
0
 62
256
370
100
 48
1.0
  6
BYLAYER
100
AcDbLine
 10
60.0799999999999841
 20
235.930100000000067
 30
0.0
 11
67.0650000000000119
 21
248.0712999999999795
 31
0.0
  0
LINE
  5
209
100
AcDbEntity
  8
page
 62
256
370
-1
 48
1.0
  6
BYLAYER
100
AcDbLine
 10
93.5
 20
1.5
 30
0.0
 11
93.5
 21
67.0
 31
0.0
  0
LINE
  5
20A
100
AcDbEntity
  8
page
 62
256
370
-1
 48
1.0
  6
BYLAYER
100
AcDbLine
 10
93.5
 20
70.0
 30
0.0
 11
93.5
 21
137.0
 31
0.0
  0
LINE
  5
20B
100
AcDbEntity
  8
page
 62
256
370
-1
 48
1.0
  6
BYLAYER
100
AcDbLine
 10
93.5
 20
140.0
 30
0.0
 11
93.5
 21
207.0
 31
0.0
  0
LINE
  5
20C
100
AcDbEntity
  8
page
 62
256
370
-1
 48
1.0
  6
BYLAYER
100
AcDbLine
 10
93.5
 20
210.0
 30
0.0
 11
93.5
 21
275.5
 31
0.0
  0
LINE
  5
20D
100
AcDbEntity
  8
page
 62
256
370
-1
 48
1.0
  6
BYLAYER
100
AcDbLine
 10
96.5
 20
1.5
 30
0.0
 11
96.5
 21
67.0
 31
0.0
  0
LINE
  5
20E
100
AcDbEntity
  8
page
 62
256
370
-1
 48
1.0
  6
BYLAYER
100
AcDbLine
 10
96.5
 20
70.0
 30
0.0
 11
96.5
 21
137.0
 31
0.0
  0
LINE
  5
20F
100
AcDbEntity
  8
page
 62
256
370
-1
 48
1.0
  6
BYLAYER
100
AcDbLine
 10
96.5
 20
140.0
 30
0.0
 11
96.5
 21
207.0
 31
0.0
  0
LINE
  5
210
100
AcDbEntity
  8
page
 62
256
370
-1
 48
1.0
  6
BYLAYER
100
AcDbLine
 10
96.5
 20
210.0
 30
0.0
 11
96.5
 21
275.5
 31
0.0
  0
LINE
  5
211
100
AcDbEntity
  8
page
 62
256
370
-1
 48
1.0
  6
BYLAYER
100
AcDbLine
 10
48.25
 20
70.0
 30
0.0
 11
48.25
 21
137.0
 31
0.0
  0
LINE
  5
212
100
AcDbEntity
  8
page
 62
256
370
-1
 48
1.0
  6
BYLAYER
100
AcDbLine
 10
48.25
 20
140.0
 30
0.0
 11
48.25
 21
207.0
 31
0.0
  0
LINE
  5
213
100
AcDbEntity
  8
page
 62
256
370
-1
 48
1.0
  6
BYLAYER
100
AcDbLine
 10
48.25
 20
210.0
 30
0.0
 11
48.25
 21
275.5
 31
0.0
  0
LINE
  5
214
100
AcDbEntity
  8
page
 62
256
370
-1
 48
1.0
  6
BYLAYER
100
AcDbLine
 10
48.25
 20
1.5
 30
0.0
 11
48.25
 21
67.0
 31
0.0
  0
LINE
  5
215
100
AcDbEntity
  8
page
 62
256
370
-1
 48
1.0
  6
BYLAYER
100
AcDbLine
 10
45.25
 20
70.0
 30
0.0
 11
45.25
 21
137.0
 31
0.0
  0
LINE
  5
216
100
AcDbEntity
  8
page
 62
256
370
-1
 48
1.0
  6
BYLAYER
100
AcDbLine
 10
45.25
 20
140.0
 30
0.0
 11
45.25
 21
207.0
 31
0.0
  0
LINE
  5
217
100
AcDbEntity
  8
page
 62
256
370
-1
 48
1.0
  6
BYLAYER
100
AcDbLine
 10
45.25
 20
210.0
 30
0.0
 11
45.25
 21
275.5
 31
0.0
  0
LINE
  5
218
100
AcDbEntity
  8
page
 62
256
370
-1
 48
1.0
  6
BYLAYER
100
AcDbLine
 10
45.25
 20
1.5
 30
0.0
 11
45.25
 21
67.0
 31
0.0
  0
LINE
  5
219
100
AcDbEntity
  8
0
 62
256
370
100
 48
1.0
  6
BYLAYER
100
AcDbLine
 10
162.4975000000000023
 20
97.7849999999999682
 30
0.0
 11
155.19500000000005
 21
97.7849999999999682
 31
0.0
  0
SPLINE
  5
21A
100
AcDbEntity
  8
0
 62
256
370
100
 48
1.0
  6
BYLAYER
100
AcDbSpline
 70
8
 71
3
 72
8
 73
4
 74
0
 40
0.0
 40
0.0
 40
0.0
 40
0.0
 40
1.0
 40
1.0
 40
1.0
 40
1.0
 10
158.1934268963524346
 20
184.2706507941852578
 30
0.0
 10
157.8973777513688219
 20
184.2706507941852578
 30
0.0
 10
157.9064377882482688
 20
183.6309107336992952
 30
0.0
 10
158.1934268963524346
 20
183.6309106292519004
 30
0.0
  0
LINE
  5
21B
100
AcDbEntity
  8
0
 62
256
370
100
 48
1.0
  6
BYLAYER
100
AcDbLine
 10
67.0650000000000119
 20
248.0712999999999795
 30
0.0
 11
67.0650000000000119
 21
250.3700000000000614
 31
0.0
  0
LINE
  5
21C
100
AcDbEntity
  8
page
 62
256
370
-1
 48
1.0
  6
BYLAYER
100
AcDbLine
 10
1.5
 20
137.0
 30
0.0
 11
1.5
 21
70.0
 31
0.0
  0
LINE
  5
21D
100
AcDbEntity
  8
page
 62
256
370
-1
 48
1.0
  6
BYLAYER
100
AcDbLine
 10
1.5
 20
207.0
 30
0.0
 11
1.5
 21
140.0
 31
0.0
  0
LINE
  5
21E
100
AcDbEntity
  8
page
 62
256
370
-1
 48
1.0
  6
BYLAYER
100
AcDbLine
 10
1.5
 20
275.5
 30
0.0
 11
1.5
 21
210.0
 31
0.0
  0
LINE
  5
21F
100
AcDbEntity
  8
page
 62
256
370
-1
 48
1.0
  6
BYLAYER
100
AcDbLine
 10
1.5
 20
67.0
 30
0.0
 11
1.5
 21
1.5
 31
0.0
  0
LINE
  5
220
100
AcDbEntity
  8
page
 62
256
370
-1
 48
1.0
  6
BYLAYER
100
AcDbLine
 10
141.75
 20
1.5
 30
0.0
 11
141.75
 21
67.0
 31
0.0
  0
LINE
  5
221
100
AcDbEntity
  8
page
 62
256
370
-1
 48
1.0
  6
BYLAYER
100
AcDbLine
 10
141.75
 20
70.0
 30
0.0
 11
141.75
 21
137.0
 31
0.0
  0
LINE
  5
222
100
AcDbEntity
  8
page
 62
256
370
-1
 48
1.0
  6
BYLAYER
100
AcDbLine
 10
141.75
 20
140.0
 30
0.0
 11
141.75
 21
207.0
 31
0.0
  0
LINE
  5
223
100
AcDbEntity
  8
page
 62
256
370
-1
 48
1.0
  6
BYLAYER
100
AcDbLine
 10
141.75
 20
210.0
 30
0.0
 11
141.75
 21
275.5
 31
0.0
  0
LINE
  5
224
100
AcDbEntity
  8
page
 62
256
370
-1
 48
1.0
  6
BYLAYER
100
AcDbLine
 10
144.75
 20
1.5
 30
0.0
 11
144.75
 21
67.0
 31
0.0
  0
LINE
  5
225
100
AcDbEntity
  8
page
 62
256
370
-1
 48
1.0
  6
BYLAYER
100
AcDbLine
 10
144.75
 20
70.0
 30
0.0
 11
144.75
 21
137.0
 31
0.0
  0
LINE
  5
226
100
AcDbEntity
  8
page
 62
256
370
-1
 48
1.0
  6
BYLAYER
100
AcDbLine
 10
144.75
 20
140.0
 30
0.0
 11
144.75
 21
207.0
 31
0.0
  0
LINE
  5
227
100
AcDbEntity
  8
page
 62
256
370
-1
 48
1.0
  6
BYLAYER
100
AcDbLine
 10
144.75
 20
210.0
 30
0.0
 11
144.75
 21
275.5
 31
0.0
  0
LINE
  5
228
100
AcDbEntity
  8
page
 62
256
370
-1
 48
1.0
  6
BYLAYER
100
AcDbLine
 10
188.5
 20
1.5
 30
0.0
 11
188.5
 21
67.0
 31
0.0
  0
LINE
  5
229
100
AcDbEntity
  8
page
 62
256
370
-1
 48
1.0
  6
BYLAYER
100
AcDbLine
 10
188.5
 20
70.0
 30
0.0
 11
188.5
 21
137.0
 31
0.0
  0
LINE
  5
22A
100
AcDbEntity
  8
page
 62
256
370
-1
 48
1.0
  6
BYLAYER
100
AcDbLine
 10
188.5
 20
140.0
 30
0.0
 11
188.5
 21
207.0
 31
0.0
  0
LINE
  5
22B
100
AcDbEntity
  8
page
 62
256
370
-1
 48
1.0
  6
BYLAYER
100
AcDbLine
 10
188.5
 20
210.0
 30
0.0
 11
188.5
 21
275.5
 31
0.0
  0
LINE
  5
22C
100
AcDbEntity
  8
page
 62
256
370
-1
 48
1.0
  6
BYLAYER
100
AcDbLine
 10
1.5
 20
137.0
 30
0.0
 11
45.25
 21
137.0
 31
0.0
  0
LINE
  5
22D
100
AcDbEntity
  8
page
 62
256
370
-1
 48
1.0
  6
BYLAYER
100
AcDbLine
 10
48.25
 20
137.0
 30
0.0
 11
93.5
 21
137.0
 31
0.0
  0
LINE
  5
22E
100
AcDbEntity
  8
page
 62
256
370
-1
 48
1.0
  6
BYLAYER
100
AcDbLine
 10
96.5
 20
137.0
 30
0.0
 11
141.75
 21
137.0
 31
0.0
  0
LINE
  5
22F
100
AcDbEntity
  8
page
 62
256
370
-1
 48
1.0
  6
BYLAYER
100
AcDbLine
 10
144.75
 20
137.0
 30
0.0
 11
188.5
 21
137.0
 31
0.0
  0
LINE
  5
230
100
AcDbEntity
  8
page
 62
256
370
-1
 48
1.0
  6
BYLAYER
100
AcDbLine
 10
1.5
 20
140.0
 30
0.0
 11
45.25
 21
140.0
 31
0.0
  0
LINE
  5
231
100
AcDbEntity
  8
page
 62
256
370
-1
 48
1.0
  6
BYLAYER
100
AcDbLine
 10
48.25
 20
140.0
 30
0.0
 11
93.5
 21
140.0
 31
0.0
  0
LINE
  5
232
100
AcDbEntity
  8
page
 62
256
370
-1
 48
1.0
  6
BYLAYER
100
AcDbLine
 10
96.5
 20
140.0
 30
0.0
 11
141.75
 21
140.0
 31
0.0
  0
LINE
  5
233
100
AcDbEntity
  8
page
 62
256
370
-1
 48
1.0
  6
BYLAYER
100
AcDbLine
 10
144.75
 20
140.0
 30
0.0
 11
188.5
 21
140.0
 31
0.0
  0
LINE
  5
234
100
AcDbEntity
  8
0
 62
256
370
100
 48
1.0
  6
BYLAYER
100
AcDbLine
 10
155.19500000000005
 20
97.7849999999999682
 30
0.0
 11
155.19500000000005
 21
111.7549999999999955
 31
0.0
  0
LINE
  5
235
100
AcDbEntity
  8
0
 62
256
370
100
 48
1.0
  6
BYLAYER
100
AcDbLine
 10
158.1934268963524346
 20
183.6309106292519004
 30
0.0
 11
159.4696950448523864
 21
183.6309106292519004
 31
0.0
  0
ARC
  5
236
100
AcDbEntity
  8
0
 62
256
370
100
 48
1.0
  6
BYLAYER
100
AcDbCircle
 10
67.0650000000000119
 20
251.6400000000000148
 30
0.0
 40
1.27
100
AcDbArc
 50
180.0
 51
270.0
  0
LINE
  5
237
100
AcDbEntity
  8
page
 62
256
370
-1
 48
1.0
  6
BYLAYER
100
AcDbLine
 10
1.5
 20
70.0
 30
0.0
 11
45.25
 21
70.0
 31
0.0
  0
LINE
  5
238
100
AcDbEntity
  8
page
 62
256
370
-1
 48
1.0
  6
BYLAYER
100
AcDbLine
 10
48.25
 20
70.0
 30
0.0
 11
93.5
 21
70.0
 31
0.0
  0
LINE
  5
239
100
AcDbEntity
  8
page
 62
256
370
-1
 48
1.0
  6
BYLAYER
100
AcDbLine
 10
96.5
 20
70.0
 30
0.0
 11
141.75
 21
70.0
 31
0.0
  0
LINE
  5
23A
100
AcDbEntity
  8
page
 62
256
370
-1
 48
1.0
  6
BYLAYER
100
AcDbLine
 10
144.75
 20
70.0
 30
0.0
 11
188.5
 21
70.0
 31
0.0
  0
LINE
  5
23B
100
AcDbEntity
  8
page
 62
256
370
-1
 48
1.0
  6
BYLAYER
100
AcDbLine
 10
1.5
 20
67.0
 30
0.0
 11
45.25
 21
67.0
 31
0.0
  0
LINE
  5
23C
100
AcDbEntity
  8
page
 62
256
370
-1
 48
1.0
  6
BYLAYER
100
AcDbLine
 10
48.25
 20
67.0
 30
0.0
 11
93.5
 21
67.0
 31
0.0
  0
LINE
  5
23D
100
AcDbEntity
  8
page
 62
256
370
-1
 48
1.0
  6
BYLAYER
100
AcDbLine
 10
96.5
 20
67.0
 30
0.0
 11
141.75
 21
67.0
 31
0.0
  0
LINE
  5
23E
100
AcDbEntity
  8
page
 62
256
370
-1
 48
1.0
  6
BYLAYER
100
AcDbLine
 10
144.75
 20
67.0
 30
0.0
 11
188.5
 21
67.0
 31
0.0
  0
LINE
  5
23F
100
AcDbEntity
  8
page
 62
256
370
-1
 48
1.0
  6
BYLAYER
100
AcDbLine
 10
1.5
 20
207.0
 30
0.0
 11
45.25
 21
207.0
 31
0.0
  0
LINE
  5
240
100
AcDbEntity
  8
page
 62
256
370
-1
 48
1.0
  6
BYLAYER
100
AcDbLine
 10
144.75
 20
207.0
 30
0.0
 11
188.5
 21
207.0
 31
0.0
  0
LINE
  5
241
100
AcDbEntity
  8
page
 62
256
370
-1
 48
1.0
  6
BYLAYER
100
AcDbLine
 10
48.25
 20
207.0
 30
0.0
 11
93.5
 21
207.0
 31
0.0
  0
LINE
  5
242
100
AcDbEntity
  8
page
 62
256
370
-1
 48
1.0
  6
BYLAYER
100
AcDbLine
 10
96.5
 20
207.0
 30
0.0
 11
141.75
 21
207.0
 31
0.0
  0
LINE
  5
243
100
AcDbEntity
  8
page
 62
256
370
-1
 48
1.0
  6
BYLAYER
100
AcDbLine
 10
1.5
 20
210.0
 30
0.0
 11
45.25
 21
210.0
 31
0.0
  0
LINE
  5
244
100
AcDbEntity
  8
page
 62
256
370
-1
 48
1.0
  6
BYLAYER
100
AcDbLine
 10
144.75
 20
210.0
 30
0.0
 11
188.5
 21
210.0
 31
0.0
  0
LINE
  5
245
100
AcDbEntity
  8
page
 62
256
370
-1
 48
1.0
  6
BYLAYER
100
AcDbLine
 10
48.25
 20
210.0
 30
0.0
 11
93.5
 21
210.0
 31
0.0
  0
LINE
  5
246
100
AcDbEntity
  8
page
 62
256
370
-1
 48
1.0
  6
BYLAYER
100
AcDbLine
 10
96.5
 20
210.0
 30
0.0
 11
141.75
 21
210.0
 31
0.0
  0
LINE
  5
247
100
AcDbEntity
  8
page
 62
256
370
-1
 48
1.0
  6
BYLAYER
100
AcDbLine
 10
45.25
 20
275.5
 30
0.0
 11
1.4999999999999998
 21
275.5
 31
0.0
  0
LINE
  5
248
100
AcDbEntity
  8
page
 62
256
370
-1
 48
1.0
  6
BYLAYER
100
AcDbLine
 10
93.5
 20
275.5
 30
0.0
 11
48.25
 21
275.5
 31
0.0
  0
LINE
  5
249
100
AcDbEntity
  8
0
 62
256
370
100
 48
1.0
  6
BYLAYER
100
AcDbLine
 10
155.19500000000005
 20
111.7549999999999955
 30
0.0
 11
153.9250000000000114
 21
111.7549999999999955
 31
0.0
  0
SPLINE
  5
24A
100
AcDbEntity
  8
0
 62
256
370
100
 48
1.0
  6
BYLAYER
100
AcDbSpline
 70
8
 71
3
 72
8
 73
4
 74
0
 40
0.0
 40
0.0
 40
0.0
 40
0.0
 40
1.0
 40
1.0
 40
1.0
 40
1.0
 10
159.4696950448523864
 20
183.6309106292519004
 30
0.0
 10
160.5486731446746376
 20
183.145916768912997
 30
0.0
 10
161.1856115757156829
 20
182.4561781683465256
 30
0.0
 10
161.4823845847857058
 20
181.5289072301852684
 30
0.0
  0
LINE
  5
24B
100
AcDbEntity
  8
0
 62
256
370
100
 48
1.0
  6
BYLAYER
100
AcDbLine
 10
65.7949999999999733
 20
251.6400000000000148
 30
0.0
 11
65.7949999999999733
 21
252.9099999999999682
 31
0.0
  0
LINE
  5
24C
100
AcDbEntity
  8
page
 62
256
370
-1
 48
1.0
  6
BYLAYER
100
AcDbLine
 10
141.75
 20
275.5
 30
0.0
 11
96.5
 21
275.5
 31
0.0
  0
LINE
  5
24D
100
AcDbEntity
  8
page
 62
256
370
-1
 48
1.0
  6
BYLAYER
100
AcDbLine
 10
188.5
 20
275.5
 30
0.0
 11
144.75
 21
275.5
 31
0.0
  0
LINE
  5
24E
100
AcDbEntity
  8
page
 62
256
370
-1
 48
1.0
  6
BYLAYER
100
AcDbLine
 10
144.75
 20
1.5
 30
0.0
 11
188.5
 21
1.5
 31
0.0
  0
LINE
  5
24F
100
AcDbEntity
  8
page
 62
256
370
-1
 48
1.0
  6
BYLAYER
100
AcDbLine
 10
96.5
 20
1.5
 30
0.0
 11
141.75
 21
1.5
 31
0.0
  0
LINE
  5
250
100
AcDbEntity
  8
page
 62
256
370
-1
 48
1.0
  6
BYLAYER
100
AcDbLine
 10
48.2499999999999929
 20
1.5
 30
0.0
 11
93.5
 21
1.5
 31
0.0
  0
LINE
  5
251
100
AcDbEntity
  8
page
 62
256
370
-1
 48
1.0
  6
BYLAYER
100
AcDbLine
 10
1.5
 20
1.5
 30
0.0
 11
45.25
 21
1.5
 31
0.0
  0
LINE
  5
252
100
AcDbEntity
  8
0
 62
256
370
100
 48
1.0
  6
BYLAYER
100
AcDbLine
 10
153.9250000000000114
 20
111.7549999999999955
 30
0.0
 11
153.9250000000000114
 21
114.2949999999999875
 31
0.0
  0
LINE
  5
253
100
AcDbEntity
  8
0
 62
256
370
100
 48
1.0
  6
BYLAYER
100
AcDbLine
 10
161.4823845847857058
 20
181.5289072301852684
 30
0.0
 11
161.9723541958190935
 21
181.5289072301852684
 31
0.0
  0
ARC
  5
254
100
AcDbEntity
  8
0
 62
256
370
100
 48
1.0
  6
BYLAYER
100
AcDbCircle
 10
68.3349999999999653
 20
252.9099999999999682
 30
0.0
 40
2.54
100
AcDbArc
 50
90.0000000000000142
 51
180.0
  0
LINE
  5
255
100
AcDbEntity
  8
0
 62
256
370
100
 48
1.0
  6
BYLAYER
100
AcDbLine
 10
157.7349999999999852
 20
111.7549999999999955
 30
0.0
 11
157.7349999999999852
 21
100.3249999999999886
 31
0.0
  0
LINE
  5
256
100
AcDbEntity
  8
0
 62
256
370
100
 48
1.0
  6
BYLAYER
100
AcDbLine
 10
161.9723541958190935
 20
181.5289072301852684
 30
0.0
 11
161.9723541958190935
 21
181.5321712106185998
 31
0.0
  0
LINE
  5
257
100
AcDbEntity
  8
0
 62
256
370
100
 48
1.0
  6
BYLAYER
100
AcDbLine
 10
68.3349999999999653
 20
255.4499999999999886
 30
0.0
 11
73.414999999999992
 21
255.4499999999999886
 31
0.0
  0
LINE
  5
258
100
AcDbEntity
  8
0
 62
256
370
100
 48
1.0
  6
BYLAYER
100
AcDbLine
 10
157.7349999999999852
 20
100.3249999999999886
 30
0.0
 11
175.5150000000000148
 21
100.3249999999999886
 31
0.0
  0
LINE
  5
259
100
AcDbEntity
  8
0
 62
256
370
100
 48
1.0
  6
BYLAYER
100
AcDbLine
 10
161.9723541958190935
 20
181.5321712106185998
 30
0.0
 11
162.4564559073190537
 21
181.5321712106185998
 31
0.0
  0
ARC
  5
25A
100
AcDbEntity
  8
0
 62
256
370
100
 48
1.0
  6
BYLAYER
100
AcDbCircle
 10
73.414999999999992
 20
252.9099999999999682
 30
0.0
 40
2.54
100
AcDbArc
 50
0.0
 51
90.0000000000000142
  0
LINE
  5
25B
100
AcDbEntity
  8
0
 62
256
370
100
 48
1.0
  6
BYLAYER
100
AcDbLine
 10
175.5150000000000148
 20
100.3249999999999886
 30
0.0
 11
175.5150000000000148
 21
111.7549999999999955
 31
0.0
  0
SPLINE
  5
25C
100
AcDbEntity
  8
0
 62
256
370
100
 48
1.0
  6
BYLAYER
100
AcDbSpline
 70
8
 71
3
 72
8
 73
4
 74
0
 40
0.0
 40
0.0
 40
0.0
 40
0.0
 40
1.0
 40
1.0
 40
1.0
 40
1.0
 10
162.4564559073190537
 20
181.5321712106185998
 30
0.0
 10
162.7532185888859146
 20
182.4594111279098456
 30
0.0
 10
163.3902340067689067
 20
183.14591948454472
 30
0.0
 10
164.4691454472524015
 20
183.6309106292519004
 30
0.0
  0
LINE
  5
25D
100
AcDbEntity
  8
0
 62
256
370
100
 48
1.0
  6
BYLAYER
100
AcDbLine
 10
75.9549999999999415
 20
252.9099999999999682
 30
0.0
 11
75.9549999999999415
 21
251.6400000000000148
 31
0.0
  0
LINE
  5
25E
100
AcDbEntity
  8
0
 62
256
370
100
 48
1.0
  6
BYLAYER
100
AcDbLine
 10
175.5150000000000148
 20
111.7549999999999955
 30
0.0
 11
157.7349999999999852
 21
111.7549999999999955
 31
0.0
  0
LINE
  5
25F
100
AcDbEntity
  8
0
 62
256
370
100
 48
1.0
  6
BYLAYER
100
AcDbLine
 10
164.4691454472524015
 20
183.6309106292519004
 30
0.0
 11
165.7160740980857554
 21
183.6309106292519004
 31
0.0
  0
ARC
  5
260
100
AcDbEntity
  8
0
 62
256
370
100
 48
1.0
  6
BYLAYER
100
AcDbCircle
 10
74.6849999999999881
 20
251.6400000000000148
 30
0.0
 40
1.27
100
AcDbArc
 50
270.0
 51
0.0
  0
SPLINE
  5
261
100
AcDbEntity
  8
0
 62
256
370
100
 48
1.0
  6
BYLAYER
100
AcDbSpline
 70
8
 71
3
 72
8
 73
4
 74
0
 40
0.0
 40
0.0
 40
0.0
 40
0.0
 40
1.0
 40
1.0
 40
1.0
 40
1.0
 10
165.7160740980857554
 20
183.6309106292519004
 30
0.0
 10
166.0238355705378694
 20
183.6309106292519004
 30
0.0
 10
165.9772519591546143
 20
184.2706507941852578
 30
0.0
 10
165.7160740980857554
 20
184.2706507941852578
 30
0.0
  0
LINE
  5
262
100
AcDbEntity
  8
0
 62
256
370
100
 48
1.0
  6
BYLAYER
100
AcDbLine
 10
74.6849999999999881
 20
250.3700000000000614
 30
0.0
 11
74.6849999999999881
 21
248.0712999999999795
 31
0.0
  0
LINE
  5
263
100
AcDbEntity
  8
0
 62
256
370
100
 48
1.0
  6
BYLAYER
100
AcDbLine
 10
165.7160740980857554
 20
184.2706507941852578
 30
0.0
 11
158.1934268963524346
 21
184.2706507941852578
 31
0.0
  0
LINE
  5
264
100
AcDbEntity
  8
0
 62
256
370
100
 48
1.0
  6
BYLAYER
100
AcDbLine
 10
74.6849999999999881
 20
248.0712999999999795
 30
0.0
 11
81.6699999999999875
 21
235.930100000000067
 31
0.0
  0
LINE
  5
265
100
AcDbEntity
  8
0
 62
256
370
100
 48
1.0
  6
BYLAYER
100
AcDbLine
 10
160.7899724398524199
 20
183.6309106292519004
 30
0.0
 11
163.1430001527190825
 21
183.6309106292519004
 31
0.0
  0
ARC
  5
266
100
AcDbEntity
  8
0
 62
256
370
100
 48
1.0
  6
BYLAYER
100
AcDbCircle
 10
78.6469743482923747
 20
233.8703488798443288
 30
0.0
 40
3.6580402906289979
100
AcDbArc
 50
359.8379055774100834
 51
34.268723959994027
  0
SPLINE
  5
267
100
AcDbEntity
  8
0
 62
256
370
100
 48
1.0
  6
BYLAYER
100
AcDbSpline
 70
8
 71
3
 72
8
 73
4
 74
0
 40
0.0
 40
0.0
 40
0.0
 40
0.0
 40
1.0
 40
1.0
 40
1.0
 40
1.0
 10
163.1430001527190825
 20
183.6309106292519004
 30
0.0
 10
162.6357235240861314
 20
183.1556274501561461
 30
0.0
 10
162.0867772978551216
 20
182.6722379014797752
 30
0.0
 10
162.0867782367190841
 20
181.9303768234852896
 30
0.0
  0
ARC
  5
268
100
AcDbEntity
  8
0
 62
256
370
100
 48
1.0
  6
BYLAYER
100
AcDbCircle
 10
78.4949999999999761
 20
233.8600000000000705
 30
0.0
 40
3.8100000000000001
100
AcDbArc
 50
270.0
 51
0.0
  0
LINE
  5
269
100
AcDbEntity
  8
0
 62
256
370
100
 48
1.0
  6
BYLAYER
100
AcDbLine
 10
162.0867782367190841
 20
181.9303768234852896
 30
0.0
 11
161.9723541958190935
 21
181.9303768234852896
 31
0.0
  0
LINE
  5
26A
100
AcDbEntity
  8
0
 62
256
370
100
 48
1.0
  6
BYLAYER
100
AcDbLine
 10
78.4949999999999761
 20
230.0500000000000114
 30
0.0
 11
63.2549999999999386
 21
230.0500000000000114
 31
0.0
  0
LINE
  5
26B
100
AcDbEntity
  8
0
 62
256
370
100
 48
1.0
  6
BYLAYER
100
AcDbLine
 10
161.9723541958190935
 20
181.9303768234852896
 30
0.0
 11
161.8520622553857606
 21
181.9303768234852896
 31
0.0
  0
LINE
  5
26C
100
AcDbEntity
  8
0
 62
256
370
100
 48
1.0
  6
BYLAYER
100
AcDbLine
 10
166.9937869277199809
 20
240.0364107020677125
 30
0.0
 11
165.4711415943866655
 21
240.0364107020677125
 31
0.0
  0
SPLINE
  5
26D
100
AcDbEntity
  8
0
 62
256
370
100
 48
1.0
  6
BYLAYER
100
AcDbSpline
 70
8
 71
3
 72
8
 73
4
 74
0
 40
0.0
 40
0.0
 40
0.0
 40
0.0
 40
1.0
 40
1.0
 40
1.0
 40
1.0
 10
161.8520622553857606
 20
181.9303768234852896
 30
0.0
 10
161.8520594387939582
 20
182.6745612288640643
 30
0.0
 10
161.2985709888921804
 20
183.1541763627909631
 30
0.0
 10
160.7899724398524199
 20
183.6309106292519004
 30
0.0
  0
ARC
  5
26E
100
AcDbEntity
  8
0
 62
256
370
100
 48
1.0
  6
BYLAYER
100
AcDbCircle
 10
159.7045480516018188
 20
238.1296971703518182
 30
0.0
 40
6.0736445055432711
100
AcDbArc
 50
18.2963731602495585
 51
26.9433567358301858
  0
LINE
  5
26F
100
AcDbEntity
  8
0
 62
256
370
100
 48
1.0
  6
BYLAYER
100
AcDbLine
 10
155.9923852923104732
 20
176.2172318543009624
 30
0.0
 11
165.858781414736427
 21
176.2172318543009624
 31
0.0
  0
LINE
  5
270
100
AcDbEntity
  8
0
 62
256
370
100
 48
1.0
  6
BYLAYER
100
AcDbLine
 10
165.1189282610533269
 20
240.881722702067691
 30
0.0
 11
166.202661594386683
 21
241.9654560354010471
 31
0.0
  0
SPLINE
  5
271
100
AcDbEntity
  8
0
 62
256
370
100
 48
1.0
  6
BYLAYER
100
AcDbSpline
 70
8
 71
3
 72
8
 73
4
 74
0
 40
0.0
 40
0.0
 40
0.0
 40
0.0
 40
1.0
 40
1.0
 40
1.0
 40
1.0
 10
165.858781414736427
 20
176.2172318543009624
 30
0.0
 10
166.0983682221143738
 20
176.2172318543009624
 30
0.0
 10
166.1876936136984568
 20
176.7679734564362661
 30
0.0
 10
166.074338938809376
 20
177.112194399646171
 30
0.0
  0
ARC
  5
272
100
AcDbEntity
  8
0
 62
256
370
100
 48
1.0
  6
BYLAYER
100
AcDbCircle
 10
165.8184026974169853
 20
242.3474720354010401
 30
0.0
 40
0.5418404969697093
100
AcDbArc
 50
315.1677050413140933
 51
44.8322949586856367
  0
SPLINE
  5
273
100
AcDbEntity
  8
0
 62
256
370
100
 48
1.0
  6
BYLAYER
100
AcDbSpline
 70
8
 71
3
 72
8
 73
4
 74
0
 40
0.0
 40
0.0
 40
0.0
 40
0.0
 40
1.0
 40
1.0
 40
1.0
 40
1.0
 10
166.074338938809376
 20
177.112194399646171
 30
0.0
 10
165.718145231905055
 20
178.1714210165294219
 30
0.0
 10
165.2835141383587256
 20
180.2418512278446769
 30
0.0
 10
164.7899214514374933
 20
180.2418512278446769
 30
0.0
  0
LINE
  5
274
100
AcDbEntity
  8
0
 62
256
370
100
 48
1.0
  6
BYLAYER
100
AcDbLine
 10
166.202661594386683
 20
242.7294880354010047
 30
0.0
 11
164.2519415943866932
 21
244.6802080354009945
 31
0.0
  0
LINE
  5
275
100
AcDbEntity
  8
0
 62
256
370
100
 48
1.0
  6
BYLAYER
100
AcDbLine
 10
164.7899214514374933
 20
180.2418512278446769
 30
0.0
 11
157.2051299076223927
 21
180.2418512278446769
 31
0.0
  0
ARC
  5
276
100
AcDbEntity
  8
0
 62
256
370
100
 48
1.0
  6
BYLAYER
100
AcDbCircle
 10
163.8699255943866717
 20
244.2959491384312969
 30
0.0
 40
0.5418404969697074
100
AcDbArc
 50
45.1677050413136953
 51
134.8322949586860773
  0
SPLINE
  5
277
100
AcDbEntity
  8
0
 62
256
370
100
 48
1.0
  6
BYLAYER
100
AcDbSpline
 70
8
 71
3
 72
8
 73
4
 74
0
 40
0.0
 40
0.0
 40
0.0
 40
0.0
 40
1.0
 40
1.0
 40
1.0
 40
1.0
 10
157.2051299076223927
 20
180.2418512278446769
 30
0.0
 10
156.7941215693014101
 20
180.2418512278446769
 30
0.0
 10
156.2458963905650364
 20
178.138072954553877
 30
0.0
 10
155.7662796320363725
 20
177.0861838701321744
 30
0.0
  0
LINE
  5
278
100
AcDbEntity
  8
0
 62
256
370
100
 48
1.0
  6
BYLAYER
100
AcDbLine
 10
163.4879095943866503
 20
244.6802080354009945
 30
0.0
 11
162.4041762610533794
 21
243.5964747020676668
 31
0.0
  0
SPLINE
  5
279
100
AcDbEntity
  8
0
 62
256
370
100
 48
1.0
  6
BYLAYER
100
AcDbSpline
 70
8
 71
3
 72
8
 73
4
 74
0
 40
0.0
 40
0.0
 40
0.0
 40
0.0
 40
1.0
 40
1.0
 40
1.0
 40
1.0
 10
155.7662796320363725
 20
177.0861838701321744
 30
0.0
 10
155.6710074763492457
 20
176.66810087754493
 30
0.0
 10
155.7653792615319901
 20
176.2172318543009624
 30
0.0
 10
155.9923852923104732
 20
176.2172318543009624
 30
0.0
  0
ARC
  5
27A
100
AcDbEntity
  8
0
 62
256
370
100
 48
1.0
  6
BYLAYER
100
AcDbCircle
 10
159.7378367016108314
 20
238.2075635526908854
 30
0.0
 40
6.012464554750057
100
AcDbArc
 50
63.6745947946538777
 51
72.2069921460912383
  0
ELLIPSE
  5
27B
100
AcDbEntity
  8
0
 62
256
370
100
 48
1.0
  6
BYLAYER
100
AcDbEllipse
 10
156.8845539424853541
 20
170.9756900019919215
 30
0.0
 11
0.0
 21
-1.0025100582658648
 31
0.0
 40
0.8988870572579953
 41
0.0000001405772735
 42
1.570796186952619
  0
LINE
  5
27C
100
AcDbEntity
  8
0
 62
256
370
100
 48
1.0
  6
BYLAYER
100
AcDbLine
 10
161.575120261053371
 20
243.9324320354010069
 30
0.0
 11
161.575120261053371
 21
245.4550773687343224
 31
0.0
  0
ELLIPSE
  5
27D
100
AcDbEntity
  8
0
 62
256
370
100
 48
1.0
  6
BYLAYER
100
AcDbEllipse
 10
156.8845534574460601
 20
170.975690224870533
 30
0.0
 11
0.0
 21
-1.002510281144702
 31
0.0
 40
0.8988870572580032
 41
4.7123893435203588
 42
0.0000006791072407
  0
ARC
  5
27E
100
AcDbEntity
  8
0
 62
256
370
100
 48
1.0
  6
BYLAYER
100
AcDbCircle
 10
161.033229484764405
 20
245.4550532591120771
 30
0.0
 40
0.5418907768252631
100
AcDbArc
 50
0.0025491846800882
 51
89.9974508154399331
  0
ELLIPSE
  5
27F
100
AcDbEntity
  8
0
 62
256
370
100
 48
1.0
  6
BYLAYER
100
AcDbEllipse
 10
156.8845534574460601
 20
170.9756894971180259
 30
0.0
 11
0.0
 21
1.0025102811447404
 31
0.0
 40
0.8988870572579987
 41
6.2831846280723456
 42
1.5707959639063429
  0
LINE
  5
280
100
AcDbEntity
  8
0
 62
256
370
100
 48
1.0
  6
BYLAYER
100
AcDbLine
 10
161.0332535943866503
 20
245.996944035401043
 30
0.0
 11
158.2588962610533372
 21
245.996944035401043
 31
0.0
  0
ELLIPSE
  5
281
100
AcDbEntity
  8
0
 62
256
370
100
 48
1.0
  6
BYLAYER
100
AcDbEllipse
 10
156.8845539424853541
 20
170.9756897199966943
 30
0.0
 11
0.0
 21
-1.0025100582658284
 31
0.0
 40
0.8988870572579976
 41
1.5707964666371743
 42
3.1415925122249657
  0
ARC
  5
282
100
AcDbEntity
  8
0
 62
256
370
100
 48
1.0
  6
BYLAYER
100
AcDbCircle
 10
158.2589203706755825
 20
245.4550532591120771
 30
0.0
 40
0.541890776825264
100
AcDbArc
 50
90.0025491845600953
 51
179.9974508153199224
  0
ELLIPSE
  5
283
100
AcDbEntity
  8
0
 62
256
370
100
 48
1.0
  6
BYLAYER
100
AcDbEllipse
 10
164.3262558642593376
 20
170.9756894797550331
 30
0.0
 11
0.0
 21
-1.0025100582658648
 31
0.0
 40
0.8988870572579953
 41
0.0000001413648275
 42
1.570796186952619
  0
LINE
  5
284
100
AcDbEntity
  8
0
 62
256
370
100
 48
1.0
  6
BYLAYER
100
AcDbLine
 10
157.7170295943867018
 20
245.4550773687343224
 30
0.0
 11
157.7170295943867018
 21
243.8728267020676981
 31
0.0
  0
ELLIPSE
  5
285
100
AcDbEntity
  8
0
 62
256
370
100
 48
1.0
  6
BYLAYER
100
AcDbEllipse
 10
164.3262553792201004
 20
170.9756897026337015
 30
0.0
 11
0.0
 21
-1.002510281144702
 31
0.0
 40
0.8988870572580032
 41
4.7123893435203579
 42
0.0000006791072407
  0
ARC
  5
286
100
AcDbEntity
  8
0
 62
256
370
100
 48
1.0
  6
BYLAYER
100
AcDbCircle
 10
159.6713222095663411
 20
238.1269932219911993
 30
0.0
 40
6.0690907067297672
100
AcDbArc
 50
108.784372401897997
 51
116.9526176474016097
  0
ELLIPSE
  5
287
100
AcDbEntity
  8
0
 62
256
370
100
 48
1.0
  6
BYLAYER
100
AcDbEllipse
 10
164.3262553792201004
 20
170.9756889748811943
 30
0.0
 11
0.0
 21
1.0025102811447404
 31
0.0
 40
0.8988870572579987
 41
6.2831846280723456
 42
1.5707959639063434
  0
LINE
  5
288
100
AcDbEntity
  8
0
 62
256
370
100
 48
1.0
  6
BYLAYER
100
AcDbLine
 10
156.9204855943866619
 20
243.536869368734358
 30
0.0
 11
155.7934029277200239
 21
244.6584656354010292
 31
0.0
  0
ELLIPSE
  5
289
100
AcDbEntity
  8
0
 62
256
370
100
 48
1.0
  6
BYLAYER
100
AcDbEllipse
 10
164.3262558642593092
 20
170.9756891977598059
 30
0.0
 11
0.0
 21
-1.0025100582658284
 31
0.0
 40
0.8988870572579976
 41
1.5707964666371743
 42
3.1415925138045107
  0
ARC
  5
28A
100
AcDbEntity
  8
0
 62
256
370
100
 48
1.0
  6
BYLAYER
100
AcDbCircle
 10
155.4113869277200308
 20
244.2742067384313316
 30
0.0
 40
0.5418404969696959
100
AcDbArc
 50
45.1677050413125656
 51
134.8322949586874131
  0
LINE
  5
28B
100
AcDbEntity
  8
0
 62
256
370
100
 48
1.0
  6
BYLAYER
100
AcDbLine
 10
169.4353497391924463
 20
173.896214845920781
 30
0.0
 11
169.4353497391924463
 21
170.2489031502331045
 31
0.0
  0
LINE
  5
28C
100
AcDbEntity
  8
0
 62
256
370
100
 48
1.0
  6
BYLAYER
100
AcDbLine
 10
155.0293709277200094
 20
244.6584656354010292
 30
0.0
 11
153.0840695943867047
 21
242.7132320354010346
 31
0.0
  0
LINE
  5
28D
100
AcDbEntity
  8
0
 62
256
370
100
 48
1.0
  6
BYLAYER
100
AcDbLine
 10
169.4353497391924463
 20
170.2489031502331045
 30
0.0
 11
167.9348358198544133
 21
171.0149525688571543
 31
0.0
  0
ARC
  5
28E
100
AcDbEntity
  8
0
 62
256
370
100
 48
1.0
  6
BYLAYER
100
AcDbCircle
 10
153.4683284913564023
 20
242.3312160354010132
 30
0.0
 40
0.5418404969697055
100
AcDbArc
 50
135.1677050413137238
 51
224.8322949586863331
  0
ELLIPSE
  5
28F
100
AcDbEntity
  8
0
 62
256
370
100
 48
1.0
  6
BYLAYER
100
AcDbEllipse
 10
211.4431219095079086
 20
175.2501922992030643
 30
0.0
 11
0.0
 21
-48.5873343914194891
 31
0.0
 40
0.8988870572579923
 41
4.7033104649915911
 42
4.7996673125011666
  0
LINE
  5
290
100
AcDbEntity
  8
0
 62
256
370
100
 48
1.0
  6
BYLAYER
100
AcDbLine
 10
153.0840695943867047
 20
241.9492000354009917
 30
0.0
 11
154.2219895943866561
 21
240.8112800354010403
 31
0.0
  0
SPLINE
  5
291
100
AcDbEntity
  8
0
 62
256
370
100
 48
1.0
  6
BYLAYER
100
AcDbSpline
 70
8
 71
3
 72
8
 73
4
 74
0
 40
0.0
 40
0.0
 40
0.0
 40
0.0
 40
1.0
 40
1.0
 40
1.0
 40
1.0
 10
167.7703956810601085
 20
175.69128710319535
 30
0.0
 10
168.3253327979986693
 20
175.0927879838333183
 30
0.0
 10
168.9208269587837776
 20
174.2716007965450444
 30
0.0
 10
169.4353497391924463
 20
173.896214845920781
 30
0.0
  0
ARC
  5
292
100
AcDbEntity
  8
0
 62
256
370
100
 48
1.0
  6
BYLAYER
100
AcDbCircle
 10
159.6472556883205698
 20
238.0793029516991055
 30
0.0
 40
6.0743074482496482
100
AcDbArc
 50
153.2717494252071049
 51
161.2043160059209299
  0
LINE
  5
293
100
AcDbEntity
  8
0
 62
256
370
100
 48
1.0
  6
BYLAYER
100
AcDbLine
 10
171.7066765744126826
 20
171.9067722927227351
 30
0.0
 11
171.7285671256957187
 21
169.0996425837346919
 31
0.0
  0
LINE
  5
294
100
AcDbEntity
  8
0
 62
256
370
100
 48
1.0
  6
BYLAYER
100
AcDbLine
 10
153.8968695943866578
 20
240.0364107020677125
 30
0.0
 11
152.2712695943866663
 21
240.0364107020677125
 31
0.0
  0
LINE
  5
295
100
AcDbEntity
  8
0
 62
256
370
100
 48
1.0
  6
BYLAYER
100
AcDbLine
 10
171.7285671256957187
 20
169.0996425837346919
 30
0.0
 11
170.2937257990708417
 21
169.7682802035957366
 31
0.0
  0
ARC
  5
296
100
AcDbEntity
  8
0
 62
256
370
100
 48
1.0
  6
BYLAYER
100
AcDbCircle
 10
152.2712937040089116
 20
239.4945199257787465
 30
0.0
 40
0.5418907768252632
100
AcDbArc
 50
90.0025491845598964
 51
179.9974508153199224
  0
LINE
  5
297
100
AcDbEntity
  8
0
 62
256
370
100
 48
1.0
  6
BYLAYER
100
AcDbLine
 10
170.2937257990708417
 20
169.7682802035957366
 30
0.0
 11
170.2934657337635258
 21
173.0443107304520822
 31
0.0
  0
LINE
  5
298
100
AcDbEntity
  8
0
 62
256
370
100
 48
1.0
  6
BYLAYER
100
AcDbLine
 10
151.7294029277200309
 20
239.4945440354009918
 30
0.0
 11
151.7294029277200309
 21
236.7364427020676771
 31
0.0
  0
SPLINE
  5
299
100
AcDbEntity
  8
0
 62
256
370
100
 48
1.0
  6
BYLAYER
100
AcDbSpline
 70
8
 71
3
 72
8
 73
4
 74
0
 40
0.0
 40
0.0
 40
0.0
 40
0.0
 40
1.0
 40
1.0
 40
1.0
 40
1.0
 10
170.2934657337635258
 20
173.0443107304520822
 30
0.0
 10
170.9140745045513086
 20
172.4579880859353693
 30
0.0
 10
171.170263242720921
 20
172.3430406175738767
 30
0.0
 10
171.7066765744126826
 20
171.9067722927227351
 30
0.0
  0
ARC
  5
29A
100
AcDbEntity
  8
0
 62
256
370
100
 48
1.0
  6
BYLAYER
100
AcDbCircle
 10
152.2712937040089116
 20
236.7364668116899225
 30
0.0
 40
0.5418907768252594
100
AcDbArc
 50
180.0025491846800776
 51
269.9974508153199508
  0
LINE
  5
29B
100
AcDbEntity
  8
0
 62
256
370
100
 48
1.0
  6
BYLAYER
100
AcDbLine
 10
172.4472524387155659
 20
171.4083556914734174
 30
0.0
 11
172.4472524387155659
 21
168.9028094187355009
 31
0.0
  0
LINE
  5
29C
100
AcDbEntity
  8
0
 62
256
370
100
 48
1.0
  6
BYLAYER
100
AcDbLine
 10
152.2712695943866663
 20
236.1945760354010133
 30
0.0
 11
153.8968695943866578
 21
236.1945760354010133
 31
0.0
  0
ELLIPSE
  5
29D
100
AcDbEntity
  8
0
 62
256
370
100
 48
1.0
  6
BYLAYER
100
AcDbEllipse
 10
174.1634425874584622
 20
172.6937209750450961
 30
0.0
 11
0.0
 21
-4.2445498768853254
 31
0.0
 40
0.8988870572579936
 41
5.8166332609819635
 42
6.2004421588281513
  0
ARC
  5
29E
100
AcDbEntity
  8
0
 62
256
370
100
 48
1.0
  6
BYLAYER
100
AcDbCircle
 10
159.644590066087261
 20
238.0754076572193298
 30
0.0
 40
6.0476291396246493
100
AcDbArc
 50
198.1196944573018186
 51
206.1627817829653395
  0
LINE
  5
29F
100
AcDbEntity
  8
0
 62
256
370
100
 48
1.0
  6
BYLAYER
100
AcDbLine
 10
173.8481068912433898
 20
168.4636928139990175
 30
0.0
 11
173.8481068912433898
 21
170.7712058214120248
 31
0.0
  0
LINE
  5
2A0
100
AcDbEntity
  8
0
 62
256
370
100
 48
1.0
  6
BYLAYER
100
AcDbLine
 10
154.2165709277199994
 20
235.4088693687343721
 30
0.0
 11
153.0840695943867047
 21
234.2601120354009936
 31
0.0
  0
LINE
  5
2A1
100
AcDbEntity
  8
0
 62
256
370
100
 48
1.0
  6
BYLAYER
100
AcDbLine
 10
173.8481068912433898
 20
170.7712058214120248
 30
0.0
 11
172.4472524387155659
 21
171.4083556914734174
 31
0.0
  0
ARC
  5
2A2
100
AcDbEntity
  8
0
 62
256
370
100
 48
1.0
  6
BYLAYER
100
AcDbCircle
 10
153.4683284913564023
 20
233.8780960354010574
 30
0.0
 40
0.5418404969697036
100
AcDbArc
 50
135.1677050413135532
 51
224.8322949586865036
  0
LINE
  5
2A3
100
AcDbEntity
  8
0
 62
256
370
100
 48
1.0
  6
BYLAYER
100
AcDbLine
 10
174.4285717183117868
 20
170.4612415278828053
 30
0.0
 11
174.4285717183117868
 21
168.2742701901756277
 31
0.0
  0
LINE
  5
2A4
100
AcDbEntity
  8
0
 62
256
370
100
 48
1.0
  6
BYLAYER
100
AcDbLine
 10
153.0840695943867047
 20
233.496080035401036
 30
0.0
 11
155.0347895943866945
 21
231.5453600354010462
 31
0.0
  0
ELLIPSE
  5
2A5
100
AcDbEntity
  8
0
 62
256
370
100
 48
1.0
  6
BYLAYER
100
AcDbEllipse
 10
175.5912978646196621
 20
171.892985221648587
 30
0.0
 11
0.0
 21
-3.8429527739223346
 31
0.0
 40
0.8988870572579925
 41
5.9398870789069775
 42
6.2692218170252101
  0
ARC
  5
2A6
100
AcDbEntity
  8
0
 62
256
370
100
 48
1.0
  6
BYLAYER
100
AcDbCircle
 10
155.4168055943866875
 20
231.9296189323707438
 30
0.0
 40
0.5418404969696931
100
AcDbArc
 50
225.1677050413123027
 51
314.8322949586876689
  0
LINE
  5
2A7
100
AcDbEntity
  8
0
 62
256
370
100
 48
1.0
  6
BYLAYER
100
AcDbLine
 10
175.5430642238376038
 20
168.0504070892934578
 30
0.0
 11
175.5430642238376038
 21
170.1426676373258147
 31
0.0
  0
LINE
  5
2A8
100
AcDbEntity
  8
0
 62
256
370
100
 48
1.0
  6
BYLAYER
100
AcDbLine
 10
155.7988215943866521
 20
231.5453600354010462
 30
0.0
 11
156.9204855943866619
 21
232.6670240354010275
 31
0.0
  0
LINE
  5
2A9
100
AcDbEntity
  8
0
 62
256
370
100
 48
1.0
  6
BYLAYER
100
AcDbLine
 10
175.5430642238376038
 20
170.1426676373258147
 30
0.0
 11
174.4285717183117868
 21
170.4612415278828053
 31
0.0
  0
ARC
  5
2AA
100
AcDbEntity
  8
0
 62
256
370
100
 48
1.0
  6
BYLAYER
100
AcDbCircle
 10
159.685168562605611
 20
238.1097294385438374
 30
0.0
 40
6.1046305392021836
100
AcDbArc
 50
243.0711992266701316
 51
251.1918107240309155
  0
LINE
  5
2AB
100
AcDbEntity
  8
0
 62
256
370
100
 48
1.0
  6
BYLAYER
100
AcDbLine
 10
176.1157890567055233
 20
169.9274141334715296
 30
0.0
 11
176.1157890567055233
 21
167.964305896646465
 31
0.0
  0
LINE
  5
2AC
100
AcDbEntity
  8
0
 62
256
370
100
 48
1.0
  6
BYLAYER
100
AcDbLine
 10
157.7170295943867018
 20
232.331066702067659
 30
0.0
 11
157.7170295943867018
 21
230.7488160354010347
 31
0.0
  0
ELLIPSE
  5
2AD
100
AcDbEntity
  8
0
 62
256
370
100
 48
1.0
  6
BYLAYER
100
AcDbEllipse
 10
176.8873588074864074
 20
170.8571028634262348
 30
0.0
 11
0.0
 21
3.0174588974811032
 31
0.0
 40
0.8988870572579952
 41
2.8531444202965468
 42
3.1938570705980909
  0
ARC
  5
2AE
100
AcDbEntity
  8
0
 62
256
370
100
 48
1.0
  6
BYLAYER
100
AcDbCircle
 10
158.2589203706755825
 20
230.7488401450233084
 30
0.0
 40
0.5418907768252631
100
AcDbArc
 50
180.0025491846800776
 51
269.9974508153199508
  0
LINE
  5
2AF
100
AcDbEntity
  8
0
 62
256
370
100
 48
1.0
  6
BYLAYER
100
AcDbLine
 10
177.0290539182506961
 20
167.8437642269406638
 30
0.0
 11
177.0290539182506961
 21
169.7293808681465634
 31
0.0
  0
LINE
  5
2B0
100
AcDbEntity
  8
0
 62
256
370
100
 48
1.0
  6
BYLAYER
100
AcDbLine
 10
158.2588962610533372
 20
230.2069493687343424
 30
0.0
 11
161.0169975943866802
 21
230.2069493687343424
 31
0.0
  0
LINE
  5
2B1
100
AcDbEntity
  8
0
 62
256
370
100
 48
1.0
  6
BYLAYER
100
AcDbLine
 10
177.0290539182506961
 20
169.7293808681465634
 30
0.0
 11
176.1157890567055233
 21
169.9274141334715296
 31
0.0
  0
ARC
  5
2B2
100
AcDbEntity
  8
0
 62
256
370
100
 48
1.0
  6
BYLAYER
100
AcDbCircle
 10
161.0169734847644349
 20
230.7488401450233084
 30
0.0
 40
0.5418907768252631
100
AcDbArc
 50
270.0025491845600527
 51
359.9974508153199508
  0
LINE
  5
2B3
100
AcDbEntity
  8
0
 62
256
370
100
 48
1.0
  6
BYLAYER
100
AcDbLine
 10
177.5166435092332904
 20
169.6260594369701948
 30
0.0
 11
177.5166435092332904
 21
167.7662726313215558
 31
0.0
  0
LINE
  5
2B4
100
AcDbEntity
  8
0
 62
256
370
100
 48
1.0
  6
BYLAYER
100
AcDbLine
 10
161.5588642610533157
 20
230.7488160354010347
 30
0.0
 11
161.5588642610533157
 21
232.2985547020677188
 31
0.0
  0
LINE
  5
2B5
100
AcDbEntity
  8
0
 62
256
370
100
 48
1.0
  6
BYLAYER
100
AcDbLine
 10
177.5166435092332904
 20
167.7662726313215558
 30
0.0
 11
178.2518978928074773
 21
167.6285107230863787
 31
0.0
  0
ARC
  5
2B6
100
AcDbEntity
  8
0
 62
256
370
100
 48
1.0
  6
BYLAYER
100
AcDbCircle
 10
159.7106629178931883
 20
238.0503654575006749
 30
0.0
 40
6.0414547230922384
100
AcDbArc
 50
287.8135170265591682
 51
296.3048960326935912
  0
LINE
  5
2B7
100
AcDbEntity
  8
0
 62
256
370
100
 48
1.0
  6
BYLAYER
100
AcDbLine
 10
178.2518978928074773
 20
167.6285107230863787
 30
0.0
 11
178.2518978928074773
 21
169.5141284087659983
 31
0.0
  0
LINE
  5
2B8
100
AcDbEntity
  8
0
 62
256
370
100
 48
1.0
  6
BYLAYER
100
AcDbLine
 10
162.3879202610533241
 20
232.6345120354010021
 30
0.0
 11
163.4716535943866802
 21
231.5507787020677029
 31
0.0
  0
LINE
  5
2B9
100
AcDbEntity
  8
0
 62
256
370
100
 48
1.0
  6
BYLAYER
100
AcDbLine
 10
178.2518978928074773
 20
169.5141284087659983
 30
0.0
 11
177.5166435092332904
 21
169.6260594369701948
 31
0.0
  0
ARC
  5
2BA
100
AcDbEntity
  8
0
 62
256
370
100
 48
1.0
  6
BYLAYER
100
AcDbCircle
 10
163.8536695943867016
 20
231.9350375990374005
 30
0.0
 40
0.5418404969696998
100
AcDbArc
 50
225.1677050413132406
 51
314.8322949586873278
  0
LINE
  5
2BB
100
AcDbEntity
  8
0
 62
256
370
100
 48
1.0
  6
BYLAYER
100
AcDbLine
 10
154.5112129086982691
 20
164.1977330560566486
 30
0.0
 11
156.3827818120147413
 21
164.1977330560566486
 31
0.0
  0
LINE
  5
2BC
100
AcDbEntity
  8
0
 62
256
370
100
 48
1.0
  6
BYLAYER
100
AcDbLine
 10
164.2356855943866663
 20
231.5507787020677029
 30
0.0
 11
166.186405594386656
 21
233.5014987020677211
 31
0.0
  0
LINE
  5
2BD
100
AcDbEntity
  8
0
 62
256
370
100
 48
1.0
  6
BYLAYER
100
AcDbLine
 10
156.3827818120147413
 20
164.1977330560566486
 30
0.0
 11
156.3827818120147413
 21
165.2403977662079342
 31
0.0
  0
ARC
  5
2BE
100
AcDbEntity
  8
0
 62
256
370
100
 48
1.0
  6
BYLAYER
100
AcDbCircle
 10
165.8021466974169584
 20
233.8835147020676573
 30
0.0
 40
0.5418404969697113
100
AcDbArc
 50
315.167705041313809
 51
44.8322949586862407
  0
LINE
  5
2BF
100
AcDbEntity
  8
0
 62
256
370
100
 48
1.0
  6
BYLAYER
100
AcDbLine
 10
156.3827818120147413
 20
165.2403977662079342
 30
0.0
 11
159.202764764513006
 21
165.2403977662079342
 31
0.0
  0
LINE
  5
2C0
100
AcDbEntity
  8
0
 62
256
370
100
 48
1.0
  6
BYLAYER
100
AcDbLine
 10
166.186405594386656
 20
234.2655307020676787
 30
0.0
 11
165.1026722610533568
 21
235.3492640354010348
 31
0.0
  0
LINE
  5
2C1
100
AcDbEntity
  8
0
 62
256
370
100
 48
1.0
  6
BYLAYER
100
AcDbLine
 10
159.202764764513006
 20
165.2403977662079342
 30
0.0
 11
159.202764764513006
 21
164.2102907638166585
 31
0.0
  0
ARC
  5
2C2
100
AcDbEntity
  8
0
 62
256
370
100
 48
1.0
  6
BYLAYER
100
AcDbCircle
 10
159.7397855799907802
 20
238.0798339302882312
 30
0.0
 40
6.0180200651695088
100
AcDbArc
 50
333.0166042321193345
 51
341.7436658717991236
  0
LINE
  5
2C3
100
AcDbEntity
  8
0
 62
256
370
100
 48
1.0
  6
BYLAYER
100
AcDbLine
 10
159.202764764513006
 20
164.2102907638166585
 30
0.0
 11
163.3342767779550684
 21
164.2102907638166585
 31
0.0
  0
LINE
  5
2C4
100
AcDbEntity
  8
0
 62
256
370
100
 48
1.0
  6
BYLAYER
100
AcDbLine
 10
165.4548855943866954
 20
236.1945760354010133
 30
0.0
 11
166.9775309277200108
 21
236.1945760354010133
 31
0.0
  0
LINE
  5
2C5
100
AcDbEntity
  8
0
 62
256
370
100
 48
1.0
  6
BYLAYER
100
AcDbLine
 10
163.3342767779550684
 20
164.2102907638166585
 30
0.0
 11
163.3342767779550684
 21
165.243506120054235
 31
0.0
  0
ARC
  5
2C6
100
AcDbEntity
  8
0
 62
256
370
100
 48
1.0
  6
BYLAYER
100
AcDbCircle
 10
166.9775068180977655
 20
236.7364668116899225
 30
0.0
 40
0.5418907768252631
100
AcDbArc
 50
270.0025491846801629
 51
359.9974508153199508
  0
LINE
  5
2C7
100
AcDbEntity
  8
0
 62
256
370
100
 48
1.0
  6
BYLAYER
100
AcDbLine
 10
163.3342767779550684
 20
165.243506120054235
 30
0.0
 11
178.7415811503435634
 21
165.243506120054235
 31
0.0
  0
LINE
  5
2C8
100
AcDbEntity
  8
0
 62
256
370
100
 48
1.0
  6
BYLAYER
100
AcDbLine
 10
167.5193975943866462
 20
236.7364427020676771
 30
0.0
 11
167.5193975943866462
 21
239.4945440354009918
 31
0.0
  0
LINE
  5
2C9
100
AcDbEntity
  8
0
 62
256
370
100
 48
1.0
  6
BYLAYER
100
AcDbLine
 10
178.7415811503435634
 20
165.243506120054235
 30
0.0
 11
178.7415811503435634
 21
164.1946247022103762
 31
0.0
  0
ARC
  5
2CA
100
AcDbEntity
  8
0
 62
256
370
100
 48
1.0
  6
BYLAYER
100
AcDbCircle
 10
166.9775008973652746
 20
239.4947587459568865
 30
0.0
 40
0.5418967395578009
100
AcDbArc
 50
359.9772982413583122
 51
88.2777875128377048
  0
SPLINE
  5
2CB
100
AcDbEntity
  8
0
 62
256
370
100
 48
1.0
  6
BYLAYER
100
AcDbSpline
 70
8
 71
3
 72
8
 73
4
 74
0
 40
0.0
 40
0.0
 40
0.0
 40
0.0
 40
1.0
 40
1.0
 40
1.0
 40
1.0
 10
178.7415811503435634
 20
164.1946247022103762
 30
0.0
 10
174.3999307354055759
 20
164.0181838424849161
 30
0.0
 10
169.9770357306888116
 20
163.8804793803053599
 30
0.0
 10
167.6797014258729348
 20
162.7293492058147422
 30
0.0
  0
ARC
  5
2CC
100
AcDbEntity
  8
0
 62
256
370
100
 48
1.0
  6
BYLAYER
100
AcDbCircle
 10
159.6406872028383361
 20
238.0855920269493424
 30
0.0
 40
3.0344842752760854
100
AcDbArc
 50
90.0005842289925795
 51
179.9994157717332541
  0
LINE
  5
2CD
100
AcDbEntity
  8
0
 62
256
370
100
 48
1.0
  6
BYLAYER
100
AcDbLine
 10
167.6797014258729348
 20
162.7293492058147422
 30
0.0
 11
154.5084188496564366
 21
162.7293492058147422
 31
0.0
  0
ARC
  5
2CE
100
AcDbEntity
  8
0
 62
256
370
100
 48
1.0
  6
BYLAYER
100
AcDbCircle
 10
159.6406872028383646
 20
238.0856539105193974
 30
0.0
 40
3.0344842752761041
100
AcDbArc
 50
180.0005842282667743
 51
269.9994157704855411
  0
LINE
  5
2CF
100
AcDbEntity
  8
0
 62
256
370
100
 48
1.0
  6
BYLAYER
100
AcDbLine
 10
154.5084188496564366
 20
162.7293492058147422
 30
0.0
 11
154.5112129086982691
 21
164.1977330560566486
 31
0.0
  0
ARC
  5
2D0
100
AcDbEntity
  8
0
 62
256
370
100
 48
1.0
  6
BYLAYER
100
AcDbCircle
 10
159.6406253192682811
 20
238.0856539105193974
 30
0.0
 40
3.0344842752761254
100
AcDbArc
 50
270.0005842289933184
 51
359.9994157704855411
  0
ARC
  5
2D1
100
AcDbEntity
  8
0
 62
256
370
100
 48
1.0
  6
BYLAYER
100
AcDbCircle
 10
159.6352805011580926
 20
238.0802472088391823
 30
0.0
 40
3.0398338465831927
100
AcDbArc
 50
0.1013241281451961
 51
89.8986758718534418
  0
ARC
  5
2D2
100
AcDbEntity
  8
0
 62
256
370
100
 48
1.0
  6
BYLAYER
100
AcDbCircle
 10
180.9827129679339635
 20
247.4943806258889083
 30
0.0
 40
0.5377429214742074
100
AcDbArc
 50
10.9876577994472751
 51
13.7809100168632135
  0
LINE
  5
2D3
100
AcDbEntity
  8
0
 62
256
370
100
 48
1.0
  6
BYLAYER
100
AcDbLine
 10
181.5049762610533435
 20
247.622476302067696
 30
0.0
 11
180.9197602610533124
 21
250.2938789687343615
 31
0.0
  0
ARC
  5
2D4
100
AcDbEntity
  8
0
 62
256
370
100
 48
1.0
  6
BYLAYER
100
AcDbCircle
 10
180.3908179383035986
 20
250.176403208990223
 30
0.0
 40
0.5418307253408055
100
AcDbArc
 50
12.5218937245673754
 51
102.3489892804875296
  0
LINE
  5
2D5
100
AcDbEntity
  8
0
 62
256
370
100
 48
1.0
  6
BYLAYER
100
AcDbLine
 10
180.2749389277200009
 20
250.7056976354010089
 30
0.0
 11
178.7902242610533108
 21
250.3805776354010391
 31
0.0
  0
ARC
  5
2D6
100
AcDbEntity
  8
0
 62
256
370
100
 48
1.0
  6
BYLAYER
100
AcDbCircle
 10
173.6486004193206441
 20
247.2249797597492886
 30
0.0
 40
6.0327517504611281
100
AcDbArc
 50
31.5389244968843308
 51
40.3180803487613915
  0
LINE
  5
2D7
100
AcDbEntity
  8
0
 62
256
370
100
 48
1.0
  6
BYLAYER
100
AcDbLine
 10
178.2483575943866754
 20
251.128353635401055
 30
0.0
 11
179.0936695943866539
 21
252.417996302067678
 31
0.0
  0
ARC
  5
2D8
100
AcDbEntity
  8
0
 62
256
370
100
 48
1.0
  6
BYLAYER
100
AcDbCircle
 10
178.6374428718881688
 20
252.7103741450027883
 30
0.0
 40
0.5418741785332531
100
AcDbArc
 50
327.3457799747948229
 51
57.183767480990177
  0
LINE
  5
2D9
100
AcDbEntity
  8
0
 62
256
370
100
 48
1.0
  6
BYLAYER
100
AcDbLine
 10
178.9311095943866974
 20
253.1657723020676656
 30
0.0
 11
176.6010829277200287
 21
254.6667429687343258
 31
0.0
  0
ARC
  5
2DA
100
AcDbEntity
  8
0
 62
256
370
100
 48
1.0
  6
BYLAYER
100
AcDbCircle
 10
176.3087050847849184
 20
254.210516246235926
 30
0.0
 40
0.5418741785332309
100
AcDbArc
 50
57.3457799747923644
 51
147.1837674809921168
  0
LINE
  5
2DB
100
AcDbEntity
  8
0
 62
256
370
100
 48
1.0
  6
BYLAYER
100
AcDbLine
 10
175.8533069277199843
 20
254.5041829687343693
 30
0.0
 11
175.0188322610533476
 21
253.2037029687343761
 31
0.0
  0
ARC
  5
2DC
100
AcDbEntity
  8
0
 62
256
370
100
 48
1.0
  6
BYLAYER
100
AcDbCircle
 10
173.56537757101799
 20
247.3892486898378422
 30
0.0
 40
5.9933637548011491
100
AcDbArc
 50
75.9652300516378034
 51
84.5405896701482931
  0
LINE
  5
2DD
100
AcDbEntity
  8
0
 62
256
370
100
 48
1.0
  6
BYLAYER
100
AcDbLine
 10
174.1355895943866585
 20
253.3554256354010477
 30
0.0
 11
173.8050509277200035
 21
254.872652302067678
 31
0.0
  0
ARC
  5
2DE
100
AcDbEntity
  8
0
 62
256
370
100
 48
1.0
  6
BYLAYER
100
AcDbCircle
 10
173.2770374613503179
 20
254.7512633021755732
 30
0.0
 40
0.5417873290900972
100
AcDbArc
 50
12.9471891086158113
 51
102.9572230944076239
  0
ARC
  5
2DF
100
AcDbEntity
  8
0
 62
256
370
100
 48
1.0
  6
BYLAYER
100
AcDbCircle
 10
173.2698896937984614
 20
254.7757828775056623
 30
0.0
 40
0.516291466619939
100
AcDbArc
 50
102.7943213309153805
 51
105.3596094853312053
  0
LINE
  5
2E0
100
AcDbEntity
  8
0
 62
256
370
100
 48
1.0
  6
BYLAYER
100
AcDbLine
 10
173.1331362610533233
 20
255.273633635401012
 30
0.0
 11
170.4238029277199757
 21
254.6829989687343812
 31
0.0
  0
ARC
  5
2E1
100
AcDbEntity
  8
0
 62
256
370
100
 48
1.0
  6
BYLAYER
100
AcDbCircle
 10
170.5413405175978312
 20
254.1540171578319587
 30
0.0
 40
0.5418826822291414
100
AcDbArc
 50
102.5273705538782139
 51
192.3435124511767356
  0
LINE
  5
2E2
100
AcDbEntity
  8
0
 62
256
370
100
 48
1.0
  6
BYLAYER
100
AcDbLine
 10
170.0119842610533567
 20
254.0381776354010412
 30
0.0
 11
170.3912909277200356
 21
252.4992763020676989
 31
0.0
  0
ARC
  5
2E3
100
AcDbEntity
  8
0
 62
256
370
100
 48
1.0
  6
BYLAYER
100
AcDbCircle
 10
173.5488833702063687
 20
247.248501556063502
 30
0.0
 40
6.1270731565831902
100
AcDbArc
 50
121.0209100795493953
 51
129.1390639956464668
  0
LINE
  5
2E4
100
AcDbEntity
  8
0
 62
256
370
100
 48
1.0
  6
BYLAYER
100
AcDbLine
 10
169.6814455943866733
 20
252.0007589687343739
 30
0.0
 11
168.343034927719998
 21
252.8569760354010327
 31
0.0
  0
ARC
  5
2E5
100
AcDbEntity
  8
0
 62
256
370
100
 48
1.0
  6
BYLAYER
100
AcDbCircle
 10
168.0506570847848593
 20
252.4007493129025477
 30
0.0
 40
0.5418741785332473
100
AcDbArc
 50
57.3457799747944037
 51
147.1837674809901273
  0
LINE
  5
2E6
100
AcDbEntity
  8
0
 62
256
370
100
 48
1.0
  6
BYLAYER
100
AcDbLine
 10
167.595258927719982
 20
252.6944160354009909
 30
0.0
 11
166.0888695943866651
 21
250.3697403020676973
 31
0.0
  0
ARC
  5
2E7
100
AcDbEntity
  8
0
 62
256
370
100
 48
1.0
  6
BYLAYER
100
AcDbCircle
 10
166.5450963168851217
 20
250.077362459132587
 30
0.0
 40
0.5418741785332395
100
AcDbArc
 50
147.3457799747936861
 51
237.1837674809912073
  0
LINE
  5
2E8
100
AcDbEntity
  8
0
 62
256
370
100
 48
1.0
  6
BYLAYER
100
AcDbLine
 10
166.2514295943866784
 20
249.6219643020677097
 30
0.0
 11
167.6060962610533522
 21
248.7549776354009907
 31
0.0
  0
ARC
  5
2E9
100
AcDbEntity
  8
0
 62
256
370
100
 48
1.0
  6
BYLAYER
100
AcDbCircle
 10
173.4952356595064771
 20
247.2924034984428374
 30
0.0
 40
6.0680380651832087
100
AcDbArc
 50
166.0527096436630927
 51
174.058701829966509
  0
LINE
  5
2EA
100
AcDbEntity
  8
0
 62
256
370
100
 48
1.0
  6
BYLAYER
100
AcDbLine
 10
167.4597922610533658
 20
247.9205029687343824
 30
0.0
 11
165.8829602610533698
 21
247.5737083020677005
 31
0.0
  0
ARC
  5
2EB
100
AcDbEntity
  8
0
 62
256
370
100
 48
1.0
  6
BYLAYER
100
AcDbCircle
 10
166.000436020797423
 20
247.0447659793179298
 30
0.0
 40
0.5418307253407951
100
AcDbArc
 50
102.5218937245659419
 51
192.3489892804896044
  0
LINE
  5
2EC
100
AcDbEntity
  8
0
 62
256
370
100
 48
1.0
  6
BYLAYER
100
AcDbLine
 10
165.4711415943866655
 20
246.9288869687343322
 30
0.0
 11
166.0617762610533532
 21
244.2195536354010414
 31
0.0
  0
ARC
  5
2ED
100
AcDbEntity
  8
0
 62
256
370
100
 48
1.0
  6
BYLAYER
100
AcDbCircle
 10
166.5907185838030955
 20
244.3370293951451231
 30
0.0
 40
0.5418307253408008
100
AcDbArc
 50
192.5218937245666098
 51
282.3489892804877854
  0
LINE
  5
2EE
100
AcDbEntity
  8
0
 62
256
370
100
 48
1.0
  6
BYLAYER
100
AcDbLine
 10
166.7065975943866931
 20
243.8077349687343656
 30
0.0
 11
168.2834295943866891
 21
244.1491109687343339
 31
0.0
  0
ARC
  5
2EF
100
AcDbEntity
  8
0
 62
256
370
100
 48
1.0
  6
BYLAYER
100
AcDbCircle
 10
173.4176231525634648
 20
247.4846925456666042
 30
0.0
 40
6.1225850708008895
100
AcDbArc
 50
213.0109664840023243
 51
221.0193010854843294
  0
LINE
  5
2F0
100
AcDbEntity
  8
0
 62
256
370
100
 48
1.0
  6
BYLAYER
100
AcDbLine
 10
168.7982029277199842
 20
243.4663589687343688
 30
0.0
 11
167.9312162610533505
 21
242.111692302067695
 31
0.0
  0
ARC
  5
2F1
100
AcDbEntity
  8
0
 62
256
370
100
 48
1.0
  6
BYLAYER
100
AcDbCircle
 10
168.3874429835518356
 20
241.8193144591325563
 30
0.0
 40
0.5418741785332493
100
AcDbArc
 50
147.3457799747948513
 51
237.1837674809899852
  0
LINE
  5
2F2
100
AcDbEntity
  8
0
 62
256
370
100
 48
1.0
  6
BYLAYER
100
AcDbLine
 10
168.0937762610533355
 20
241.3639163020677074
 30
0.0
 11
170.4129655943866908
 21
239.8737829687343606
 31
0.0
  0
ARC
  5
2F3
100
AcDbEntity
  8
0
 62
256
370
100
 48
1.0
  6
BYLAYER
100
AcDbCircle
 10
170.705343437321801
 20
240.3300096912328456
 30
0.0
 40
0.5418741785332415
100
AcDbArc
 50
237.3457799747935724
 51
327.1837674809894452
  0
LINE
  5
2F4
100
AcDbEntity
  8
0
 62
256
370
100
 48
1.0
  6
BYLAYER
100
AcDbLine
 10
171.1607415943866783
 20
240.0363429687343171
 30
0.0
 11
172.0168909277200271
 21
241.3747536354010208
 31
0.0
  0
ARC
  5
2F5
100
AcDbEntity
  8
0
 62
256
370
100
 48
1.0
  6
BYLAYER
100
AcDbCircle
 10
173.535523398039004
 20
247.2149050551731193
 30
0.0
 40
6.034369327922569
100
AcDbArc
 50
255.4240093208271105
 51
263.6453138219688412
  0
LINE
  5
2F6
100
AcDbEntity
  8
0
 62
256
370
100
 48
1.0
  6
BYLAYER
100
AcDbLine
 10
172.8676215943866907
 20
241.2176123020676641
 30
0.0
 11
173.2035789277200024
 21
239.6732923020676935
 31
0.0
  0
ARC
  5
2F7
100
AcDbEntity
  8
0
 62
256
370
100
 48
1.0
  6
BYLAYER
100
AcDbCircle
 10
173.7333928711577187
 20
239.7869519435499512
 30
0.0
 40
0.5418683684834136
100
AcDbArc
 50
192.1079995358842325
 51
271.2745293292188649
  0
LINE
  5
2F8
100
AcDbEntity
  8
0
 62
256
370
100
 48
1.0
  6
BYLAYER
100
AcDbLine
 10
173.7454455943866947
 20
239.2452176354010192
 30
0.0
 11
173.8592375943866557
 21
239.2452176354010192
 31
0.0
  0
LINE
  5
2F9
100
AcDbEntity
  8
0
 62
256
370
100
 48
1.0
  6
BYLAYER
100
AcDbLine
 10
173.8592375943866557
 20
239.2452176354010192
 30
0.0
 11
176.5685709277200033
 21
239.8304336354009934
 31
0.0
  0
ARC
  5
2FA
100
AcDbEntity
  8
0
 62
256
370
100
 48
1.0
  6
BYLAYER
100
AcDbCircle
 10
176.4027184875875491
 20
240.3462639360793105
 30
0.0
 40
0.541837550374406
100
AcDbArc
 50
287.8239066980187317
 51
14.9551739700499571
  0
LINE
  5
2FB
100
AcDbEntity
  8
0
 62
256
370
100
 48
1.0
  6
BYLAYER
100
AcDbLine
 10
176.926202927720027
 20
240.4860923020676466
 30
0.0
 11
176.5956642610533436
 21
242.0033189687343622
 31
0.0
  0
ARC
  5
2FC
100
AcDbEntity
  8
0
 62
256
370
100
 48
1.0
  6
BYLAYER
100
AcDbCircle
 10
173.499611985178376
 20
247.3216841606947867
 30
0.0
 40
6.1539051024538152
100
AcDbArc
 50
300.2055508358322413
 51
308.524927286687614
  0
LINE
  5
2FD
100
AcDbEntity
  8
0
 62
256
370
100
 48
1.0
  6
BYLAYER
100
AcDbLine
 10
177.3326029277200462
 20
242.5072549687343724
 30
0.0
 11
178.6493389277200095
 21
241.6619429687343654
 31
0.0
  0
ARC
  5
2FE
100
AcDbEntity
  8
0
 62
256
370
100
 48
1.0
  6
BYLAYER
100
AcDbCircle
 10
178.9417167706551197
 20
242.1181696912327936
 30
0.0
 40
0.5418741785332281
100
AcDbArc
 50
237.3457799747921229
 51
327.1837674809927421
  0
LINE
  5
2FF
100
AcDbEntity
  8
0
 62
256
370
100
 48
1.0
  6
BYLAYER
100
AcDbLine
 10
179.397114927719997
 20
241.8245029687343504
 30
0.0
 11
180.8872482610533723
 21
244.1491109687343339
 31
0.0
  0
ARC
  5
300
100
AcDbEntity
  8
0
 62
256
370
100
 48
1.0
  6
BYLAYER
100
AcDbCircle
 10
180.4370064338276336
 20
244.4505884023330964
 30
0.0
 40
0.541854543168951
100
AcDbArc
 50
326.1941302843636663
 51
56.1913314270981914
  0
ARC
  5
301
100
AcDbEntity
  8
0
 62
256
370
100
 48
1.0
  6
BYLAYER
100
AcDbCircle
 10
180.4509555433503465
 20
244.4732828597910839
 30
0.0
 40
0.5152371739530093
100
AcDbArc
 50
56.0759739695280004
 51
58.6168673679371892
  0
LINE
  5
302
100
AcDbEntity
  8
0
 62
256
370
100
 48
1.0
  6
BYLAYER
100
AcDbLine
 10
180.7192695943866454
 20
244.9131429687343768
 30
0.0
 11
179.4350455943867075
 21
245.7367803020677002
 31
0.0
  0
ARC
  5
303
100
AcDbEntity
  8
0
 62
256
370
100
 48
1.0
  6
BYLAYER
100
AcDbCircle
 10
173.5989020442401056
 20
247.2559435300058226
 30
0.0
 40
6.0306242173623081
100
AcDbArc
 50
345.4095461435900347
 51
354.1022789634927221
  0
LINE
  5
304
100
AcDbEntity
  8
0
 62
256
370
100
 48
1.0
  6
BYLAYER
100
AcDbLine
 10
179.5976055943866641
 20
246.6362789687343593
 30
0.0
 11
181.0823202610533542
 21
246.9613989687343576
 31
0.0
  0
ARC
  5
305
100
AcDbEntity
  8
0
 62
256
370
100
 48
1.0
  6
BYLAYER
100
AcDbCircle
 10
180.9787459483761438
 20
247.4932589148003501
 30
0.0
 40
0.5418511239038515
100
AcDbArc
 50
281.0198474288345665
 51
11.024143037901478
  0
LINE
  5
306
100
AcDbEntity
  8
0
 62
256
370
100
 48
1.0
  6
BYLAYER
100
AcDbLine
 10
173.9080055943866796
 20
245.3574736354010213
 30
0.0
 11
173.9134242610533363
 21
245.3574736354010213
 31
0.0
  0
ARC
  5
307
100
AcDbEntity
  8
0
 62
256
370
100
 48
1.0
  6
BYLAYER
100
AcDbCircle
 10
173.5194785338808288
 20
247.3011792076786151
 30
0.0
 40
1.9832258034979993
100
AcDbArc
 50
193.2207995791636677
 51
281.4573749774907014
  0
ARC
  5
308
100
AcDbEntity
  8
0
 62
256
370
100
 48
1.0
  6
BYLAYER
100
AcDbCircle
 10
173.5005666828333233
 20
247.2620367667387029
 30
0.0
 40
1.9561548335061993
100
AcDbArc
 50
102.4468341683348456
 51
192.231340388318614
  0
ARC
  5
309
100
AcDbEntity
  8
0
 62
256
370
100
 48
1.0
  6
BYLAYER
100
AcDbCircle
 10
173.492093654746725
 20
247.2253327211023191
 30
0.0
 40
1.9902357902408512
100
AcDbArc
 50
89.8821609820037537
 51
101.9808928678365305
  0
ARC
  5
30A
100
AcDbEntity
  8
0
 62
256
370
100
 48
1.0
  6
BYLAYER
100
AcDbCircle
 10
173.4990489528413775
 20
247.2648615775023302
 30
0.0
 40
1.9507048241121354
100
AcDbArc
 50
0.0830496130360773
 51
90.0840629587428907
  0
ARC
  5
30B
100
AcDbEntity
  8
0
 62
256
370
100
 48
1.0
  6
BYLAYER
100
AcDbCircle
 10
173.4989878561628984
 20
247.2648781739579533
 30
0.0
 40
1.9507658967414314
100
AcDbArc
 50
282.1030337137034394
 51
0.0825595594031803
  0
ENDSEC
  0
SECTION
  2
OBJECTS
  0
DICTIONARY
  5
C
100
AcDbDictionary
280
0
281
1
  3
ACAD_GROUP
350
D
  3
ACAD_LAYOUT
350
1A
  3
ACAD_MLINESTYLE
350
17
  3
ACAD_PLOTSETTINGS
350
19
  3
ACAD_PLOTSTYLENAME
350
E
  3
AcDbVariableDictionary
350
30C
  3
QCAD_OBJECTS
350
30D
  0
DICTIONARY
  5
D
100
AcDbDictionary
280
0
281
1
  0
ACDBDICTIONARYWDFLT
  5
E
100
AcDbDictionary
281
1
  3
Normal
350
F
100
AcDbDictionaryWithDefault
340
F
  0
ACDBPLACEHOLDER
  5
F
  0
DICTIONARY
  5
17
100
AcDbDictionary
280
0
281
1
  3
Standard
350
18
  0
MLINESTYLE
  5
18
100
AcDbMlineStyle
  2
STANDARD
 70
0
  3

 62
256
 51
90.0
 52
90.0
 71
2
 49
0.5
 62
256
  6
BYLAYER
 49
-0.5
 62
256
  6
BYLAYER
  0
DICTIONARY
  5
19
100
AcDbDictionary
280
0
281
1
  0
DICTIONARY
  5
1A
100
AcDbDictionary
281
1
  3
Layout1
350
1E
  3
Layout2
350
26
  3
Model
350
22
  0
LAYOUT
  5
1E
100
AcDbPlotSettings
  1

  2
none_device
  4

  6

 40
0.0
 41
0.0
 42
0.0
 43
0.0
 44
0.0
 45
0.0
 46
0.0
 47
0.0
 48
0.0
 49
0.0
140
0.0
141
0.0
142
1.0
143
1.0
 70
688
 72
0
 73
0
 74
5
  7

 75
16
147
1.0
148
0.0
149
0.0
100
AcDbLayout
  1
Layout1
 70
1
 71
1
 10
0.0
 20
0.0
 11
420.0
 21
297.0
 12
0.0
 22
0.0
 32
0.0
 14
100000000000000000000.0
 24
100000000000000000000.0
 34
100000000000000000000.0
 15
-100000000000000000000.0
 25
-100000000000000000000.0
 35
-100000000000000000000.0
146
0.0
 13
0.0
 23
0.0
 33
0.0
 16
1.0
 26
0.0
 36
0.0
 17
0.0
 27
1.0
 37
0.0
 76
0
330
1B
  0
LAYOUT
  5
22
100
AcDbPlotSettings
  1

  2
none_device
  4

  6

 40
0.0
 41
0.0
 42
0.0
 43
0.0
 44
0.0
 45
0.0
 46
0.0
 47
0.0
 48
0.0
 49
0.0
140
0.0
141
0.0
142
1.0
143
1.0
 70
1712
 72
0
 73
0
 74
0
  7

 75
0
147
1.0
148
0.0
149
0.0
100
AcDbLayout
  1
Model
 70
1
 71
0
 10
0.0
 20
0.0
 11
12.0
 21
9.0
 12
0.0
 22
0.0
 32
0.0
 14
0.0
 24
0.0
 34
0.0
 15
0.0
 25
0.0
 35
0.0
146
0.0
 13
0.0
 23
0.0
 33
0.0
 16
1.0
 26
0.0
 36
0.0
 17
0.0
 27
1.0
 37
0.0
 76
0
330
1F
  0
LAYOUT
  5
26
100
AcDbPlotSettings
  1

  2
none_device
  4

  6

 40
0.0
 41
0.0
 42
0.0
 43
0.0
 44
0.0
 45
0.0
 46
0.0
 47
0.0
 48
0.0
 49
0.0
140
0.0
141
0.0
142
1.0
143
1.0
 70
688
 72
0
 73
0
 74
5
  7

 75
16
147
1.0
148
0.0
149
0.0
100
AcDbLayout
  1
Layout2
 70
1
 71
2
 10
0.0
 20
0.0
 11
12.0
 21
9.0
 12
0.0
 22
0.0
 32
0.0
 14
0.0
 24
0.0
 34
0.0
 15
0.0
 25
0.0
 35
0.0
146
0.0
 13
0.0
 23
0.0
 33
0.0
 16
1.0
 26
0.0
 36
0.0
 17
0.0
 27
1.0
 37
0.0
 76
0
330
23
  0
DICTIONARY
  5
30C
100
AcDbDictionary
281
1
  3
DIMASSOC
350
30F
  3
HIDETEXT
350
30E
  0
DICTIONARYVAR
  5
30E
100
DictionaryVariables
280
0
  1
2
  0
DICTIONARYVAR
  5
30F
100
DictionaryVariables
280
0
  1
1
  0
DICTIONARY
  5
30D
100
AcDbDictionary
281
1
  3
ColorSettings/BackgroundColor
350
310
  3
ColorSettings/ColorMode
350
311
  3
Grid/DisplayGrid00
350
312
  3
Grid/DisplayGrid01
350
313
  3
Grid/DisplayGrid02
350
314
  3
Grid/DisplayGrid03
350
315
  3
Grid/GridSpacingX00
350
316
  3
Grid/GridSpacingX01
350
317
  3
Grid/GridSpacingX02
350
318
  3
Grid/GridSpacingX03
350
319
  3
Grid/GridSpacingY00
350
31A
  3
Grid/GridSpacingY01
350
31B
  3
Grid/GridSpacingY02
350
31C
  3
Grid/GridSpacingY03
350
31D
  3
Grid/IsometricGrid00
350
31E
  3
Grid/IsometricGrid01
350
31F
  3
Grid/IsometricGrid02
350
320
  3
Grid/IsometricGrid03
350
321
  3
Grid/IsometricProjection00
350
322
  3
Grid/IsometricProjection01
350
323
  3
Grid/IsometricProjection02
350
324
  3
Grid/IsometricProjection03
350
325
  3
Grid/MetaGridSpacingX00
350
326
  3
Grid/MetaGridSpacingX01
350
327
  3
Grid/MetaGridSpacingX02
350
328
  3
Grid/MetaGridSpacingX03
350
329
  3
Grid/MetaGridSpacingY00
350
32A
  3
Grid/MetaGridSpacingY01
350
32B
  3
Grid/MetaGridSpacingY02
350
32C
  3
Grid/MetaGridSpacingY03
350
32D
  3
MultiPageSettings/Columns
350
32E
  3
MultiPageSettings/GlueMarginsBottom
350
32F
  3
MultiPageSettings/GlueMarginsLeft
350
330
  3
MultiPageSettings/GlueMarginsRight
350
331
  3
MultiPageSettings/GlueMarginsTop
350
332
  3
MultiPageSettings/PrintCropMarks
350
333
  3
MultiPageSettings/Rows
350
334
  3
PageSettings/OffsetX
350
335
  3
PageSettings/OffsetY
350
336
  3
PageSettings/PageOrientation
350
337
  3
PageSettings/PaperHeight
350
338
  3
PageSettings/PaperSizeName
350
339
  3
PageSettings/PaperWidth
350
33A
  3
PageSettings/Scale
350
33B
  3
PageSettings/ShowPaperBorders
350
33C
  3
QCADVersion
350
33D
  3
UnitSettings/PaperUnit
350
33E
  3
ViewportCenter
350
33F
  3
ViewportHeight
350
340
  3
ViewportWidth
350
341
  0
XRECORD
  5
310
330
30D
100
AcDbXrecord
280
1
1000
Blanc
  0
XRECORD
  5
311
330
30D
100
AcDbXrecord
280
1
1000
FullColor
  0
XRECORD
  5
312
330
30D
100
AcDbXrecord
280
1
290
1
  0
XRECORD
  5
313
330
30D
100
AcDbXrecord
280
1
290
1
  0
XRECORD
  5
314
330
30D
100
AcDbXrecord
280
1
290
1
  0
XRECORD
  5
315
330
30D
100
AcDbXrecord
280
1
290
1
  0
XRECORD
  5
316
330
30D
100
AcDbXrecord
280
1
1000
auto
  0
XRECORD
  5
317
330
30D
100
AcDbXrecord
280
1
1000
auto
  0
XRECORD
  5
318
330
30D
100
AcDbXrecord
280
1
1000
auto
  0
XRECORD
  5
319
330
30D
100
AcDbXrecord
280
1
1000
auto
  0
XRECORD
  5
31A
330
30D
100
AcDbXrecord
280
1
1000
auto
  0
XRECORD
  5
31B
330
30D
100
AcDbXrecord
280
1
1000
auto
  0
XRECORD
  5
31C
330
30D
100
AcDbXrecord
280
1
1000
auto
  0
XRECORD
  5
31D
330
30D
100
AcDbXrecord
280
1
1000
auto
  0
XRECORD
  5
31E
330
30D
100
AcDbXrecord
280
1
290
0
  0
XRECORD
  5
31F
330
30D
100
AcDbXrecord
280
1
290
0
  0
XRECORD
  5
320
330
30D
100
AcDbXrecord
280
1
290
0
  0
XRECORD
  5
321
330
30D
100
AcDbXrecord
280
1
290
0
  0
XRECORD
  5
322
330
30D
100
AcDbXrecord
280
1
 90
65537
  0
XRECORD
  5
323
330
30D
100
AcDbXrecord
280
1
 90
65537
  0
XRECORD
  5
324
330
30D
100
AcDbXrecord
280
1
 90
65537
  0
XRECORD
  5
325
330
30D
100
AcDbXrecord
280
1
 90
65537
  0
XRECORD
  5
326
330
30D
100
AcDbXrecord
280
1
1000
auto
  0
XRECORD
  5
327
330
30D
100
AcDbXrecord
280
1
1000
auto
  0
XRECORD
  5
328
330
30D
100
AcDbXrecord
280
1
1000
auto
  0
XRECORD
  5
329
330
30D
100
AcDbXrecord
280
1
1000
auto
  0
XRECORD
  5
32A
330
30D
100
AcDbXrecord
280
1
1000
auto
  0
XRECORD
  5
32B
330
30D
100
AcDbXrecord
280
1
1000
auto
  0
XRECORD
  5
32C
330
30D
100
AcDbXrecord
280
1
1000
auto
  0
XRECORD
  5
32D
330
30D
100
AcDbXrecord
280
1
1000
auto
  0
XRECORD
  5
32E
330
30D
100
AcDbXrecord
280
1
 90
1
  0
XRECORD
  5
32F
330
30D
100
AcDbXrecord
280
1
 40
10.0
  0
XRECORD
  5
330
330
30D
100
AcDbXrecord
280
1
 40
10.0
  0
XRECORD
  5
331
330
30D
100
AcDbXrecord
280
1
 40
10.0
  0
XRECORD
  5
332
330
30D
100
AcDbXrecord
280
1
 40
10.0
  0
XRECORD
  5
333
330
30D
100
AcDbXrecord
280
1
290
0
  0
XRECORD
  5
334
330
30D
100
AcDbXrecord
280
1
 90
1
  0
XRECORD
  5
335
330
30D
100
AcDbXrecord
280
1
 40
-8.9603960396039497
  0
XRECORD
  5
336
330
30D
100
AcDbXrecord
280
1
 40
-8.5297029702970235
  0
XRECORD
  5
337
330
30D
100
AcDbXrecord
280
1
1000
Portrait
  0
XRECORD
  5
338
330
30D
100
AcDbXrecord
280
1
 40
297.0
  0
XRECORD
  5
339
330
30D
100
AcDbXrecord
280
1
1000
ISO A4
  0
XRECORD
  5
33A
330
30D
100
AcDbXrecord
280
1
 40
210.0
  0
XRECORD
  5
33B
330
30D
100
AcDbXrecord
280
1
1000
1.01
  0
XRECORD
  5
33C
330
30D
100
AcDbXrecord
280
1
290
1
  0
XRECORD
  5
33D
330
30D
100
AcDbXrecord
280
1
1000
3.19.2.2
  0
XRECORD
  5
33E
330
30D
100
AcDbXrecord
280
1
 90
4
  0
XRECORD
  5
340
330
30D
100
AcDbXrecord
280
1
 40
309.4955952288142953
  0
XRECORD
  5
341
330
30D
100
AcDbXrecord
280
1
 40
802.6818429874484764
  0
ENDSEC
  0
EOF
