999
dxflib 3.17.0.0
  0
SECTION
  2
HEADER
  9
$ACADVER
  1
AC1015
  9
$HANDSEED
  5
FFFF
  9
$DIMADEC
 70
0
  9
$DIMASZ
 40
2.5
  9
$DIMAUNIT
 70
0
  9
$DIMAZIN
 70
2
  9
$DIMDEC
 70
4
  9
$DIMDSEP
 70
46
  9
$DIMEXE
 40
1.25
  9
$DIMEXO
 40
0.625
  9
$DIMGAP
 40
0.625
  9
$DIMLUNIT
 70
2
  9
$DIMSCALE
 40
1.0
  9
$DIMTSZ
 40
0.0
  9
$DIMTXT
 40
2.5
  9
$DIMZIN
 70
8
  9
$DWGCODEPAGE
  3
ANSI_1252
  9
$INSUNITS
 70
4
  9
$LTSCALE
 40
1.0
  9
$MAXACTVP
 70
64
  9
$MEASUREMENT
 70
1
  9
$PDMODE
 70
0
  9
$PDSIZE
 40
0.0
  0
ENDSEC
  0
SECTION
  2
TABLES
  0
TABLE
  2
VPORT
  5
8
100
AcDbSymbolTable
 70
1
  0
VPORT
  5
30
100
AcDbSymbolTableRecord
100
AcDbViewportTableRecord
  2
*Active
 70
0
 10
0.0
 20
0.0
 11
1.0
 21
1.0
 12
286.3055555555554861
 22
148.5
 13
0.0
 23
0.0
 14
10.0
 24
10.0
 15
10.0
 25
10.0
 16
0.0
 26
0.0
 36
1.0
 17
0.0
 27
0.0
 37
0.0
 40
297.0
 41
1.92798353909465
 42
50.0
 43
0.0
 44
0.0
 50
0.0
 51
0.0
 71
0
 72
100
 73
1
 74
3
 75
1
 76
1
 77
0
 78
0
281
0
 65
1
110
0.0
120
0.0
130
0.0
111
1.0
121
0.0
131
0.0
112
0.0
122
1.0
132
0.0
 79
0
146
0.0
  0
ENDTAB
  0
TABLE
  2
LTYPE
  5
5
100
AcDbSymbolTable
 70
41
  0
LTYPE
  5
16
100
AcDbSymbolTableRecord
100
AcDbLinetypeTableRecord
  2
Continuous
 70
0
  3
Solid line
 72
65
 73
0
 40
0.0
  0
LTYPE
  5
31
100
AcDbSymbolTableRecord
100
AcDbLinetypeTableRecord
  2
ACAD_ISO15W100
 70
0
  3
ISO double-dash triple-dot __ __ . . . __ __ . .
 72
65
 73
10
 40
39.0000000000000071
 49
12.0
 74
0
 49
-3.0
 74
0
 49
12.0
 74
0
 49
-2.9500000000000002
 74
0
 49
0.1
 74
0
 49
-2.9000000000000004
 74
0
 49
0.1
 74
0
 49
-2.9000000000000004
 74
0
 49
0.1
 74
0
 49
-2.9500000000000002
 74
0
  0
LTYPE
  5
32
100
AcDbSymbolTableRecord
100
AcDbLinetypeTableRecord
  2
DIVIDE
 70
0
  3
Divide ____ . . ____ . . ____ . . ____ . . ____
 72
65
 73
6
 40
31.7500000000000036
 49
12.6999999999999993
 74
0
 49
-6.2999999999999998
 74
0
 49
0.1
 74
0
 49
-6.25
 74
0
 49
0.1
 74
0
 49
-6.2999999999999998
 74
0
  0
LTYPE
  5
33
100
AcDbSymbolTableRecord
100
AcDbLinetypeTableRecord
  2
ACAD_ISO10W100
 70
0
  3
ISO dash dot __ . __ . __ . __ . __ . __ . __ . 
 72
65
 73
4
 40
18.0
 49
12.0
 74
0
 49
-2.9500000000000002
 74
0
 49
0.1
 74
0
 49
-2.9500000000000002
 74
0
  0
LTYPE
  5
34
100
AcDbSymbolTableRecord
100
AcDbLinetypeTableRecord
  2
ACAD_ISO04W100
 70
0
  3
ISO long-dash dot ____ . ____ . ____ . ____ . _
 72
65
 73
4
 40
30.0
 49
24.0
 74
0
 49
-2.9500000000000002
 74
0
 49
0.1
 74
0
 49
-2.9500000000000002
 74
0
  0
LTYPE
  5
35
100
AcDbSymbolTableRecord
100
AcDbLinetypeTableRecord
  2
CENTER2
 70
0
  3
Center (.5x) ___ _ ___ _ ___ _ ___ _ ___ _ ___
 72
65
 73
4
 40
28.5750000000000028
 49
19.0500000000000007
 74
0
 49
-3.1749999999999998
 74
0
 49
3.1749999999999998
 74
0
 49
-3.1749999999999998
 74
0
  0
LTYPE
  5
36
100
AcDbSymbolTableRecord
100
AcDbLinetypeTableRecord
  2
ACAD_ISO11W100
 70
0
  3
ISO double-dash dot __ __ . __ __ . __ __ . __ _
 72
65
 73
6
 40
33.0
 49
12.0
 74
0
 49
-3.0
 74
0
 49
12.0
 74
0
 49
-2.9500000000000002
 74
0
 49
0.1
 74
0
 49
-2.9500000000000002
 74
0
  0
LTYPE
  5
37
100
AcDbSymbolTableRecord
100
AcDbLinetypeTableRecord
  2
HIDDEN2
 70
0
  3
Hidden (.5x) _ _ _ _ _ _ _ _ _ _ _ _ _ _ _ _ _ 
 72
65
 73
2
 40
4.7624999999999993
 49
3.1749999999999998
 74
0
 49
-1.5874999999999999
 74
0
  0
LTYPE
  5
38
100
AcDbSymbolTableRecord
100
AcDbLinetypeTableRecord
  2
BORDERX2
 70
0
  3
Border (2x) ____  ____  .  ____  ____  .  ___
 72
65
 73
6
 40
88.8999999999999773
 49
25.3999999999999986
 74
0
 49
-12.6999999999999993
 74
0
 49
25.3999999999999986
 74
0
 49
-12.6499999999999986
 74
0
 49
0.1
 74
0
 49
-12.6499999999999986
 74
0
  0
LTYPE
  5
39
100
AcDbSymbolTableRecord
100
AcDbLinetypeTableRecord
  2
ACAD_ISO05W100
 70
0
  3
ISO long-dash double-dot ____ .. ____ .. ____ . 
 72
65
 73
6
 40
33.0000000000000071
 49
24.0
 74
0
 49
-2.9500000000000002
 74
0
 49
0.1
 74
0
 49
-2.9000000000000004
 74
0
 49
0.1
 74
0
 49
-2.9500000000000002
 74
0
  0
LTYPE
  5
3A
100
AcDbSymbolTableRecord
100
AcDbLinetypeTableRecord
  2
DASHDOTX2
 70
0
  3
Dash dot (2x) ____  .  ____  .  ____  .  ___
 72
65
 73
4
 40
50.7999999999999972
 49
25.3999999999999986
 74
0
 49
-12.6499999999999986
 74
0
 49
0.1
 74
0
 49
-12.6499999999999986
 74
0
  0
LTYPE
  5
3B
100
AcDbSymbolTableRecord
100
AcDbLinetypeTableRecord
  2
HIDDENX2
 70
0
  3
Hidden (2x) ____ ____ ____ ____ ____ ____ ____ 
 72
65
 73
2
 40
19.0499999999999972
 49
12.6999999999999993
 74
0
 49
-6.3499999999999996
 74
0
  0
LTYPE
  5
3C
100
AcDbSymbolTableRecord
100
AcDbLinetypeTableRecord
  2
CENTERX2
 70
0
  3
Center (2x) ________  __  ________  __  _____
 72
65
 73
4
 40
101.6000000000000085
 49
63.5
 74
0
 49
-12.6999999999999993
 74
0
 49
12.6999999999999993
 74
0
 49
-12.6999999999999993
 74
0
  0
LTYPE
  5
3D
100
AcDbSymbolTableRecord
100
AcDbLinetypeTableRecord
  2
BORDER2
 70
0
  3
Border (.5x) __.__.__.__.__.__.__.__.__.__.__.
 72
65
 73
6
 40
22.2250000000000014
 49
6.3499999999999996
 74
0
 49
-3.1749999999999998
 74
0
 49
6.3499999999999996
 74
0
 49
-3.125
 74
0
 49
0.1
 74
0
 49
-3.125
 74
0
  0
LTYPE
  5
3E
100
AcDbSymbolTableRecord
100
AcDbLinetypeTableRecord
  2
DASHDOT2
 70
0
  3
Dash dot (.5x) _._._._._._._._._._._._._._._.
 72
65
 73
4
 40
12.6999999999999993
 49
6.3499999999999996
 74
0
 49
-3.125
 74
0
 49
0.1
 74
0
 49
-3.125
 74
0
  0
LTYPE
  5
3F
100
AcDbSymbolTableRecord
100
AcDbLinetypeTableRecord
  2
ACAD_ISO12W100
 70
0
  3
ISO dash double-dot __ . . __ . . __ . . __ . . 
 72
65
 73
6
 40
21.0
 49
12.0
 74
0
 49
-2.9500000000000002
 74
0
 49
0.1
 74
0
 49
-2.9000000000000004
 74
0
 49
0.1
 74
0
 49
-2.9500000000000002
 74
0
  0
LTYPE
  5
40
100
AcDbSymbolTableRecord
100
AcDbLinetypeTableRecord
  2
ACAD_ISO07W100
 70
0
  3
ISO dot . . . . . . . . . . . . . . . . . . . . 
 72
65
 73
2
 40
3.0
 49
0.1
 74
0
 49
-2.8999999999999999
 74
0
  0
LTYPE
  5
41
100
AcDbSymbolTableRecord
100
AcDbLinetypeTableRecord
  2
HIDDEN
 70
0
  3
Hidden __ __ __ __ __ __ __ __ __ __ __ __ __ __
 72
65
 73
2
 40
9.5249999999999986
 49
6.3499999999999996
 74
0
 49
-3.1749999999999998
 74
0
  0
LTYPE
  5
42
100
AcDbSymbolTableRecord
100
AcDbLinetypeTableRecord
  2
ACAD_ISO06W100
 70
0
  3
ISO long-dash triple-dot ____ ... ____ ... ____
 72
65
 73
8
 40
36.0000000000000071
 49
24.0
 74
0
 49
-2.9500000000000002
 74
0
 49
0.1
 74
0
 49
-2.9000000000000004
 74
0
 49
0.1
 74
0
 49
-2.9000000000000004
 74
0
 49
0.1
 74
0
 49
-2.9500000000000002
 74
0
  0
LTYPE
  5
43
100
AcDbSymbolTableRecord
100
AcDbLinetypeTableRecord
  2
CENTER
 70
0
  3
Center ____ _ ____ _ ____ _ ____ _ ____ _ ____
 72
65
 73
4
 40
50.8000000000000043
 49
31.75
 74
0
 49
-6.3499999999999996
 74
0
 49
6.3499999999999996
 74
0
 49
-6.3499999999999996
 74
0
  0
LTYPE
  5
44
100
AcDbSymbolTableRecord
100
AcDbLinetypeTableRecord
  2
DOTX2
 70
0
  3
Dot (2x) .  .  .  .  .  .  .  .  .  .  .  .  .  .
 72
65
 73
2
 40
12.6999999999999993
 49
0.1
 74
0
 49
-12.5999999999999996
 74
0
  0
LTYPE
  5
45
100
AcDbSymbolTableRecord
100
AcDbLinetypeTableRecord
  2
PHANTOM
 70
0
  3
Phantom ______  __  __  ______  __  __  ______ 
 72
65
 73
6
 40
63.5000000000000071
 49
31.75
 74
0
 49
-6.3499999999999996
 74
0
 49
6.3499999999999996
 74
0
 49
-6.3499999999999996
 74
0
 49
6.3499999999999996
 74
0
 49
-6.3499999999999996
 74
0
  0
LTYPE
  5
46
100
AcDbSymbolTableRecord
100
AcDbLinetypeTableRecord
  2
ACAD_ISO08W100
 70
0
  3
ISO long-dash short-dash ____ __ ____ __ ____ _
 72
65
 73
4
 40
36.0
 49
24.0
 74
0
 49
-3.0
 74
0
 49
6.0
 74
0
 49
-3.0
 74
0
  0
LTYPE
  5
47
100
AcDbSymbolTableRecord
100
AcDbLinetypeTableRecord
  2
DASHEDX2
 70
0
  3
Dashed (2x) ____  ____  ____  ____  ____  ___
 72
65
 73
2
 40
38.0999999999999943
 49
25.3999999999999986
 74
0
 49
-12.6999999999999993
 74
0
  0
LTYPE
  5
48
100
AcDbSymbolTableRecord
100
AcDbLinetypeTableRecord
  2
ACAD_ISO02W100
 70
0
  3
ISO dash __ __ __ __ __ __ __ __ __ __ __ __ __
 72
65
 73
2
 40
15.0
 49
12.0
 74
0
 49
-3.0
 74
0
  0
LTYPE
  5
49
100
AcDbSymbolTableRecord
100
AcDbLinetypeTableRecord
  2
PHANTOM2
 70
0
  3
Phantom (.5x) ___ _ _ ___ _ _ ___ _ _ ___ _ _
 72
65
 73
6
 40
31.7500000000000036
 49
15.875
 74
0
 49
-3.1749999999999998
 74
0
 49
3.1749999999999998
 74
0
 49
-3.1749999999999998
 74
0
 49
3.1749999999999998
 74
0
 49
-3.1749999999999998
 74
0
  0
LTYPE
  5
4A
100
AcDbSymbolTableRecord
100
AcDbLinetypeTableRecord
  2
DASHED2
 70
0
  3
Dashed (.5x) _ _ _ _ _ _ _ _ _ _ _ _ _ _ _ _ _ 
 72
65
 73
2
 40
9.5249999999999986
 49
6.3499999999999996
 74
0
 49
-3.1749999999999998
 74
0
  0
LTYPE
  5
4B
100
AcDbSymbolTableRecord
100
AcDbLinetypeTableRecord
  2
ACAD_ISO09W100
 70
0
  3
ISO long-dash double-short-dash ____ __ __ ____
 72
65
 73
6
 40
45.0
 49
24.0
 74
0
 49
-3.0
 74
0
 49
6.0
 74
0
 49
-3.0
 74
0
 49
6.0
 74
0
 49
-3.0
 74
0
  0
LTYPE
  5
4C
100
AcDbSymbolTableRecord
100
AcDbLinetypeTableRecord
  2
ACAD_ISO13W100
 70
0
  3
ISO double-dash double-dot __ __ . . __ __ . . _
 72
65
 73
8
 40
36.0000000000000071
 49
12.0
 74
0
 49
-3.0
 74
0
 49
12.0
 74
0
 49
-2.9500000000000002
 74
0
 49
0.1
 74
0
 49
-2.9000000000000004
 74
0
 49
0.1
 74
0
 49
-2.9500000000000002
 74
0
  0
LTYPE
  5
4D
100
AcDbSymbolTableRecord
100
AcDbLinetypeTableRecord
  2
DOT2
 70
0
  3
Dot (.5x) ........................................
 72
65
 73
2
 40
3.1749999999999998
 49
0.1
 74
0
 49
-3.0749999999999997
 74
0
  0
LTYPE
  5
4E
100
AcDbSymbolTableRecord
100
AcDbLinetypeTableRecord
  2
DASHED
 70
0
  3
Dashed __ __ __ __ __ __ __ __ __ __ __ __ __ _
 72
65
 73
2
 40
19.0499999999999972
 49
12.6999999999999993
 74
0
 49
-6.3499999999999996
 74
0
  0
LTYPE
  5
4F
100
AcDbSymbolTableRecord
100
AcDbLinetypeTableRecord
  2
ACAD_ISO14W100
 70
0
  3
ISO dash triple-dot __ . . . __ . . . __ . . . _
 72
65
 73
8
 40
24.0000000000000036
 49
12.0
 74
0
 49
-2.9500000000000002
 74
0
 49
0.1
 74
0
 49
-2.9000000000000004
 74
0
 49
0.1
 74
0
 49
-2.9000000000000004
 74
0
 49
0.1
 74
0
 49
-2.9500000000000002
 74
0
  0
LTYPE
  5
15
100
AcDbSymbolTableRecord
100
AcDbLinetypeTableRecord
  2
BYLAYER
 70
0
  3

 72
65
 73
0
 40
0.0
  0
LTYPE
  5
50
100
AcDbSymbolTableRecord
100
AcDbLinetypeTableRecord
  2
PHANTOMX2
 70
0
  3
Phantom (2x) ____________    ____    ____   _
 72
65
 73
6
 40
127.0000000000000142
 49
63.5
 74
0
 49
-12.6999999999999993
 74
0
 49
12.6999999999999993
 74
0
 49
-12.6999999999999993
 74
0
 49
12.6999999999999993
 74
0
 49
-12.6999999999999993
 74
0
  0
LTYPE
  5
14
100
AcDbSymbolTableRecord
100
AcDbLinetypeTableRecord
  2
BYBLOCK
 70
0
  3

 72
65
 73
0
 40
0.0
  0
LTYPE
  5
51
100
AcDbSymbolTableRecord
100
AcDbLinetypeTableRecord
  2
DIVIDEX2
 70
0
  3
Divide (2x) ________  .  .  ________  .  .  _
 72
65
 73
6
 40
63.5
 49
25.3999999999999986
 74
0
 49
-12.6499999999999986
 74
0
 49
0.1
 74
0
 49
-12.5999999999999979
 74
0
 49
0.1
 74
0
 49
-12.6499999999999986
 74
0
  0
LTYPE
  5
52
100
AcDbSymbolTableRecord
100
AcDbLinetypeTableRecord
  2
BORDER
 70
0
  3
Border __ __ . __ __ . __ __ . __ __ . __ __ .
 72
65
 73
6
 40
44.4499999999999957
 49
12.6999999999999993
 74
0
 49
-6.3499999999999996
 74
0
 49
12.6999999999999993
 74
0
 49
-6.2999999999999998
 74
0
 49
0.1
 74
0
 49
-6.2999999999999998
 74
0
  0
LTYPE
  5
53
100
AcDbSymbolTableRecord
100
AcDbLinetypeTableRecord
  2
DIVIDE2
 70
0
  3
Divide (.5x) __..__..__..__..__..__..__..__.._
 72
65
 73
6
 40
15.8749999999999982
 49
6.3499999999999996
 74
0
 49
-3.125
 74
0
 49
0.1
 74
0
 49
-3.0750000000000002
 74
0
 49
0.1
 74
0
 49
-3.125
 74
0
  0
LTYPE
  5
54
100
AcDbSymbolTableRecord
100
AcDbLinetypeTableRecord
  2
DOT
 70
0
  3
Dot . . . . . . . . . . . . . . . . . . . . . . . .
 72
65
 73
2
 40
6.3499999999999996
 49
0.1
 74
0
 49
-6.25
 74
0
  0
LTYPE
  5
55
100
AcDbSymbolTableRecord
100
AcDbLinetypeTableRecord
  2
DASHDOT
 70
0
  3
Dash dot __ . __ . __ . __ . __ . __ . __ . __
 72
65
 73
4
 40
25.4000000000000021
 49
12.6999999999999993
 74
0
 49
-6.2999999999999998
 74
0
 49
0.1
 74
0
 49
-6.2999999999999998
 74
0
  0
LTYPE
  5
56
100
AcDbSymbolTableRecord
100
AcDbLinetypeTableRecord
  2
ACAD_ISO03W100
 70
0
  3
ISO dash space __    __    __    __    __    __
 72
65
 73
2
 40
30.0
 49
12.0
 74
0
 49
-18.0
 74
0
  0
ENDTAB
  0
TABLE
  2
LAYER
  5
2
100
AcDbSymbolTable
 70
7
  0
LAYER
  5
57
100
AcDbSymbolTableRecord
100
AcDbLayerTableRecord
  2
layer 1
 70
0
 62
1
420
16711680
  6
Continuous
370
25
390
F
  0
LAYER
  5
58
100
AcDbSymbolTableRecord
100
AcDbLayerTableRecord
  2
icones1
 70
1
 62
3
420
65280
  6
Continuous
370
9
390
F
  0
LAYER
  5
59
100
AcDbSymbolTableRecord
100
AcDbLayerTableRecord
  2
icones2
 70
1
 62
3
420
65280
  6
Continuous
370
9
390
F
  0
LAYER
  5
5A
100
AcDbSymbolTableRecord
100
AcDbLayerTableRecord
  2
icones3
 70
1
 62
3
420
65280
  6
Continuous
370
9
390
F
  0
LAYER
  5
5B
100
AcDbSymbolTableRecord
100
AcDbLayerTableRecord
  2
icones4
 70
1
 62
3
420
65280
  6
Continuous
370
9
390
F
  0
LAYER
  5
10
100
AcDbSymbolTableRecord
100
AcDbLayerTableRecord
  2
0
 70
0
 62
7
420
16777215
  6
Continuous
370
25
390
F
  0
LAYER
  5
5C
100
AcDbSymbolTableRecord
100
AcDbLayerTableRecord
  2
hach
 70
0
 62
7
420
0
  6
Continuous
370
13
390
F
  0
ENDTAB
  0
TABLE
  2
STYLE
  5
3
100
AcDbSymbolTable
 70
1
  0
STYLE
  5
5D
100
AcDbSymbolTableRecord
100
AcDbTextStyleTableRecord
  2
Standard
 70
0
 40
0.0
 41
1.0
 50
0.0
 71
0
 42
2.5
  3

  4

1001
ACAD
1000
txt
1071
0
  0
ENDTAB
  0
TABLE
  2
VIEW
  5
6
100
AcDbSymbolTable
 70
0
  0
ENDTAB
  0
TABLE
  2
UCS
  5
7
100
AcDbSymbolTable
 70
0
  0
ENDTAB
  0
TABLE
  2
APPID
  5
9
100
AcDbSymbolTable
 70
1
  0
APPID
  5
12
100
AcDbSymbolTableRecord
100
AcDbRegAppTableRecord
  2
ACAD
 70
0
  0
APPID
  5
5E
100
AcDbSymbolTableRecord
100
AcDbRegAppTableRecord
  2
QCAD
 70
0
  0
ENDTAB
  0
TABLE
  2
DIMSTYLE
  5
A
100
AcDbSymbolTable
 70
1
100
AcDbDimStyleTable
 71
0
  0
DIMSTYLE
105
27
100
AcDbSymbolTableRecord
100
AcDbDimStyleTableRecord
  2
Standard
 41
2.5
 42
0.625
 43
3.75
 44
1.25
 70
0
 73
0
 74
0
 77
1
 78
8
140
2.5
141
2.5
143
0.03937007874016
147
0.625
171
3
172
1
271
2
272
2
274
3
278
44
283
0
284
8
340
5D
  0
ENDTAB
  0
TABLE
  2
BLOCK_RECORD
  5
1
100
AcDbSymbolTable
 70
1
  0
BLOCK_RECORD
  5
1F
100
AcDbSymbolTableRecord
100
AcDbBlockTableRecord
  2
*Model_Space
340
22
  0
BLOCK_RECORD
  5
1B
100
AcDbSymbolTableRecord
100
AcDbBlockTableRecord
  2
*Paper_Space
340
1E
  0
BLOCK_RECORD
  5
23
100
AcDbSymbolTableRecord
100
AcDbBlockTableRecord
  2
*Paper_Space0
340
26
  0
ENDTAB
  0
ENDSEC
  0
SECTION
  2
BLOCKS
  0
BLOCK
  5
20
100
AcDbEntity
  8
0
100
AcDbBlockBegin
  2
*Model_Space
 70
0
 10
0.0
 20
0.0
 30
0.0
  3
*Model_Space
  1

  0
ENDBLK
  5
21
100
AcDbEntity
  8
0
100
AcDbBlockEnd
  0
BLOCK
  5
1C
100
AcDbEntity
 67
1
  8
0
100
AcDbBlockBegin
  2
*Paper_Space
 70
0
 10
0.0
 20
0.0
 30
0.0
  3
*Paper_Space
  1

  0
ENDBLK
  5
1D
100
AcDbEntity
 67
1
  8
0
100
AcDbBlockEnd
  0
BLOCK
  5
24
100
AcDbEntity
  8
0
100
AcDbBlockBegin
  2
*Paper_Space0
 70
0
 10
0.0
 20
0.0
 30
0.0
  3
*Paper_Space0
  1

  0
ENDBLK
  5
25
100
AcDbEntity
  8
0
100
AcDbBlockEnd
  0
ENDSEC
  0
SECTION
  2
ENTITIES
  0
LINE
  5
5F
100
AcDbEntity
  8
0
 62
256
370
13
 48
1.0
  6
BYLAYER
100
AcDbLine
 10
82.4500000000000455
 20
167.4499999999999318
 30
0.0
 11
2.5500000000000846
 21
167.4499999999999318
 31
0.0
  0
LINE
  5
60
100
AcDbEntity
  8
0
 62
256
370
13
 48
1.0
  6
BYLAYER
100
AcDbLine
 10
172.5500000000003524
 20
82.4499999999998892
 30
0.0
 11
172.5500000000000966
 21
2.5499999999999052
 31
0.0
  0
LINE
  5
61
100
AcDbEntity
  8
0
 62
256
370
13
 48
1.0
  6
BYLAYER
100
AcDbLine
 10
87.5499999999998835
 20
2.5500000000000989
 30
0.0
 11
167.4499999999999034
 21
2.5499999999997605
 31
0.0
  0
LINE
  5
62
100
AcDbEntity
  8
0
 62
256
370
13
 48
1.0
  6
BYLAYER
100
AcDbLine
 10
-2.5500000000001086
 20
87.5499999999998977
 30
0.0
 11
-2.5500000000000118
 21
167.4499999999999318
 31
0.0
  0
LINE
  5
63
100
AcDbEntity
  8
0
 62
256
370
13
 48
1.0
  6
BYLAYER
100
AcDbLine
 10
87.549999999999855
 20
172.5500000000002672
 30
0.0
 11
167.4499999999998749
 21
172.5500000000002672
 31
0.0
  0
LINE
  5
64
100
AcDbEntity
  8
0
 62
256
370
13
 48
1.0
  6
BYLAYER
100
AcDbLine
 10
167.4500000000007276
 20
167.4500000000005286
 30
0.0
 11
167.4500000000001876
 21
87.5499999999999261
 31
0.0
  0
LINE
  5
65
100
AcDbEntity
  8
0
 62
256
370
13
 48
1.0
  6
BYLAYER
100
AcDbLine
 10
2.5499999999990215
 20
-2.5499999999994905
 30
0.0
 11
82.4499999999998323
 21
-2.5500000000000944
 31
0.0
  0
LINE
  5
66
100
AcDbEntity
  8
0
 62
256
370
13
 48
1.0
  6
BYLAYER
100
AcDbLine
 10
2.5499999999983451
 20
2.5499999999980933
 30
0.0
 11
2.5500000000000362
 21
82.4499999999998892
 31
0.0
  0
LINE
  5
67
100
AcDbEntity
  8
0
 62
256
370
13
 48
1.0
  6
BYLAYER
100
AcDbLine
 10
82.4500000000000455
 20
167.4499999999999034
 30
0.0
 11
87.5500000000000682
 21
172.5499999999999261
 31
0.0
  0
LINE
  5
68
100
AcDbEntity
  8
hach
 62
256
370
13
 48
1.0
  6
BYLAYER
100
AcDbLine
 10
172.5500000000003524
 20
82.4499999999998892
 30
0.0
 11
167.4500000000001592
 21
87.5499999999998977
 31
0.0
  0
LINE
  5
69
100
AcDbEntity
  8
0
 62
256
370
13
 48
1.0
  6
BYLAYER
100
AcDbLine
 10
87.5499999999998835
 20
2.5500000000000989
 30
0.0
 11
82.4499999999998323
 21
-2.5500000000000944
 31
0.0
  0
LINE
  5
6A
100
AcDbEntity
  8
0
 62
256
370
13
 48
1.0
  6
BYLAYER
100
AcDbLine
 10
-2.5500000000001086
 20
87.5499999999998977
 30
0.0
 11
2.5500000000000362
 21
82.4499999999998892
 31
0.0
  0
LINE
  5
6B
100
AcDbEntity
  8
hach
 62
256
370
13
 48
1.0
  6
BYLAYER
100
AcDbLine
 10
-2.5500000000000602
 20
90.0999999999999091
 30
0.0
 11
2.5500000000000846
 21
84.9999999999999147
 31
0.0
  0
LINE
  5
6C
100
AcDbEntity
  8
hach
 62
256
370
13
 48
1.0
  6
BYLAYER
100
AcDbLine
 10
-2.5500000000000118
 20
92.6499999999999204
 30
0.0
 11
2.5500000000001326
 21
87.5499999999999261
 31
0.0
  0
LINE
  5
6D
100
AcDbEntity
  8
hach
 62
256
370
13
 48
1.0
  6
BYLAYER
100
AcDbLine
 10
-2.5499999999999639
 20
95.1999999999999318
 30
0.0
 11
2.550000000000181
 21
90.0999999999999375
 31
0.0
  0
LINE
  5
6E
100
AcDbEntity
  8
hach
 62
256
370
13
 48
1.0
  6
BYLAYER
100
AcDbLine
 10
-2.5499999999999154
 20
97.7499999999999432
 30
0.0
 11
2.5500000000002294
 21
92.6499999999999488
 31
0.0
  0
LINE
  5
6F
100
AcDbEntity
  8
hach
 62
256
370
13
 48
1.0
  6
BYLAYER
100
AcDbLine
 10
-2.549999999999867
 20
100.2999999999999545
 30
0.0
 11
2.5500000000002778
 21
95.1999999999999602
 31
0.0
  0
LINE
  5
70
100
AcDbEntity
  8
hach
 62
256
370
13
 48
1.0
  6
BYLAYER
100
AcDbLine
 10
-2.5499999999998186
 20
102.8499999999999659
 30
0.0
 11
2.5500000000003262
 21
97.7499999999999716
 31
0.0
  0
LINE
  5
71
100
AcDbEntity
  8
hach
 62
256
370
13
 48
1.0
  6
BYLAYER
100
AcDbLine
 10
-2.5499999999997702
 20
105.3999999999999773
 30
0.0
 11
2.5500000000003742
 21
100.2999999999999829
 31
0.0
  0
LINE
  5
72
100
AcDbEntity
  8
hach
 62
256
370
13
 48
1.0
  6
BYLAYER
100
AcDbLine
 10
-2.5499999999997223
 20
107.9499999999999886
 30
0.0
 11
2.5500000000004226
 21
102.8499999999999943
 31
0.0
  0
LINE
  5
73
100
AcDbEntity
  8
hach
 62
256
370
13
 48
1.0
  6
BYLAYER
100
AcDbLine
 10
-2.5499999999996739
 20
110.5
 30
0.0
 11
2.550000000000471
 21
105.4000000000000057
 31
0.0
  0
LINE
  5
74
100
AcDbEntity
  8
hach
 62
256
370
13
 48
1.0
  6
BYLAYER
100
AcDbLine
 10
-2.5499999999996255
 20
113.0500000000000256
 30
0.0
 11
2.5500000000005194
 21
107.9500000000000171
 31
0.0
  0
LINE
  5
75
100
AcDbEntity
  8
hach
 62
256
370
13
 48
1.0
  6
BYLAYER
100
AcDbLine
 10
-2.549999999999577
 20
115.6000000000000512
 30
0.0
 11
2.5500000000005678
 21
110.5000000000000568
 31
0.0
  0
LINE
  5
76
100
AcDbEntity
  8
hach
 62
256
370
13
 48
1.0
  6
BYLAYER
100
AcDbLine
 10
-2.5499999999995286
 20
118.1500000000000483
 30
0.0
 11
2.5500000000006158
 21
113.050000000000054
 31
0.0
  0
LINE
  5
77
100
AcDbEntity
  8
hach
 62
256
370
13
 48
1.0
  6
BYLAYER
100
AcDbLine
 10
-2.5499999999994807
 20
120.7000000000000455
 30
0.0
 11
2.5500000000006642
 21
115.6000000000000512
 31
0.0
  0
LINE
  5
78
100
AcDbEntity
  8
hach
 62
256
370
13
 48
1.0
  6
BYLAYER
100
AcDbLine
 10
-2.5499999999994323
 20
123.2500000000000711
 30
0.0
 11
2.5500000000007126
 21
118.1500000000000767
 31
0.0
  0
LINE
  5
79
100
AcDbEntity
  8
hach
 62
256
370
13
 48
1.0
  6
BYLAYER
100
AcDbLine
 10
-2.5499999999993839
 20
125.8000000000000966
 30
0.0
 11
2.550000000000761
 21
120.7000000000001023
 31
0.0
  0
LINE
  5
7A
100
AcDbEntity
  8
hach
 62
256
370
13
 48
1.0
  6
BYLAYER
100
AcDbLine
 10
-2.5499999999993355
 20
128.350000000000108
 30
0.0
 11
2.5500000000008094
 21
123.2500000000000995
 31
0.0
  0
LINE
  5
7B
100
AcDbEntity
  8
hach
 62
256
370
13
 48
1.0
  6
BYLAYER
100
AcDbLine
 10
-2.5499999999992871
 20
130.9000000000001194
 30
0.0
 11
2.5500000000008574
 21
125.8000000000000966
 31
0.0
  0
LINE
  5
7C
100
AcDbEntity
  8
hach
 62
256
370
13
 48
1.0
  6
BYLAYER
100
AcDbLine
 10
-2.5499999999992391
 20
133.4500000000001307
 30
0.0
 11
2.5500000000009058
 21
128.3500000000001364
 31
0.0
  0
LINE
  5
7D
100
AcDbEntity
  8
hach
 62
256
370
13
 48
1.0
  6
BYLAYER
100
AcDbLine
 10
-2.5499999999991907
 20
136.0000000000001705
 30
0.0
 11
2.5500000000009542
 21
130.9000000000001762
 31
0.0
  0
LINE
  5
7E
100
AcDbEntity
  8
hach
 62
256
370
13
 48
1.0
  6
BYLAYER
100
AcDbLine
 10
-2.5499999999991423
 20
138.5500000000001535
 30
0.0
 11
2.5500000000010026
 21
133.4500000000001592
 31
0.0
  0
LINE
  5
7F
100
AcDbEntity
  8
hach
 62
256
370
13
 48
1.0
  6
BYLAYER
100
AcDbLine
 10
-2.5499999999990939
 20
141.1000000000001648
 30
0.0
 11
2.550000000001051
 21
136.0000000000001705
 31
0.0
  0
LINE
  5
80
100
AcDbEntity
  8
hach
 62
256
370
13
 48
1.0
  6
BYLAYER
100
AcDbLine
 10
-2.5499999999990455
 20
143.6500000000001762
 30
0.0
 11
2.5500000000010989
 21
138.5500000000001819
 31
0.0
  0
LINE
  5
81
100
AcDbEntity
  8
hach
 62
256
370
13
 48
1.0
  6
BYLAYER
100
AcDbLine
 10
-2.5499999999989975
 20
146.200000000000216
 30
0.0
 11
2.5500000000011473
 21
141.1000000000002217
 31
0.0
  0
LINE
  5
82
100
AcDbEntity
  8
hach
 62
256
370
13
 48
1.0
  6
BYLAYER
100
AcDbLine
 10
-2.5499999999989491
 20
148.750000000000199
 30
0.0
 11
2.5500000000011958
 21
143.6500000000002046
 31
0.0
  0
LINE
  5
83
100
AcDbEntity
  8
hach
 62
256
370
13
 48
1.0
  6
BYLAYER
100
AcDbLine
 10
-2.5499999999989007
 20
151.3000000000002103
 30
0.0
 11
2.5500000000012442
 21
146.200000000000216
 31
0.0
  0
LINE
  5
84
100
AcDbEntity
  8
hach
 62
256
370
13
 48
1.0
  6
BYLAYER
100
AcDbLine
 10
-2.5499999999988523
 20
153.8500000000002217
 30
0.0
 11
2.5500000000012926
 21
148.7500000000002274
 31
0.0
  0
LINE
  5
85
100
AcDbEntity
  8
hach
 62
256
370
13
 48
1.0
  6
BYLAYER
100
AcDbLine
 10
-2.5499999999988039
 20
156.4000000000002615
 30
0.0
 11
2.5500000000013405
 21
151.3000000000002672
 31
0.0
  0
LINE
  5
86
100
AcDbEntity
  8
hach
 62
256
370
13
 48
1.0
  6
BYLAYER
100
AcDbLine
 10
-2.5499999999987559
 20
158.9500000000002728
 30
0.0
 11
2.5500000000013889
 21
153.8500000000002501
 31
0.0
  0
LINE
  5
87
100
AcDbEntity
  8
hach
 62
256
370
13
 48
1.0
  6
BYLAYER
100
AcDbLine
 10
-2.5499999999987075
 20
161.5000000000002558
 30
0.0
 11
2.5500000000014373
 21
156.4000000000002615
 31
0.0
  0
LINE
  5
88
100
AcDbEntity
  8
hach
 62
256
370
13
 48
1.0
  6
BYLAYER
100
AcDbLine
 10
-2.5499999999986591
 20
164.0500000000002956
 30
0.0
 11
2.5500000000014857
 21
158.9500000000002728
 31
0.0
  0
LINE
  5
89
100
AcDbEntity
  8
hach
 62
256
370
13
 48
1.0
  6
BYLAYER
100
AcDbLine
 10
-2.5499999999986107
 20
166.600000000000307
 30
0.0
 11
2.5500000000015342
 21
161.5000000000003126
 31
0.0
  0
LINE
  5
8A
100
AcDbEntity
  8
hach
 62
256
370
13
 48
1.0
  6
BYLAYER
100
AcDbLine
 10
-0.4249999999989895
 20
169.5750000000008413
 30
0.0
 11
2.5500000000016305
 21
166.600000000000307
 31
0.0
  0
LINE
  5
8B
100
AcDbEntity
  8
hach
 62
256
370
13
 48
1.0
  6
BYLAYER
100
AcDbLine
 10
-1.6999999999990505
 20
168.3000000000008072
 30
0.0
 11
2.5500000000015821
 21
164.0500000000002956
 31
0.0
  0
LINE
  5
8C
100
AcDbEntity
  8
hach
 62
256
370
13
 48
1.0
  6
BYLAYER
100
AcDbLine
 10
79.8999999999998636
 20
-2.5499999999999976
 30
0.0
 11
84.9999999999998579
 21
2.5500000000001468
 31
0.0
  0
LINE
  5
8D
100
AcDbEntity
  8
hach
 62
256
370
13
 48
1.0
  6
BYLAYER
100
AcDbLine
 10
77.3499999999998522
 20
-2.5499999999999496
 30
0.0
 11
82.4499999999998465
 21
2.5500000000001952
 31
0.0
  0
LINE
  5
8E
100
AcDbEntity
  8
hach
 62
256
370
13
 48
1.0
  6
BYLAYER
100
AcDbLine
 10
74.7999999999998408
 20
-2.5499999999999012
 30
0.0
 11
79.8999999999998352
 21
2.5500000000002436
 31
0.0
  0
LINE
  5
8F
100
AcDbEntity
  8
hach
 62
256
370
13
 48
1.0
  6
BYLAYER
100
AcDbLine
 10
72.2499999999998153
 20
-2.5499999999998528
 30
0.0
 11
77.3499999999998238
 21
2.550000000000292
 31
0.0
  0
LINE
  5
90
100
AcDbEntity
  8
hach
 62
256
370
13
 48
1.0
  6
BYLAYER
100
AcDbLine
 10
69.6999999999998039
 20
-2.5499999999998044
 30
0.0
 11
74.7999999999998124
 21
2.5500000000003404
 31
0.0
  0
LINE
  5
91
100
AcDbEntity
  8
hach
 62
256
370
13
 48
1.0
  6
BYLAYER
100
AcDbLine
 10
67.1499999999997925
 20
-2.549999999999756
 30
0.0
 11
72.249999999999801
 21
2.5500000000003884
 31
0.0
  0
LINE
  5
92
100
AcDbEntity
  8
hach
 62
256
370
13
 48
1.0
  6
BYLAYER
100
AcDbLine
 10
64.5999999999997812
 20
-2.5499999999997081
 30
0.0
 11
69.6999999999997897
 21
2.5500000000004368
 31
0.0
  0
LINE
  5
93
100
AcDbEntity
  8
hach
 62
256
370
13
 48
1.0
  6
BYLAYER
100
AcDbLine
 10
62.049999999999784
 20
-2.5499999999996477
 30
0.0
 11
67.1499999999997783
 21
2.5500000000004852
 31
0.0
  0
LINE
  5
94
100
AcDbEntity
  8
hach
 62
256
370
13
 48
1.0
  6
BYLAYER
100
AcDbLine
 10
59.4999999999997797
 20
-2.5499999999995993
 30
0.0
 11
64.5999999999997669
 21
2.5500000000005336
 31
0.0
  0
LINE
  5
95
100
AcDbEntity
  8
hach
 62
256
370
13
 48
1.0
  6
BYLAYER
100
AcDbLine
 10
56.949999999999747
 20
-2.5499999999995628
 30
0.0
 11
62.0499999999997556
 21
2.550000000000582
 31
0.0
  0
LINE
  5
96
100
AcDbEntity
  8
hach
 62
256
370
13
 48
1.0
  6
BYLAYER
100
AcDbLine
 10
54.3999999999997357
 20
-2.5499999999995269
 30
0.0
 11
59.49999999999973
 21
2.55000000000063
 31
0.0
  0
LINE
  5
97
100
AcDbEntity
  8
hach
 62
256
370
13
 48
1.0
  6
BYLAYER
100
AcDbLine
 10
51.8499999999997385
 20
-2.5499999999994665
 30
0.0
 11
56.9499999999997328
 21
2.5500000000006784
 31
0.0
  0
LINE
  5
98
100
AcDbEntity
  8
hach
 62
256
370
13
 48
1.0
  6
BYLAYER
100
AcDbLine
 10
49.2999999999997414
 20
-2.5499999999994181
 30
0.0
 11
54.3999999999997357
 21
2.5500000000007268
 31
0.0
  0
LINE
  5
99
100
AcDbEntity
  8
hach
 62
256
370
13
 48
1.0
  6
BYLAYER
100
AcDbLine
 10
46.7499999999997016
 20
-2.5499999999993817
 30
0.0
 11
51.8499999999997101
 21
2.5500000000007632
 31
0.0
  0
LINE
  5
9A
100
AcDbEntity
  8
hach
 62
256
370
13
 48
1.0
  6
BYLAYER
100
AcDbLine
 10
44.1999999999996831
 20
-2.5499999999993213
 30
0.0
 11
49.2999999999996845
 21
2.5500000000008112
 31
0.0
  0
LINE
  5
9B
100
AcDbEntity
  8
hach
 62
256
370
13
 48
1.0
  6
BYLAYER
100
AcDbLine
 10
41.649999999999693
 20
-2.5499999999992609
 30
0.0
 11
46.7499999999996874
 21
2.5500000000008596
 31
0.0
  0
LINE
  5
9C
100
AcDbEntity
  8
hach
 62
256
370
13
 48
1.0
  6
BYLAYER
100
AcDbLine
 10
39.0999999999996817
 20
-2.5499999999992249
 30
0.0
 11
44.1999999999996831
 21
2.550000000000908
 31
0.0
  0
LINE
  5
9D
100
AcDbEntity
  8
hach
 62
256
370
13
 48
1.0
  6
BYLAYER
100
AcDbLine
 10
36.5499999999996561
 20
-2.5499999999991765
 30
0.0
 11
41.6499999999996575
 21
2.5500000000009564
 31
0.0
  0
LINE
  5
9E
100
AcDbEntity
  8
hach
 62
256
370
13
 48
1.0
  6
BYLAYER
100
AcDbLine
 10
33.9999999999996376
 20
-2.5499999999991281
 30
0.0
 11
39.099999999999639
 21
2.5500000000010048
 31
0.0
  0
LINE
  5
9F
100
AcDbEntity
  8
hach
 62
256
370
13
 48
1.0
  6
BYLAYER
100
AcDbLine
 10
31.4499999999996476
 20
-2.5499999999990797
 30
0.0
 11
36.5499999999996348
 21
2.5500000000010528
 31
0.0
  0
LINE
  5
A0
100
AcDbEntity
  8
hach
 62
256
370
13
 48
1.0
  6
BYLAYER
100
AcDbLine
 10
28.8999999999996362
 20
-2.5499999999990437
 30
0.0
 11
33.9999999999996376
 21
2.5500000000011012
 31
0.0
  0
LINE
  5
A1
100
AcDbEntity
  8
hach
 62
256
370
13
 48
1.0
  6
BYLAYER
100
AcDbLine
 10
26.3499999999996142
 20
-2.5499999999989833
 30
0.0
 11
31.449999999999612
 21
2.5500000000011496
 31
0.0
  0
LINE
  5
A2
100
AcDbEntity
  8
hach
 62
256
370
13
 48
1.0
  6
BYLAYER
100
AcDbLine
 10
23.7999999999995993
 20
-2.5499999999989469
 30
0.0
 11
28.89999999999959
 21
2.550000000001198
 31
0.0
  0
LINE
  5
A3
100
AcDbEntity
  8
hach
 62
256
370
13
 48
1.0
  6
BYLAYER
100
AcDbLine
 10
21.2499999999995879
 20
-2.5499999999988985
 30
0.0
 11
26.3499999999995893
 21
2.5500000000012464
 31
0.0
  0
LINE
  5
A4
100
AcDbEntity
  8
hach
 62
256
370
13
 48
1.0
  6
BYLAYER
100
AcDbLine
 10
18.6999999999996014
 20
-2.5499999999988501
 30
0.0
 11
23.7999999999995886
 21
2.5500000000012943
 31
0.0
  0
LINE
  5
A5
100
AcDbEntity
  8
hach
 62
256
370
13
 48
1.0
  6
BYLAYER
100
AcDbLine
 10
16.1499999999995651
 20
-2.5499999999987657
 30
0.0
 11
21.249999999999563
 21
2.5500000000013427
 31
0.0
  0
LINE
  5
A6
100
AcDbEntity
  8
hach
 62
256
370
13
 48
1.0
  6
BYLAYER
100
AcDbLine
 10
13.5999999999995413
 20
-2.5499999999987417
 30
0.0
 11
18.699999999999541
 21
2.5500000000013912
 31
0.0
  0
LINE
  5
A7
100
AcDbEntity
  8
hach
 62
256
370
13
 48
1.0
  6
BYLAYER
100
AcDbLine
 10
11.0499999999995282
 20
-2.5499999999986813
 30
0.0
 11
16.1499999999995403
 21
2.5500000000014396
 31
0.0
  0
LINE
  5
A8
100
AcDbEntity
  8
hach
 62
256
370
13
 48
1.0
  6
BYLAYER
100
AcDbLine
 10
8.4999999999995524
 20
-2.5499999999986449
 30
0.0
 11
13.5999999999995413
 21
2.550000000001488
 31
0.0
  0
LINE
  5
A9
100
AcDbEntity
  8
hach
 62
256
370
13
 48
1.0
  6
BYLAYER
100
AcDbLine
 10
5.949999999999517
 20
-2.5499999999986209
 30
0.0
 11
11.0499999999995158
 21
2.5500000000015359
 31
0.0
  0
LINE
  5
AA
100
AcDbEntity
  8
hach
 62
256
370
13
 48
1.0
  6
BYLAYER
100
AcDbLine
 10
3.3999999999994803
 20
-2.5499999999985481
 30
0.0
 11
8.499999999999492
 21
2.5500000000015843
 31
0.0
  0
LINE
  5
AB
100
AcDbEntity
  8
hach
 62
256
370
13
 48
1.0
  6
BYLAYER
100
AcDbLine
 10
82.4499999999998749
 20
-2.550000000000046
 30
0.0
 11
87.5499999999998693
 21
2.5500000000000989
 31
0.0
  0
LINE
  5
AC
100
AcDbEntity
  8
hach
 62
256
370
13
 48
1.0
  6
BYLAYER
100
AcDbLine
 10
0.4249999999989491
 20
-0.424999999998935
 30
0.0
 11
3.3999999999994928
 21
2.5500000000016811
 31
0.0
  0
LINE
  5
AD
100
AcDbEntity
  8
hach
 62
256
370
13
 48
1.0
  6
BYLAYER
100
AcDbLine
 10
1.6999999999989852
 20
-1.6999999999989952
 30
0.0
 11
5.9499999999994921
 21
2.5500000000016327
 31
0.0
  0
LINE
  5
AE
100
AcDbEntity
  8
hach
 62
256
370
13
 48
1.0
  6
BYLAYER
100
AcDbLine
 10
172.549999999999585
 20
44.1999999999996902
 30
0.0
 11
167.4500000000001592
 21
49.2999999999996845
 31
0.0
  0
LINE
  5
AF
100
AcDbEntity
  8
hach
 62
256
370
13
 48
1.0
  6
BYLAYER
100
AcDbLine
 10
172.5499999999994998
 20
41.649999999999693
 30
0.0
 11
167.4500000000001592
 21
46.7499999999996874
 31
0.0
  0
LINE
  5
B0
100
AcDbEntity
  8
hach
 62
256
370
13
 48
1.0
  6
BYLAYER
100
AcDbLine
 10
172.5499999999994998
 20
39.0999999999996746
 30
0.0
 11
167.4500000000001592
 21
44.1999999999996902
 31
0.0
  0
LINE
  5
B1
100
AcDbEntity
  8
hach
 62
256
370
13
 48
1.0
  6
BYLAYER
100
AcDbLine
 10
172.5499999999993861
 20
36.549999999999649
 30
0.0
 11
167.4500000000001592
 21
41.6499999999996646
 31
0.0
  0
LINE
  5
B2
100
AcDbEntity
  8
hach
 62
256
370
13
 48
1.0
  6
BYLAYER
100
AcDbLine
 10
172.5499999999993861
 20
33.9999999999996376
 30
0.0
 11
167.4500000000001592
 21
39.099999999999639
 31
0.0
  0
LINE
  5
B3
100
AcDbEntity
  8
hach
 62
256
370
13
 48
1.0
  6
BYLAYER
100
AcDbLine
 10
172.5499999999992724
 20
31.4499999999996511
 30
0.0
 11
167.4500000000001592
 21
36.5499999999996419
 31
0.0
  0
LINE
  5
B4
100
AcDbEntity
  8
hach
 62
256
370
13
 48
1.0
  6
BYLAYER
100
AcDbLine
 10
172.549999999999244
 20
28.8999999999996398
 30
0.0
 11
167.4500000000001592
 21
33.9999999999996376
 31
0.0
  0
LINE
  5
B5
100
AcDbEntity
  8
hach
 62
256
370
13
 48
1.0
  6
BYLAYER
100
AcDbLine
 10
172.549999999999244
 20
26.3499999999996142
 30
0.0
 11
167.4500000000001592
 21
31.4499999999996156
 31
0.0
  0
LINE
  5
B6
100
AcDbEntity
  8
hach
 62
256
370
13
 48
1.0
  6
BYLAYER
100
AcDbLine
 10
172.5499999999991587
 20
23.7999999999996028
 30
0.0
 11
167.4500000000001592
 21
28.89999999999959
 31
0.0
  0
LINE
  5
B7
100
AcDbEntity
  8
hach
 62
256
370
13
 48
1.0
  6
BYLAYER
100
AcDbLine
 10
172.5499999999991871
 20
21.2499999999995914
 30
0.0
 11
167.4500000000001592
 21
26.3499999999995893
 31
0.0
  0
LINE
  5
B8
100
AcDbEntity
  8
hach
 62
256
370
13
 48
1.0
  6
BYLAYER
100
AcDbLine
 10
172.5499999999991871
 20
18.6999999999996014
 30
0.0
 11
167.4500000000001592
 21
23.7999999999995921
 31
0.0
  0
LINE
  5
B9
100
AcDbEntity
  8
hach
 62
256
370
13
 48
1.0
  6
BYLAYER
100
AcDbLine
 10
172.5499999999989598
 20
16.1499999999995651
 30
0.0
 11
167.4500000000001592
 21
21.2499999999995666
 31
0.0
  0
LINE
  5
BA
100
AcDbEntity
  8
hach
 62
256
370
13
 48
1.0
  6
BYLAYER
100
AcDbLine
 10
172.5499999999989882
 20
13.5999999999995307
 30
0.0
 11
167.4500000000001592
 21
18.699999999999541
 31
0.0
  0
LINE
  5
BB
100
AcDbEntity
  8
hach
 62
256
370
13
 48
1.0
  6
BYLAYER
100
AcDbLine
 10
172.549999999999045
 20
11.04999999999953
 30
0.0
 11
167.4500000000001592
 21
16.1499999999995438
 31
0.0
  0
LINE
  5
BC
100
AcDbEntity
  8
hach
 62
256
370
13
 48
1.0
  6
BYLAYER
100
AcDbLine
 10
172.5499999999987892
 20
8.4999999999995541
 30
0.0
 11
167.4500000000001592
 21
13.5999999999995431
 31
0.0
  0
LINE
  5
BD
100
AcDbEntity
  8
hach
 62
256
370
13
 48
1.0
  6
BYLAYER
100
AcDbLine
 10
172.5499999999989029
 20
5.9499999999995188
 30
0.0
 11
167.4500000000001592
 21
11.0499999999995193
 31
0.0
  0
LINE
  5
BE
100
AcDbEntity
  8
hach
 62
256
370
13
 48
1.0
  6
BYLAYER
100
AcDbLine
 10
172.5499999999987892
 20
3.3999999999994825
 30
0.0
 11
167.4500000000001592
 21
8.4999999999994937
 31
0.0
  0
LINE
  5
BF
100
AcDbEntity
  8
0
 62
256
370
13
 48
1.0
  6
BYLAYER
100
AcDbLine
 10
172.550000000000324
 20
82.4499999999998749
 30
0.0
 11
167.4500000000001592
 21
87.5499999999998693
 31
0.0
  0
LINE
  5
C0
100
AcDbEntity
  8
hach
 62
256
370
13
 48
1.0
  6
BYLAYER
100
AcDbLine
 10
170.4249999999992724
 20
0.4249999999989513
 30
0.0
 11
167.4500000000001592
 21
3.3999999999994945
 31
0.0
  0
LINE
  5
C1
100
AcDbEntity
  8
hach
 62
256
370
13
 48
1.0
  6
BYLAYER
100
AcDbLine
 10
171.6999999999992781
 20
1.6999999999989874
 30
0.0
 11
167.4500000000001592
 21
5.9499999999994948
 31
0.0
  0
LINE
  5
C2
100
AcDbEntity
  8
hach
 62
256
370
13
 48
1.0
  6
BYLAYER
100
AcDbLine
 10
172.5500000000002672
 20
79.8999999999998636
 30
0.0
 11
167.4500000000001592
 21
84.9999999999998579
 31
0.0
  0
LINE
  5
C3
100
AcDbEntity
  8
hach
 62
256
370
13
 48
1.0
  6
BYLAYER
100
AcDbLine
 10
172.5500000000002103
 20
77.3499999999998522
 30
0.0
 11
167.4500000000001592
 21
82.4499999999998465
 31
0.0
  0
LINE
  5
C4
100
AcDbEntity
  8
hach
 62
256
370
13
 48
1.0
  6
BYLAYER
100
AcDbLine
 10
172.5500000000001535
 20
74.7999999999998408
 30
0.0
 11
167.4500000000001592
 21
79.8999999999998352
 31
0.0
  0
LINE
  5
C5
100
AcDbEntity
  8
hach
 62
256
370
13
 48
1.0
  6
BYLAYER
100
AcDbLine
 10
172.5500000000001251
 20
72.2499999999998295
 30
0.0
 11
167.4500000000001592
 21
77.3499999999998238
 31
0.0
  0
LINE
  5
C6
100
AcDbEntity
  8
hach
 62
256
370
13
 48
1.0
  6
BYLAYER
100
AcDbLine
 10
172.5500000000000398
 20
69.6999999999998039
 30
0.0
 11
167.4500000000001592
 21
74.7999999999998124
 31
0.0
  0
LINE
  5
C7
100
AcDbEntity
  8
hach
 62
256
370
13
 48
1.0
  6
BYLAYER
100
AcDbLine
 10
172.5500000000000114
 20
67.1499999999998067
 30
0.0
 11
167.4500000000001592
 21
72.249999999999801
 31
0.0
  0
LINE
  5
C8
100
AcDbEntity
  8
hach
 62
256
370
13
 48
1.0
  6
BYLAYER
100
AcDbLine
 10
172.5499999999999545
 20
64.5999999999997812
 30
0.0
 11
167.4500000000001592
 21
69.6999999999997897
 31
0.0
  0
LINE
  5
C9
100
AcDbEntity
  8
hach
 62
256
370
13
 48
1.0
  6
BYLAYER
100
AcDbLine
 10
172.5499999999998977
 20
62.049999999999784
 30
0.0
 11
167.4500000000001592
 21
67.1499999999997783
 31
0.0
  0
LINE
  5
CA
100
AcDbEntity
  8
hach
 62
256
370
13
 48
1.0
  6
BYLAYER
100
AcDbLine
 10
172.5499999999998693
 20
59.4999999999997797
 30
0.0
 11
167.4500000000001592
 21
64.5999999999997669
 31
0.0
  0
LINE
  5
CB
100
AcDbEntity
  8
hach
 62
256
370
13
 48
1.0
  6
BYLAYER
100
AcDbLine
 10
172.5499999999998408
 20
56.9499999999997328
 30
0.0
 11
167.4500000000001592
 21
62.0499999999997556
 31
0.0
  0
LINE
  5
CC
100
AcDbEntity
  8
hach
 62
256
370
13
 48
1.0
  6
BYLAYER
100
AcDbLine
 10
172.5499999999998124
 20
54.3999999999997357
 30
0.0
 11
167.4500000000001592
 21
59.4999999999997371
 31
0.0
  0
LINE
  5
CD
100
AcDbEntity
  8
hach
 62
256
370
13
 48
1.0
  6
BYLAYER
100
AcDbLine
 10
172.5499999999996987
 20
51.8499999999997385
 30
0.0
 11
167.4500000000001592
 21
56.9499999999997328
 31
0.0
  0
LINE
  5
CE
100
AcDbEntity
  8
hach
 62
256
370
13
 48
1.0
  6
BYLAYER
100
AcDbLine
 10
172.5499999999996987
 20
49.2999999999997414
 30
0.0
 11
167.4500000000001592
 21
54.3999999999997357
 31
0.0
  0
LINE
  5
CF
100
AcDbEntity
  8
hach
 62
256
370
13
 48
1.0
  6
BYLAYER
100
AcDbLine
 10
172.5499999999996703
 20
46.7499999999997016
 30
0.0
 11
167.4500000000001592
 21
51.8499999999997101
 31
0.0
  0
LINE
  5
D0
100
AcDbEntity
  8
hach
 62
256
370
13
 48
1.0
  6
BYLAYER
100
AcDbLine
 10
87.5499999999998408
 20
172.5500000000003524
 30
0.0
 11
82.4499999999998323
 21
167.4500000000001307
 31
0.0
  0
LINE
  5
D1
100
AcDbEntity
  8
hach
 62
256
370
13
 48
1.0
  6
BYLAYER
100
AcDbLine
 10
125.8000000000000682
 20
172.5499999999995566
 30
0.0
 11
120.7000000000000597
 21
167.4500000000001023
 31
0.0
  0
LINE
  5
D2
100
AcDbEntity
  8
hach
 62
256
370
13
 48
1.0
  6
BYLAYER
100
AcDbLine
 10
128.3500000000000796
 20
172.5499999999994714
 30
0.0
 11
123.2500000000000568
 21
167.4500000000001307
 31
0.0
  0
LINE
  5
D3
100
AcDbEntity
  8
hach
 62
256
370
13
 48
1.0
  6
BYLAYER
100
AcDbLine
 10
130.9000000000000625
 20
172.5499999999994714
 30
0.0
 11
125.8000000000000682
 21
167.4500000000001023
 31
0.0
  0
LINE
  5
D4
100
AcDbEntity
  8
hach
 62
256
370
13
 48
1.0
  6
BYLAYER
100
AcDbLine
 10
133.4500000000001307
 20
172.5499999999993861
 30
0.0
 11
128.350000000000108
 21
167.4500000000001023
 31
0.0
  0
LINE
  5
D5
100
AcDbEntity
  8
hach
 62
256
370
13
 48
1.0
  6
BYLAYER
100
AcDbLine
 10
136.0000000000001137
 20
172.5499999999993292
 30
0.0
 11
130.9000000000001194
 21
167.4500000000001023
 31
0.0
  0
LINE
  5
D6
100
AcDbEntity
  8
hach
 62
256
370
13
 48
1.0
  6
BYLAYER
100
AcDbLine
 10
138.5500000000001251
 20
172.549999999999244
 30
0.0
 11
133.4500000000001307
 21
167.4500000000001023
 31
0.0
  0
LINE
  5
D7
100
AcDbEntity
  8
hach
 62
256
370
13
 48
1.0
  6
BYLAYER
100
AcDbLine
 10
141.1000000000001364
 20
172.5499999999992156
 30
0.0
 11
136.0000000000001137
 21
167.4500000000001023
 31
0.0
  0
LINE
  5
D8
100
AcDbEntity
  8
hach
 62
256
370
13
 48
1.0
  6
BYLAYER
100
AcDbLine
 10
143.6500000000001478
 20
172.5499999999992156
 30
0.0
 11
138.5500000000001535
 21
167.4500000000001023
 31
0.0
  0
LINE
  5
D9
100
AcDbEntity
  8
hach
 62
256
370
13
 48
1.0
  6
BYLAYER
100
AcDbLine
 10
146.2000000000001592
 20
172.5499999999991303
 30
0.0
 11
141.1000000000001648
 21
167.4500000000001023
 31
0.0
  0
LINE
  5
DA
100
AcDbEntity
  8
hach
 62
256
370
13
 48
1.0
  6
BYLAYER
100
AcDbLine
 10
148.7500000000001705
 20
172.5499999999991587
 30
0.0
 11
143.6500000000001762
 21
167.4500000000001023
 31
0.0
  0
LINE
  5
DB
100
AcDbEntity
  8
hach
 62
256
370
13
 48
1.0
  6
BYLAYER
100
AcDbLine
 10
151.3000000000001819
 20
172.5499999999991587
 30
0.0
 11
146.2000000000001592
 21
167.4500000000001023
 31
0.0
  0
LINE
  5
DC
100
AcDbEntity
  8
hach
 62
256
370
13
 48
1.0
  6
BYLAYER
100
AcDbLine
 10
153.8500000000001933
 20
172.5499999999989313
 30
0.0
 11
148.750000000000199
 21
167.4500000000001023
 31
0.0
  0
LINE
  5
DD
100
AcDbEntity
  8
hach
 62
256
370
13
 48
1.0
  6
BYLAYER
100
AcDbLine
 10
156.4000000000002331
 20
172.5499999999989598
 30
0.0
 11
151.3000000000002103
 21
167.4500000000001023
 31
0.0
  0
LINE
  5
DE
100
AcDbEntity
  8
hach
 62
256
370
13
 48
1.0
  6
BYLAYER
100
AcDbLine
 10
158.9500000000002444
 20
172.5499999999989882
 30
0.0
 11
153.8500000000002217
 21
167.4500000000001023
 31
0.0
  0
LINE
  5
DF
100
AcDbEntity
  8
hach
 62
256
370
13
 48
1.0
  6
BYLAYER
100
AcDbLine
 10
161.5000000000002274
 20
172.5499999999987608
 30
0.0
 11
156.4000000000002331
 21
167.4500000000001023
 31
0.0
  0
LINE
  5
E0
100
AcDbEntity
  8
hach
 62
256
370
13
 48
1.0
  6
BYLAYER
100
AcDbLine
 10
164.0500000000002387
 20
172.5499999999988461
 30
0.0
 11
158.9500000000002444
 21
167.4500000000001023
 31
0.0
  0
LINE
  5
E1
100
AcDbEntity
  8
hach
 62
256
370
13
 48
1.0
  6
BYLAYER
100
AcDbLine
 10
166.6000000000002785
 20
172.5499999999987608
 30
0.0
 11
161.5000000000002558
 21
167.4500000000001023
 31
0.0
  0
LINE
  5
E2
100
AcDbEntity
  8
hach
 62
256
370
13
 48
1.0
  6
BYLAYER
100
AcDbLine
 10
87.549999999999855
 20
172.5500000000002672
 30
0.0
 11
82.4499999999998607
 21
167.4500000000001307
 31
0.0
  0
LINE
  5
E3
100
AcDbEntity
  8
hach
 62
256
370
13
 48
1.0
  6
BYLAYER
100
AcDbLine
 10
169.5750000000008129
 20
170.424999999999244
 30
0.0
 11
166.6000000000002785
 21
167.4500000000001023
 31
0.0
  0
LINE
  5
E4
100
AcDbEntity
  8
hach
 62
256
370
13
 48
1.0
  6
BYLAYER
100
AcDbLine
 10
168.3000000000007788
 20
171.6999999999992497
 30
0.0
 11
164.0500000000002672
 21
167.4500000000001023
 31
0.0
  0
LINE
  5
E5
100
AcDbEntity
  8
hach
 62
256
370
13
 48
1.0
  6
BYLAYER
100
AcDbLine
 10
90.0999999999998664
 20
172.5500000000002672
 30
0.0
 11
84.9999999999998721
 21
167.4500000000001307
 31
0.0
  0
LINE
  5
E6
100
AcDbEntity
  8
hach
 62
256
370
13
 48
1.0
  6
BYLAYER
100
AcDbLine
 10
92.6499999999998778
 20
172.5500000000001819
 30
0.0
 11
87.5499999999998835
 21
167.4500000000001592
 31
0.0
  0
LINE
  5
E7
100
AcDbEntity
  8
hach
 62
256
370
13
 48
1.0
  6
BYLAYER
100
AcDbLine
 10
95.1999999999998892
 20
172.5500000000001251
 30
0.0
 11
90.0999999999998948
 21
167.4500000000001592
 31
0.0
  0
LINE
  5
E8
100
AcDbEntity
  8
hach
 62
256
370
13
 48
1.0
  6
BYLAYER
100
AcDbLine
 10
97.7499999999999147
 20
172.5500000000000966
 30
0.0
 11
92.649999999999892
 21
167.4500000000001307
 31
0.0
  0
LINE
  5
E9
100
AcDbEntity
  8
hach
 62
256
370
13
 48
1.0
  6
BYLAYER
100
AcDbLine
 10
100.2999999999999261
 20
172.5500000000000114
 30
0.0
 11
95.1999999999999176
 21
167.4500000000001307
 31
0.0
  0
LINE
  5
EA
100
AcDbEntity
  8
hach
 62
256
370
13
 48
1.0
  6
BYLAYER
100
AcDbLine
 10
102.8499999999999233
 20
172.5499999999999545
 30
0.0
 11
97.7499999999999289
 21
167.4500000000001592
 31
0.0
  0
LINE
  5
EB
100
AcDbEntity
  8
hach
 62
256
370
13
 48
1.0
  6
BYLAYER
100
AcDbLine
 10
105.3999999999999488
 20
172.5499999999999261
 30
0.0
 11
100.2999999999999403
 21
167.4500000000001307
 31
0.0
  0
LINE
  5
EC
100
AcDbEntity
  8
hach
 62
256
370
13
 48
1.0
  6
BYLAYER
100
AcDbLine
 10
107.9499999999999602
 20
172.5499999999998693
 30
0.0
 11
102.8499999999999517
 21
167.4500000000001592
 31
0.0
  0
LINE
  5
ED
100
AcDbEntity
  8
hach
 62
256
370
13
 48
1.0
  6
BYLAYER
100
AcDbLine
 10
110.4999999999999716
 20
172.5499999999998124
 30
0.0
 11
105.3999999999999631
 21
167.4500000000001307
 31
0.0
  0
LINE
  5
EE
100
AcDbEntity
  8
hach
 62
256
370
13
 48
1.0
  6
BYLAYER
100
AcDbLine
 10
113.0500000000000114
 20
172.5499999999998124
 30
0.0
 11
107.9499999999999744
 21
167.4500000000001307
 31
0.0
  0
LINE
  5
EF
100
AcDbEntity
  8
hach
 62
256
370
13
 48
1.0
  6
BYLAYER
100
AcDbLine
 10
115.6000000000000085
 20
172.5499999999998124
 30
0.0
 11
110.5000000000000142
 21
167.4500000000001592
 31
0.0
  0
LINE
  5
F0
100
AcDbEntity
  8
hach
 62
256
370
13
 48
1.0
  6
BYLAYER
100
AcDbLine
 10
118.1500000000000199
 20
172.5499999999996703
 30
0.0
 11
113.0500000000000114
 21
167.4500000000001592
 31
0.0
  0
LINE
  5
F1
100
AcDbEntity
  8
hach
 62
256
370
13
 48
1.0
  6
BYLAYER
100
AcDbLine
 10
120.7000000000000171
 20
172.5499999999996703
 30
0.0
 11
115.6000000000000085
 21
167.4500000000001023
 31
0.0
  0
LINE
  5
F2
100
AcDbEntity
  8
hach
 62
256
370
13
 48
1.0
  6
BYLAYER
100
AcDbLine
 10
123.2500000000000568
 20
172.5499999999996419
 30
0.0
 11
118.1500000000000341
 21
167.4500000000001307
 31
0.0
  0
LINE
  5
F3
100
AcDbEntity
  8
icones2
 62
256
370
9
 48
1.0
  6
BYLAYER
100
AcDbLine
 10
337.3000000000002956
 20
75.4000000000000057
 30
0.0
 11
362.700000000000216
 21
75.4000000000000057
 31
0.0
  0
LINE
  5
F4
100
AcDbEntity
  8
icones3
 62
256
370
9
 48
1.0
  6
BYLAYER
100
AcDbLine
 10
180.4799999999999898
 20
124.5999999999999943
 30
0.0
 11
119.519999999999925
 21
124.5999999999999943
 31
0.0
  0
ARC
  5
F5
100
AcDbEntity
  8
icones4
 62
256
370
9
 48
1.0
  6
BYLAYER
100
AcDbCircle
 10
162.7905686341020441
 20
247.7882254975120588
 30
0.0
 40
15.3331795674755398
100
AcDbArc
 50
213.4698770317653782
 51
241.9827449560472417
  0
ARC
  5
F6
100
AcDbEntity
  8
icones2
 62
256
370
9
 48
1.0
  6
BYLAYER
100
AcDbCircle
 10
362.700000000000216
 20
70.3200000000000216
 30
0.0
 40
5.0800000000000001
100
AcDbArc
 50
0.0
 51
90.0000000000000142
  0
LINE
  5
F7
100
AcDbEntity
  8
icones3
 62
256
370
9
 48
1.0
  6
BYLAYER
100
AcDbLine
 10
119.519999999999925
 20
124.5999999999999943
 30
0.0
 11
119.519999999999925
 21
175.4000000000000057
 31
0.0
  0
LINE
  5
F8
100
AcDbEntity
  8
icones4
 62
256
370
9
 48
1.0
  6
BYLAYER
100
AcDbLine
 10
155.5880000000001075
 20
234.2519999999999811
 30
0.0
 11
149.9999999999998863
 21
228.6640000000000157
 31
0.0
  0
LINE
  5
F9
100
AcDbEntity
  8
icones2
 62
256
370
9
 48
1.0
  6
BYLAYER
100
AcDbLine
 10
367.7800000000002001
 20
70.3200000000000216
 30
0.0
 11
367.7800000000002001
 21
29.680000000000021
 31
0.0
  0
LINE
  5
FA
100
AcDbEntity
  8
icones3
 62
256
370
9
 48
1.0
  6
BYLAYER
100
AcDbLine
 10
119.519999999999925
 20
175.4000000000000057
 30
0.0
 11
180.4799999999999898
 21
175.4000000000000057
 31
0.0
  0
LINE
  5
FB
100
AcDbEntity
  8
icones4
 62
256
370
9
 48
1.0
  6
BYLAYER
100
AcDbLine
 10
149.9999999999998863
 20
228.6640000000000157
 30
0.0
 11
144.4119999999999209
 21
234.2519999999999811
 31
0.0
  0
ARC
  5
FC
100
AcDbEntity
  8
icones2
 62
256
370
9
 48
1.0
  6
BYLAYER
100
AcDbCircle
 10
362.700000000000216
 20
29.680000000000021
 30
0.0
 40
5.0800000000000001
100
AcDbArc
 50
270.0
 51
0.0
  0
LINE
  5
FD
100
AcDbEntity
  8
icones3
 62
256
370
9
 48
1.0
  6
BYLAYER
100
AcDbLine
 10
180.4799999999999898
 20
175.4000000000000057
 30
0.0
 11
180.4799999999999898
 21
124.5999999999999943
 31
0.0
  0
ARC
  5
FE
100
AcDbEntity
  8
icones4
 62
256
370
9
 48
1.0
  6
BYLAYER
100
AcDbCircle
 10
137.3475258255242579
 20
247.636321591923064
 30
0.0
 40
15.134294163846997
100
AcDbArc
 50
297.8258597334825026
 51
326.7215182787049912
  0
LINE
  5
FF
100
AcDbEntity
  8
icones2
 62
256
370
9
 48
1.0
  6
BYLAYER
100
AcDbLine
 10
362.700000000000216
 20
24.6000000000000583
 30
0.0
 11
337.3000000000002956
 21
24.6000000000000583
 31
0.0
  0
LINE
  5
100
100
AcDbEntity
  8
icones3
 62
256
370
9
 48
1.0
  6
BYLAYER
100
AcDbLine
 10
167.779999999999859
 20
139.8400000000000318
 30
0.0
 11
167.779999999999859
 21
137.2999999999999545
 31
0.0
  0
ARC
  5
101
100
AcDbEntity
  8
icones4
 62
256
370
9
 48
1.0
  6
BYLAYER
100
AcDbCircle
 10
162.7000000000000171
 20
246.4439999999998747
 30
0.0
 40
5.0800000000000001
100
AcDbArc
 50
90.0000000000000142
 51
180.0
  0
ARC
  5
102
100
AcDbEntity
  8
icones2
 62
256
370
9
 48
1.0
  6
BYLAYER
100
AcDbCircle
 10
337.3000000000002956
 20
29.680000000000021
 30
0.0
 40
5.0800000000000001
100
AcDbArc
 50
180.0
 51
270.0
  0
LINE
  5
103
100
AcDbEntity
  8
icones3
 62
256
370
9
 48
1.0
  6
BYLAYER
100
AcDbLine
 10
167.779999999999859
 20
137.2999999999999545
 30
0.0
 11
157.6199999999998056
 21
137.2999999999999545
 31
0.0
  0
ARC
  5
104
100
AcDbEntity
  8
icones4
 62
256
370
9
 48
1.0
  6
BYLAYER
100
AcDbCircle
 10
162.7000000000000171
 20
246.4439999999998747
 30
0.0
 40
5.0800000000000001
100
AcDbArc
 50
180.0
 51
270.0
  0
LINE
  5
105
100
AcDbEntity
  8
icones2
 62
256
370
9
 48
1.0
  6
BYLAYER
100
AcDbLine
 10
332.220000000000141
 20
29.680000000000021
 30
0.0
 11
332.220000000000141
 21
70.3200000000000216
 31
0.0
  0
LINE
  5
106
100
AcDbEntity
  8
icones3
 62
256
370
9
 48
1.0
  6
BYLAYER
100
AcDbLine
 10
157.6199999999998056
 20
137.2999999999999545
 30
0.0
 11
157.6199999999998056
 21
139.8400000000000318
 31
0.0
  0
ARC
  5
107
100
AcDbEntity
  8
icones4
 62
256
370
9
 48
1.0
  6
BYLAYER
100
AcDbCircle
 10
162.7000000000000171
 20
246.4439999999998747
 30
0.0
 40
5.0800000000000001
100
AcDbArc
 50
270.0
 51
0.0
  0
ARC
  5
108
100
AcDbEntity
  8
icones2
 62
256
370
9
 48
1.0
  6
BYLAYER
100
AcDbCircle
 10
337.3000000000002956
 20
70.3200000000000216
 30
0.0
 40
5.0800000000000001
100
AcDbArc
 50
90.0000000000000142
 51
180.0
  0
LINE
  5
109
100
AcDbEntity
  8
icones3
 62
256
370
9
 48
1.0
  6
BYLAYER
100
AcDbLine
 10
157.6199999999998056
 20
139.8400000000000318
 30
0.0
 11
167.779999999999859
 21
139.8400000000000318
 31
0.0
  0
ARC
  5
10A
100
AcDbEntity
  8
icones4
 62
256
370
9
 48
1.0
  6
BYLAYER
100
AcDbCircle
 10
162.7014103129713192
 20
246.4454103129713474
 30
0.0
 40
5.0785898828490259
100
AcDbArc
 50
359.984089090884595
 51
90.0159109091153766
  0
LINE
  5
10B
100
AcDbEntity
  8
icones2
 62
256
370
9
 48
1.0
  6
BYLAYER
100
AcDbLine
 10
337.3000000000002956
 20
70.3200000000000216
 30
0.0
 11
337.3000000000002956
 21
60.1600000000000534
 31
0.0
  0
LINE
  5
10C
100
AcDbEntity
  8
icones3
 62
256
370
9
 48
1.0
  6
BYLAYER
100
AcDbLine
 10
152.5349199999998575
 20
137.2999999999999545
 30
0.0
 11
124.6025399999999763
 21
137.2999999999999545
 31
0.0
  0
ARC
  5
10D
100
AcDbEntity
  8
icones4
 62
256
370
9
 48
1.0
  6
BYLAYER
100
AcDbCircle
 10
137.3000000000000114
 20
246.4439999999998747
 30
0.0
 40
5.0800000000000001
100
AcDbArc
 50
90.0000000000000142
 51
180.0
  0
LINE
  5
10E
100
AcDbEntity
  8
icones2
 62
256
370
9
 48
1.0
  6
BYLAYER
100
AcDbLine
 10
337.3000000000002956
 20
60.1600000000000534
 30
0.0
 11
362.700000000000216
 21
60.1600000000000534
 31
0.0
  0
LINE
  5
10F
100
AcDbEntity
  8
icones3
 62
256
370
9
 48
1.0
  6
BYLAYER
100
AcDbLine
 10
124.6025399999999763
 20
137.2999999999999545
 30
0.0
 11
124.5999999999998238
 21
139.621560000000045
 31
0.0
  0
ARC
  5
110
100
AcDbEntity
  8
icones4
 62
256
370
9
 48
1.0
  6
BYLAYER
100
AcDbCircle
 10
137.3000000000000114
 20
246.4439999999998747
 30
0.0
 40
5.0800000000000001
100
AcDbArc
 50
180.0
 51
270.0
  0
LINE
  5
111
100
AcDbEntity
  8
icones2
 62
256
370
9
 48
1.0
  6
BYLAYER
100
AcDbLine
 10
362.700000000000216
 20
60.1600000000000534
 30
0.0
 11
362.700000000000216
 21
70.3200000000000216
 31
0.0
  0
ARC
  5
112
100
AcDbEntity
  8
icones3
 62
256
370
9
 48
1.0
  6
BYLAYER
100
AcDbCircle
 10
129.6834485328228652
 20
140.8724894355862602
 30
0.0
 40
5.2351001364516403
100
AcDbArc
 50
98.0986344464901947
 51
193.8246022578609029
  0
ARC
  5
113
100
AcDbEntity
  8
icones4
 62
256
370
9
 48
1.0
  6
BYLAYER
100
AcDbCircle
 10
137.3000000000000114
 20
246.4439999999998747
 30
0.0
 40
5.0800000000000001
100
AcDbArc
 50
270.0
 51
0.0
  0
LINE
  5
114
100
AcDbEntity
  8
icones2
 62
256
370
9
 48
1.0
  6
BYLAYER
100
AcDbLine
 10
362.700000000000216
 20
70.3200000000000216
 30
0.0
 11
337.3000000000002956
 21
70.3200000000000216
 31
0.0
  0
ARC
  5
115
100
AcDbEntity
  8
icones3
 62
256
370
9
 48
1.0
  6
BYLAYER
100
AcDbCircle
 10
128.0285380662010937
 20
155.8160324806026438
 30
0.0
 40
9.8036709020260595
100
AcDbArc
 50
275.3694454883223557
 51
305.7160930057654014
  0
ARC
  5
116
100
AcDbEntity
  8
icones4
 62
256
370
9
 48
1.0
  6
BYLAYER
100
AcDbCircle
 10
137.3014103129713135
 20
246.4454103129713474
 30
0.0
 40
5.0785898828490303
100
AcDbArc
 50
359.984089090884595
 51
90.0159109091212741
  0
LINE
  5
117
100
AcDbEntity
  8
icones2
 62
256
370
9
 48
1.0
  6
BYLAYER
100
AcDbLine
 10
337.3000000000002956
 20
55.0800000000000267
 30
0.0
 11
337.3000000000002956
 21
50.0
 31
0.0
  0
ARC
  5
118
100
AcDbEntity
  8
icones3
 62
256
370
9
 48
1.0
  6
BYLAYER
100
AcDbCircle
 10
132.2839433287951465
 20
148.0497019071793261
 30
0.0
 40
1.4803723588097184
100
AcDbArc
 50
352.4908440206475575
 51
34.5857969628881605
  0
ARC
  5
119
100
AcDbEntity
  8
icones4
 62
256
370
9
 48
1.0
  6
BYLAYER
100
AcDbCircle
 10
162.7000000000000171
 20
247.7139999999999134
 30
0.0
 40
10.1600000000000001
100
AcDbArc
 50
0.0
 51
90.0000000000000142
  0
LINE
  5
11A
100
AcDbEntity
  8
icones2
 62
256
370
9
 48
1.0
  6
BYLAYER
100
AcDbLine
 10
337.3000000000002956
 20
50.0
 30
0.0
 11
342.3800000000002797
 21
50.0
 31
0.0
  0
ARC
  5
11B
100
AcDbEntity
  8
icones3
 62
256
370
9
 48
1.0
  6
BYLAYER
100
AcDbCircle
 10
144.3049404672127025
 20
156.625641909198464
 30
0.0
 40
13.2863932439755388
100
AcDbArc
 50
157.1353662005257661
 51
215.6069332327856216
  0
ARC
  5
11C
100
AcDbEntity
  8
icones4
 62
256
370
9
 48
1.0
  6
BYLAYER
100
AcDbCircle
 10
162.7000000000000171
 20
247.7139999999999134
 30
0.0
 40
10.1600000000000001
100
AcDbArc
 50
270.0
 51
0.0
  0
LINE
  5
11D
100
AcDbEntity
  8
icones2
 62
256
370
9
 48
1.0
  6
BYLAYER
100
AcDbLine
 10
342.3800000000002797
 20
50.0
 30
0.0
 11
342.3800000000002797
 21
55.0800000000000267
 31
0.0
  0
ARC
  5
11E
100
AcDbEntity
  8
icones3
 62
256
370
9
 48
1.0
  6
BYLAYER
100
AcDbCircle
 10
138.2776986385819384
 20
157.9311371140199185
 30
0.0
 40
7.3147055150528288
100
AcDbArc
 50
87.7098059778819703
 51
148.1771734603274808
  0
ARC
  5
11F
100
AcDbEntity
  8
icones4
 62
256
370
9
 48
1.0
  6
BYLAYER
100
AcDbCircle
 10
162.7000000000000171
 20
247.7139999999999134
 30
0.0
 40
10.1600000000000001
100
AcDbArc
 50
180.0
 51
270.0
  0
LINE
  5
120
100
AcDbEntity
  8
icones2
 62
256
370
9
 48
1.0
  6
BYLAYER
100
AcDbLine
 10
342.3800000000002797
 20
55.0800000000000267
 30
0.0
 11
337.3000000000002956
 21
55.0800000000000267
 31
0.0
  0
ARC
  5
121
100
AcDbEntity
  8
icones3
 62
256
370
9
 48
1.0
  6
BYLAYER
100
AcDbCircle
 10
138.8663453083441084
 20
157.9594678041346469
 30
0.0
 40
7.2865608895288201
100
AcDbArc
 50
32.1687526382822568
 51
92.3308691156901773
  0
ARC
  5
122
100
AcDbEntity
  8
icones4
 62
256
370
9
 48
1.0
  6
BYLAYER
100
AcDbCircle
 10
162.7000000000000171
 20
247.7139999999999134
 30
0.0
 40
10.1600000000000001
100
AcDbArc
 50
90.0000000000000142
 51
180.0
  0
LINE
  5
123
100
AcDbEntity
  8
icones2
 62
256
370
9
 48
1.0
  6
BYLAYER
100
AcDbLine
 10
347.4600000000000932
 20
55.0800000000000267
 30
0.0
 11
347.4600000000000932
 21
50.0
 31
0.0
  0
ARC
  5
124
100
AcDbEntity
  8
icones3
 62
256
370
9
 48
1.0
  6
BYLAYER
100
AcDbCircle
 10
132.6455864270712652
 20
156.6259208062738821
 30
0.0
 40
13.4408256110339366
100
AcDbArc
 50
324.9013781782568913
 51
22.820762892924062
  0
ARC
  5
125
100
AcDbEntity
  8
icones4
 62
256
370
9
 48
1.0
  6
BYLAYER
100
AcDbCircle
 10
137.3000000000000114
 20
247.7139999999999134
 30
0.0
 40
10.1600000000000001
100
AcDbArc
 50
0.0
 51
90.0000000000000142
  0
LINE
  5
126
100
AcDbEntity
  8
icones2
 62
256
370
9
 48
1.0
  6
BYLAYER
100
AcDbLine
 10
347.4600000000000932
 20
50.0
 30
0.0
 11
352.5400000000000773
 21
50.0
 31
0.0
  0
ARC
  5
127
100
AcDbEntity
  8
icones3
 62
256
370
9
 48
1.0
  6
BYLAYER
100
AcDbCircle
 10
144.877090952203929
 20
148.0628929500991831
 30
0.0
 40
1.4904072506569741
100
AcDbArc
 50
145.9386808226632297
 51
187.9700450514393424
  0
ARC
  5
128
100
AcDbEntity
  8
icones4
 62
256
370
9
 48
1.0
  6
BYLAYER
100
AcDbCircle
 10
137.3000000000000114
 20
247.7139999999999134
 30
0.0
 40
10.1600000000000001
100
AcDbArc
 50
270.0
 51
0.0
  0
LINE
  5
129
100
AcDbEntity
  8
icones2
 62
256
370
9
 48
1.0
  6
BYLAYER
100
AcDbLine
 10
352.5400000000000773
 20
50.0
 30
0.0
 11
352.5400000000000773
 21
55.0800000000000267
 31
0.0
  0
ARC
  5
12A
100
AcDbEntity
  8
icones3
 62
256
370
9
 48
1.0
  6
BYLAYER
100
AcDbCircle
 10
149.0018247199499797
 20
155.5876358584895911
 30
0.0
 40
9.5468750562012836
100
AcDbArc
 50
234.0798371050373703
 51
264.2737541375899468
  0
ARC
  5
12B
100
AcDbEntity
  8
icones4
 62
256
370
9
 48
1.0
  6
BYLAYER
100
AcDbCircle
 10
137.3000000000000114
 20
247.7139999999999134
 30
0.0
 40
10.1600000000000001
100
AcDbArc
 50
180.0
 51
270.0
  0
LINE
  5
12C
100
AcDbEntity
  8
icones2
 62
256
370
9
 48
1.0
  6
BYLAYER
100
AcDbLine
 10
352.5400000000000773
 20
55.0800000000000267
 30
0.0
 11
347.4600000000000932
 21
55.0800000000000267
 31
0.0
  0
ARC
  5
12D
100
AcDbEntity
  8
icones3
 62
256
370
9
 48
1.0
  6
BYLAYER
100
AcDbCircle
 10
147.3916386107988217
 20
140.8343252481568868
 30
0.0
 40
5.2950725863529327
100
AcDbArc
 50
346.3640308372420122
 51
82.8655131081850129
  0
ARC
  5
12E
100
AcDbEntity
  8
icones4
 62
256
370
9
 48
1.0
  6
BYLAYER
100
AcDbCircle
 10
137.3000000000000114
 20
247.7139999999999134
 30
0.0
 40
10.1600000000000001
100
AcDbArc
 50
90.0000000000000142
 51
180.0
  0
LINE
  5
12F
100
AcDbEntity
  8
icones2
 62
256
370
9
 48
1.0
  6
BYLAYER
100
AcDbLine
 10
357.6200000000002319
 20
55.0800000000000267
 30
0.0
 11
357.6200000000002319
 21
50.0
 31
0.0
  0
LINE
  5
130
100
AcDbEntity
  8
icones3
 62
256
370
9
 48
1.0
  6
BYLAYER
100
AcDbLine
 10
152.53746000000001
 20
139.5860000000000412
 30
0.0
 11
152.5349199999998575
 21
137.2999999999999545
 31
0.0
  0
SPLINE
  5
131
100
AcDbEntity
  8
icones4
 62
256
370
9
 48
1.0
  6
BYLAYER
100
AcDbSpline
 70
8
 71
3
 72
8
 73
4
 74
0
 40
0.0
 40
0.0
 40
0.0
 40
0.0
 40
1.0
 40
1.0
 40
1.0
 40
1.0
 10
125.2095999999999094
 20
277.4319999999999027
 30
0.0
 10
129.6800000000000352
 20
268.0339999999998781
 30
0.0
 10
126.4541999999999575
 20
261.0235999999998739
 30
0.0
 10
123.4570000000000505
 20
254.0639999999999361
 30
0.0
  0
LINE
  5
132
100
AcDbEntity
  8
icones2
 62
256
370
9
 48
1.0
  6
BYLAYER
100
AcDbLine
 10
357.6200000000002319
 20
50.0
 30
0.0
 11
362.700000000000216
 21
50.0
 31
0.0
  0
LINE
  5
133
100
AcDbEntity
  8
icones3
 62
256
370
9
 48
1.0
  6
BYLAYER
100
AcDbLine
 10
152.5349199999998575
 20
137.2999999999999545
 30
0.0
 11
152.5349199999998575
 21
137.2999999999999545
 31
0.0
  0
ARC
  5
134
100
AcDbEntity
  8
icones4
 62
256
370
9
 48
1.0
  6
BYLAYER
100
AcDbCircle
 10
137.3661923503817945
 20
247.6753076829159284
 30
0.0
 40
15.3062412551968396
100
AcDbArc
 50
155.3299998645055382
 51
179.8551630806959452
  0
LINE
  5
135
100
AcDbEntity
  8
icones2
 62
256
370
9
 48
1.0
  6
BYLAYER
100
AcDbLine
 10
362.700000000000216
 20
50.0
 30
0.0
 11
362.700000000000216
 21
55.0800000000000267
 31
0.0
  0
LINE
  5
136
100
AcDbEntity
  8
icones3
 62
256
370
9
 48
1.0
  6
BYLAYER
100
AcDbLine
 10
172.8600000000000136
 20
147.4600000000000932
 30
0.0
 11
172.8600000000000136
 21
144.9200000000000159
 31
0.0
  0
ARC
  5
137
100
AcDbEntity
  8
icones4
 62
256
370
9
 48
1.0
  6
BYLAYER
100
AcDbCircle
 10
137.3000000000000114
 20
247.7139999999999134
 30
0.0
 40
15.2400000000000002
100
AcDbArc
 50
180.0
 51
270.0
  0
LINE
  5
138
100
AcDbEntity
  8
icones2
 62
256
370
9
 48
1.0
  6
BYLAYER
100
AcDbLine
 10
362.700000000000216
 20
55.0800000000000267
 30
0.0
 11
357.6200000000002319
 21
55.0800000000000267
 31
0.0
  0
LINE
  5
139
100
AcDbEntity
  8
icones3
 62
256
370
9
 48
1.0
  6
BYLAYER
100
AcDbLine
 10
172.8600000000000136
 20
144.9200000000000159
 30
0.0
 11
157.6199999999998056
 21
144.9200000000000159
 31
0.0
  0
ARC
  5
13A
100
AcDbEntity
  8
icones4
 62
256
370
9
 48
1.0
  6
BYLAYER
100
AcDbCircle
 10
136.7589564814816754
 20
249.4359083333291949
 30
0.0
 40
16.9705351240671405
100
AcDbArc
 50
271.8269762115662047
 51
277.2485688042472134
  0
LINE
  5
13B
100
AcDbEntity
  8
icones2
 62
256
370
9
 48
1.0
  6
BYLAYER
100
AcDbLine
 10
337.3000000000002956
 20
44.9200000000000372
 30
0.0
 11
337.3000000000002956
 21
39.8400000000000105
 31
0.0
  0
LINE
  5
13C
100
AcDbEntity
  8
icones3
 62
256
370
9
 48
1.0
  6
BYLAYER
100
AcDbLine
 10
157.6199999999998056
 20
144.9200000000000159
 30
0.0
 11
157.6199999999998056
 21
147.4600000000000932
 31
0.0
  0
LINE
  5
13D
100
AcDbEntity
  8
icones4
 62
256
370
9
 48
1.0
  6
BYLAYER
100
AcDbLine
 10
138.9001999999999271
 20
232.6009999999999138
 30
0.0
 11
146.418599999999941
 21
225.0825999999998146
 31
0.0
  0
LINE
  5
13E
100
AcDbEntity
  8
icones2
 62
256
370
9
 48
1.0
  6
BYLAYER
100
AcDbLine
 10
337.3000000000002956
 20
39.8400000000000105
 30
0.0
 11
342.3800000000002797
 21
39.8400000000000105
 31
0.0
  0
LINE
  5
13F
100
AcDbEntity
  8
icones3
 62
256
370
9
 48
1.0
  6
BYLAYER
100
AcDbLine
 10
157.6199999999998056
 20
147.4600000000000932
 30
0.0
 11
172.8600000000000136
 21
147.4600000000000932
 31
0.0
  0
LINE
  5
140
100
AcDbEntity
  8
icones4
 62
256
370
9
 48
1.0
  6
BYLAYER
100
AcDbLine
 10
146.418599999999941
 20
225.0825999999998146
 30
0.0
 11
149.9999999999998863
 21
221.5519999999999357
 31
0.0
  0
LINE
  5
141
100
AcDbEntity
  8
icones2
 62
256
370
9
 48
1.0
  6
BYLAYER
100
AcDbLine
 10
342.3800000000002797
 20
39.8400000000000105
 30
0.0
 11
342.3800000000002797
 21
44.9200000000000372
 31
0.0
  0
LINE
  5
142
100
AcDbEntity
  8
icones3
 62
256
370
9
 48
1.0
  6
BYLAYER
100
AcDbLine
 10
172.8600000000000136
 20
155.0799999999999841
 30
0.0
 11
172.8600000000000136
 21
152.5400000000000773
 31
0.0
  0
LINE
  5
143
100
AcDbEntity
  8
icones4
 62
256
370
9
 48
1.0
  6
BYLAYER
100
AcDbLine
 10
149.9999999999998863
 20
221.5519999999999357
 30
0.0
 11
153.5814000000000874
 21
225.0825999999998146
 31
0.0
  0
LINE
  5
144
100
AcDbEntity
  8
icones2
 62
256
370
9
 48
1.0
  6
BYLAYER
100
AcDbLine
 10
342.3800000000002797
 20
44.9200000000000372
 30
0.0
 11
337.3000000000002956
 21
44.9200000000000372
 31
0.0
  0
LINE
  5
145
100
AcDbEntity
  8
icones3
 62
256
370
9
 48
1.0
  6
BYLAYER
100
AcDbLine
 10
172.8600000000000136
 20
152.5400000000000773
 30
0.0
 11
157.6199999999998056
 21
152.5400000000000773
 31
0.0
  0
LINE
  5
146
100
AcDbEntity
  8
icones4
 62
256
370
9
 48
1.0
  6
BYLAYER
100
AcDbLine
 10
153.5814000000000874
 20
225.0825999999998146
 30
0.0
 11
161.0998000000001014
 21
232.6009999999999138
 31
0.0
  0
LINE
  5
147
100
AcDbEntity
  8
icones2
 62
256
370
9
 48
1.0
  6
BYLAYER
100
AcDbLine
 10
347.4600000000000932
 20
44.9200000000000372
 30
0.0
 11
347.4600000000000932
 21
39.8400000000000105
 31
0.0
  0
LINE
  5
148
100
AcDbEntity
  8
icones3
 62
256
370
9
 48
1.0
  6
BYLAYER
100
AcDbLine
 10
157.6199999999998056
 20
152.5400000000000773
 30
0.0
 11
157.6199999999998056
 21
155.0799999999999841
 31
0.0
  0
ARC
  5
149
100
AcDbEntity
  8
icones4
 62
256
370
9
 48
1.0
  6
BYLAYER
100
AcDbCircle
 10
163.2410435185180972
 20
249.4359083333280012
 30
0.0
 40
16.9705351240658437
100
AcDbArc
 50
262.7514311957523887
 51
268.173023788433909
  0
LINE
  5
14A
100
AcDbEntity
  8
icones2
 62
256
370
9
 48
1.0
  6
BYLAYER
100
AcDbLine
 10
347.4600000000000932
 20
39.8400000000000105
 30
0.0
 11
352.5400000000000773
 21
39.8400000000000105
 31
0.0
  0
LINE
  5
14B
100
AcDbEntity
  8
icones3
 62
256
370
9
 48
1.0
  6
BYLAYER
100
AcDbLine
 10
157.6199999999998056
 20
155.0799999999999841
 30
0.0
 11
172.8600000000000136
 21
155.0799999999999841
 31
0.0
  0
ARC
  5
14C
100
AcDbEntity
  8
icones4
 62
256
370
9
 48
1.0
  6
BYLAYER
100
AcDbCircle
 10
162.7000000000000171
 20
247.7139999999999134
 30
0.0
 40
15.2400000000000002
100
AcDbArc
 50
270.0
 51
0.0
  0
LINE
  5
14D
100
AcDbEntity
  8
icones2
 62
256
370
9
 48
1.0
  6
BYLAYER
100
AcDbLine
 10
352.5400000000000773
 20
39.8400000000000105
 30
0.0
 11
352.5400000000000773
 21
44.9200000000000372
 31
0.0
  0
LINE
  5
14E
100
AcDbEntity
  8
icones3
 62
256
370
9
 48
1.0
  6
BYLAYER
100
AcDbLine
 10
172.8600000000000136
 20
162.7000000000000455
 30
0.0
 11
172.8600000000000136
 21
160.1600000000000534
 31
0.0
  0
ARC
  5
14F
100
AcDbEntity
  8
icones4
 62
256
370
9
 48
1.0
  6
BYLAYER
100
AcDbCircle
 10
162.6338076496179781
 20
247.6753076829157578
 30
0.0
 40
15.3062412551968947
100
AcDbArc
 50
0.1448369193040411
 51
24.6700001354945897
  0
LINE
  5
150
100
AcDbEntity
  8
icones2
 62
256
370
9
 48
1.0
  6
BYLAYER
100
AcDbLine
 10
352.5400000000000773
 20
44.9200000000000372
 30
0.0
 11
347.4600000000000932
 21
44.9200000000000372
 31
0.0
  0
LINE
  5
151
100
AcDbEntity
  8
icones3
 62
256
370
9
 48
1.0
  6
BYLAYER
100
AcDbLine
 10
172.8600000000000136
 20
160.1600000000000534
 30
0.0
 11
157.6199999999998056
 21
160.1600000000000534
 31
0.0
  0
SPLINE
  5
152
100
AcDbEntity
  8
icones4
 62
256
370
9
 48
1.0
  6
BYLAYER
100
AcDbSpline
 70
8
 71
3
 72
8
 73
4
 74
0
 40
0.0
 40
0.0
 40
0.0
 40
0.0
 40
1.0
 40
1.0
 40
1.0
 40
1.0
 10
176.5429999999999779
 20
254.0639999999999361
 30
0.0
 10
173.5458000000000709
 20
261.0235999999998739
 30
0.0
 10
170.3199999999999932
 20
268.0339999999998781
 30
0.0
 10
174.7903999999998632
 20
277.4319999999999027
 30
0.0
  0
LINE
  5
153
100
AcDbEntity
  8
icones2
 62
256
370
9
 48
1.0
  6
BYLAYER
100
AcDbLine
 10
357.6200000000002319
 20
44.9200000000000372
 30
0.0
 11
357.6200000000002319
 21
39.8400000000000105
 31
0.0
  0
LINE
  5
154
100
AcDbEntity
  8
icones3
 62
256
370
9
 48
1.0
  6
BYLAYER
100
AcDbLine
 10
157.6199999999998056
 20
160.1600000000000534
 30
0.0
 11
157.6199999999998056
 21
162.7000000000000455
 31
0.0
  0
ARC
  5
155
100
AcDbEntity
  8
icones4
 62
256
370
9
 48
1.0
  6
BYLAYER
100
AcDbCircle
 10
147.7084630989400864
 20
311.4742303119852522
 30
0.0
 40
43.5006293164507909
100
AcDbArc
 50
273.0196389136729067
 51
308.5036327489827954
  0
LINE
  5
156
100
AcDbEntity
  8
icones2
 62
256
370
9
 48
1.0
  6
BYLAYER
100
AcDbLine
 10
357.6200000000002319
 20
39.8400000000000105
 30
0.0
 11
362.700000000000216
 21
39.8400000000000105
 31
0.0
  0
LINE
  5
157
100
AcDbEntity
  8
icones3
 62
256
370
9
 48
1.0
  6
BYLAYER
100
AcDbLine
 10
157.6199999999998056
 20
162.7000000000000455
 30
0.0
 11
172.8600000000000136
 21
162.7000000000000455
 31
0.0
  0
ARC
  5
158
100
AcDbEntity
  8
icones4
 62
256
370
9
 48
1.0
  6
BYLAYER
100
AcDbCircle
 10
152.291536901059942
 20
311.4742303119852522
 30
0.0
 40
43.5006293164506843
100
AcDbArc
 50
231.4963672510171762
 51
266.9803610863270933
  0
LINE
  5
159
100
AcDbEntity
  8
icones2
 62
256
370
9
 48
1.0
  6
BYLAYER
100
AcDbLine
 10
362.700000000000216
 20
39.8400000000000105
 30
0.0
 11
362.700000000000216
 21
44.9200000000000372
 31
0.0
  0
ARC
  5
15A
100
AcDbEntity
  8
icones3
 62
256
370
9
 48
1.0
  6
BYLAYER
100
AcDbCircle
 10
129.6800000000000068
 20
250.0
 30
0.0
 40
6.7733333333333334
100
AcDbArc
 50
180.0
 51
270.0
  0
LINE
  5
15B
100
AcDbEntity
  8
icones4
 62
256
370
9
 48
1.0
  6
BYLAYER
100
AcDbLine
 10
422.9913333333331593
 20
257.8740000000001373
 30
0.0
 11
427.7326666666666029
 21
257.8740000000001373
 31
0.0
  0
LINE
  5
15C
100
AcDbEntity
  8
icones2
 62
256
370
9
 48
1.0
  6
BYLAYER
100
AcDbLine
 10
362.700000000000216
 20
44.9200000000000372
 30
0.0
 11
357.6200000000002319
 21
44.9200000000000372
 31
0.0
  0
ARC
  5
15D
100
AcDbEntity
  8
icones3
 62
256
370
9
 48
1.0
  6
BYLAYER
100
AcDbCircle
 10
129.6800000000000068
 20
250.0
 30
0.0
 40
6.7733333333333334
100
AcDbArc
 50
90.0000000000000142
 51
180.0
  0
LINE
  5
15E
100
AcDbEntity
  8
icones4
 62
256
370
9
 48
1.0
  6
BYLAYER
100
AcDbLine
 10
427.7326666666666029
 20
257.8740000000001373
 30
0.0
 11
431.7966666666666242
 21
252.7940000000001532
 31
0.0
  0
LINE
  5
15F
100
AcDbEntity
  8
icones2
 62
256
370
9
 48
1.0
  6
BYLAYER
100
AcDbLine
 10
337.3000000000002956
 20
34.7600000000000477
 30
0.0
 11
337.3000000000002956
 21
29.680000000000021
 31
0.0
  0
ARC
  5
160
100
AcDbEntity
  8
icones3
 62
256
370
9
 48
1.0
  6
BYLAYER
100
AcDbCircle
 10
129.6800000000000068
 20
250.0
 30
0.0
 40
6.7733333333333334
100
AcDbArc
 50
0.0
 51
90.0000000000000142
  0
LINE
  5
161
100
AcDbEntity
  8
icones4
 62
256
370
9
 48
1.0
  6
BYLAYER
100
AcDbLine
 10
431.7966666666666242
 20
252.7940000000001532
 30
0.0
 11
443.9886666666665178
 21
252.7940000000001532
 31
0.0
  0
LINE
  5
162
100
AcDbEntity
  8
icones2
 62
256
370
9
 48
1.0
  6
BYLAYER
100
AcDbLine
 10
337.3000000000002956
 20
29.680000000000021
 30
0.0
 11
342.3800000000002797
 21
29.680000000000021
 31
0.0
  0
ARC
  5
163
100
AcDbEntity
  8
icones3
 62
256
370
9
 48
1.0
  6
BYLAYER
100
AcDbCircle
 10
129.6800000000000068
 20
250.0
 30
0.0
 40
6.7733333333333334
100
AcDbArc
 50
270.0
 51
0.0
  0
LINE
  5
164
100
AcDbEntity
  8
icones4
 62
256
370
9
 48
1.0
  6
BYLAYER
100
AcDbLine
 10
443.9886666666665178
 20
252.7940000000001532
 30
0.0
 11
436.5379999999998972
 21
275.3153333333334558
 31
0.0
  0
LINE
  5
165
100
AcDbEntity
  8
icones2
 62
256
370
9
 48
1.0
  6
BYLAYER
100
AcDbLine
 10
342.3800000000002797
 20
29.680000000000021
 30
0.0
 11
342.3800000000002797
 21
34.7600000000000477
 31
0.0
  0
ARC
  5
166
100
AcDbEntity
  8
icones3
 62
256
370
9
 48
1.0
  6
BYLAYER
100
AcDbCircle
 10
129.6791328309292908
 20
250.0315834570210427
 30
0.0
 40
20.2884165615113332
100
AcDbArc
 50
19.4081634063473842
 51
89.9975510593575763
  0
LINE
  5
167
100
AcDbEntity
  8
icones4
 62
256
370
9
 48
1.0
  6
BYLAYER
100
AcDbLine
 10
436.5379999999998972
 20
275.3153333333334558
 30
0.0
 11
442.4646666666665737
 21
275.3153333333334558
 31
0.0
  0
LINE
  5
168
100
AcDbEntity
  8
icones2
 62
256
370
9
 48
1.0
  6
BYLAYER
100
AcDbLine
 10
342.3800000000002797
 20
34.7600000000000477
 30
0.0
 11
337.3000000000002956
 21
34.7600000000000477
 31
0.0
  0
ARC
  5
169
100
AcDbEntity
  8
icones3
 62
256
370
9
 48
1.0
  6
BYLAYER
100
AcDbCircle
 10
129.6800000000000068
 20
250.0
 30
0.0
 40
20.3200000000000003
100
AcDbArc
 50
90.0000000000000142
 51
180.0
  0
LINE
  5
16A
100
AcDbEntity
  8
icones4
 62
256
370
9
 48
1.0
  6
BYLAYER
100
AcDbLine
 10
442.4646666666665737
 20
275.3153333333334558
 30
0.0
 11
456.0113333333331411
 21
252.9633333333334235
 31
0.0
  0
LINE
  5
16B
100
AcDbEntity
  8
icones2
 62
256
370
9
 48
1.0
  6
BYLAYER
100
AcDbLine
 10
347.4600000000000932
 20
34.7600000000000477
 30
0.0
 11
347.4600000000000932
 21
29.680000000000021
 31
0.0
  0
ARC
  5
16C
100
AcDbEntity
  8
icones3
 62
256
370
9
 48
1.0
  6
BYLAYER
100
AcDbCircle
 10
129.6800000000000068
 20
250.0
 30
0.0
 40
20.3200000000000003
100
AcDbArc
 50
180.0
 51
270.0
  0
LINE
  5
16D
100
AcDbEntity
  8
icones4
 62
256
370
9
 48
1.0
  6
BYLAYER
100
AcDbLine
 10
456.0113333333331411
 20
252.9633333333334235
 30
0.0
 11
472.6059999999999377
 21
252.9633333333334235
 31
0.0
  0
LINE
  5
16E
100
AcDbEntity
  8
icones2
 62
256
370
9
 48
1.0
  6
BYLAYER
100
AcDbLine
 10
347.4600000000000932
 20
29.680000000000021
 30
0.0
 11
352.5400000000000773
 21
29.680000000000021
 31
0.0
  0
ARC
  5
16F
100
AcDbEntity
  8
icones3
 62
256
370
9
 48
1.0
  6
BYLAYER
100
AcDbCircle
 10
129.6791328309292908
 20
249.9684165429789573
 30
0.0
 40
20.2884165615113652
100
AcDbArc
 50
270.0024489406426369
 51
340.5918365936527152
  0
SPLINE
  5
170
100
AcDbEntity
  8
icones4
 62
256
370
9
 48
1.0
  6
BYLAYER
100
AcDbSpline
 70
8
 71
3
 72
8
 73
4
 74
0
 40
0.0
 40
0.0
 40
0.0
 40
0.0
 40
1.0
 40
1.0
 40
1.0
 40
1.0
 10
472.6059999999999377
 20
252.9633333333334235
 30
0.0
 10
476.1619999999998072
 20
252.9633333333334235
 30
0.0
 10
476.1619999999998072
 20
247.2060000000000173
 30
0.0
 10
472.6059999999999377
 20
247.2060000000000173
 30
0.0
  0
LINE
  5
171
100
AcDbEntity
  8
icones2
 62
256
370
9
 48
1.0
  6
BYLAYER
100
AcDbLine
 10
352.5400000000000773
 20
29.680000000000021
 30
0.0
 11
352.5400000000000773
 21
34.7600000000000477
 31
0.0
  0
LINE
  5
172
100
AcDbEntity
  8
icones3
 62
256
370
9
 48
1.0
  6
BYLAYER
100
AcDbLine
 10
148.8146666666667102
 20
243.2266666666666879
 30
0.0
 11
163.5466666666666811
 21
243.2266666666666879
 31
0.0
  0
LINE
  5
173
100
AcDbEntity
  8
icones4
 62
256
370
9
 48
1.0
  6
BYLAYER
100
AcDbLine
 10
472.6059999999999377
 20
247.2060000000000173
 30
0.0
 11
456.0113333333331411
 21
247.2060000000000173
 31
0.0
  0
LINE
  5
174
100
AcDbEntity
  8
icones2
 62
256
370
9
 48
1.0
  6
BYLAYER
100
AcDbLine
 10
352.5400000000000773
 20
34.7600000000000477
 30
0.0
 11
347.4600000000000932
 21
34.7600000000000477
 31
0.0
  0
LINE
  5
175
100
AcDbEntity
  8
icones3
 62
256
370
9
 48
1.0
  6
BYLAYER
100
AcDbLine
 10
163.5466666666666811
 20
243.2266666666666879
 30
0.0
 11
163.5466666666666811
 21
229.6800000000000637
 31
0.0
  0
LINE
  5
176
100
AcDbEntity
  8
icones4
 62
256
370
9
 48
1.0
  6
BYLAYER
100
AcDbLine
 10
456.0113333333331411
 20
247.2060000000000173
 30
0.0
 11
442.4646666666665737
 21
224.5153333333334444
 31
0.0
  0
LINE
  5
177
100
AcDbEntity
  8
icones2
 62
256
370
9
 48
1.0
  6
BYLAYER
100
AcDbLine
 10
357.6200000000002319
 20
34.7600000000000477
 30
0.0
 11
357.6200000000002319
 21
29.680000000000021
 31
0.0
  0
LINE
  5
178
100
AcDbEntity
  8
icones3
 62
256
370
9
 48
1.0
  6
BYLAYER
100
AcDbLine
 10
163.5466666666666811
 20
229.6800000000000637
 30
0.0
 11
177.093333333333419
 21
229.6800000000000637
 31
0.0
  0
LINE
  5
179
100
AcDbEntity
  8
icones4
 62
256
370
9
 48
1.0
  6
BYLAYER
100
AcDbLine
 10
442.4646666666665737
 20
224.5153333333334444
 30
0.0
 11
436.5379999999998972
 21
224.5153333333334444
 31
0.0
  0
LINE
  5
17A
100
AcDbEntity
  8
icones2
 62
256
370
9
 48
1.0
  6
BYLAYER
100
AcDbLine
 10
357.6200000000002319
 20
29.680000000000021
 30
0.0
 11
362.700000000000216
 21
29.680000000000021
 31
0.0
  0
LINE
  5
17B
100
AcDbEntity
  8
icones3
 62
256
370
9
 48
1.0
  6
BYLAYER
100
AcDbLine
 10
177.093333333333419
 20
229.6800000000000637
 30
0.0
 11
177.093333333333419
 21
243.2266666666666879
 31
0.0
  0
LINE
  5
17C
100
AcDbEntity
  8
icones4
 62
256
370
9
 48
1.0
  6
BYLAYER
100
AcDbLine
 10
436.5379999999998972
 20
224.5153333333334444
 30
0.0
 11
443.8193333333332475
 21
247.036666666666747
 31
0.0
  0
LINE
  5
17D
100
AcDbEntity
  8
icones2
 62
256
370
9
 48
1.0
  6
BYLAYER
100
AcDbLine
 10
362.700000000000216
 20
29.680000000000021
 30
0.0
 11
362.700000000000216
 21
34.7600000000000477
 31
0.0
  0
LINE
  5
17E
100
AcDbEntity
  8
icones3
 62
256
370
9
 48
1.0
  6
BYLAYER
100
AcDbLine
 10
177.093333333333419
 20
243.2266666666666879
 30
0.0
 11
183.8666666666666174
 21
243.2266666666666879
 31
0.0
  0
LINE
  5
17F
100
AcDbEntity
  8
icones4
 62
256
370
9
 48
1.0
  6
BYLAYER
100
AcDbLine
 10
443.8193333333332475
 20
247.036666666666747
 30
0.0
 11
431.7966666666666242
 21
247.036666666666747
 31
0.0
  0
LINE
  5
180
100
AcDbEntity
  8
icones2
 62
256
370
9
 48
1.0
  6
BYLAYER
100
AcDbLine
 10
362.700000000000216
 20
34.7600000000000477
 30
0.0
 11
357.6200000000002319
 21
34.7600000000000477
 31
0.0
  0
LINE
  5
181
100
AcDbEntity
  8
icones3
 62
256
370
9
 48
1.0
  6
BYLAYER
100
AcDbLine
 10
183.8666666666666174
 20
243.2266666666666879
 30
0.0
 11
183.8666666666666174
 21
256.7733333333333121
 31
0.0
  0
LINE
  5
182
100
AcDbEntity
  8
icones4
 62
256
370
9
 48
1.0
  6
BYLAYER
100
AcDbLine
 10
431.7966666666666242
 20
247.036666666666747
 30
0.0
 11
427.7326666666666029
 21
241.9566666666667629
 31
0.0
  0
LINE
  5
183
100
AcDbEntity
  8
icones2
 62
256
370
9
 48
1.0
  6
BYLAYER
100
AcDbLine
 10
350.0000000000015348
 20
165.2400000000000375
 30
0.0
 11
346.6218000000002348
 21
165.0114000000000374
 31
0.0
  0
LINE
  5
184
100
AcDbEntity
  8
icones3
 62
256
370
9
 48
1.0
  6
BYLAYER
100
AcDbLine
 10
183.8666666666666174
 20
256.7733333333333121
 30
0.0
 11
148.8146666666667102
 21
256.7733333333333121
 31
0.0
  0
LINE
  5
185
100
AcDbEntity
  8
icones4
 62
256
370
9
 48
1.0
  6
BYLAYER
100
AcDbLine
 10
427.7326666666666029
 20
241.9566666666667629
 30
0.0
 11
422.9913333333331593
 21
241.9566666666667629
 31
0.0
  0
SPLINE
  5
186
100
AcDbEntity
  8
icones2
 62
256
370
9
 48
1.0
  6
BYLAYER
100
AcDbSpline
 70
8
 71
3
 72
8
 73
4
 74
0
 40
0.0
 40
0.0
 40
0.0
 40
0.0
 40
1.0
 40
1.0
 40
1.0
 40
1.0
 10
346.6218000000002348
 20
165.0114000000000374
 30
0.0
 10
344.4374000000001956
 20
167.6022000000000958
 30
0.0
 10
338.3160000000002583
 20
174.1300000000000523
 30
0.0
 10
332.220000000000141
 20
174.1300000000000523
 30
0.0
  0
ARC
  5
187
100
AcDbEntity
  8
icones3
 62
256
370
9
 48
1.0
  6
BYLAYER
100
AcDbCircle
 10
250.0
 20
149.9999999999999147
 30
0.0
 40
25.399999999999995
100
AcDbArc
 50
90.0000000000000142
 51
180.0
  0
LINE
  5
188
100
AcDbEntity
  8
icones4
 62
256
370
9
 48
1.0
  6
BYLAYER
100
AcDbLine
 10
422.9913333333331593
 20
241.9566666666667629
 30
0.0
 11
425.5313333333332366
 21
249.9153333333333649
 31
0.0
  0
ARC
  5
189
100
AcDbEntity
  8
icones2
 62
256
370
9
 48
1.0
  6
BYLAYER
100
AcDbCircle
 10
348.1577084165784299
 20
165.2617471292818436
 30
0.0
 40
18.2388721841805257
100
AcDbArc
 50
150.9070319229243751
 51
208.4296379520670541
  0
ARC
  5
18A
100
AcDbEntity
  8
icones3
 62
256
370
9
 48
1.0
  6
BYLAYER
100
AcDbCircle
 10
250.0
 20
150.0
 30
0.0
 40
25.399999999999995
100
AcDbArc
 50
180.0
 51
270.0
  0
LINE
  5
18B
100
AcDbEntity
  8
icones4
 62
256
370
9
 48
1.0
  6
BYLAYER
100
AcDbLine
 10
422.9913333333331593
 20
257.8740000000001373
 30
0.0
 11
425.5313333333332366
 21
249.9153333333333649
 31
0.0
  0
ARC
  5
18C
100
AcDbEntity
  8
icones2
 62
256
370
9
 48
1.0
  6
BYLAYER
100
AcDbCircle
 10
339.9178369163424236
 20
149.8731482490273095
 30
0.0
 40
10.285635585447686
100
AcDbArc
 50
139.3131861378241183
 51
174.4741601456331352
  0
ARC
  5
18D
100
AcDbEntity
  8
icones3
 62
256
370
9
 48
1.0
  6
BYLAYER
100
AcDbCircle
 10
250.0
 20
149.9999999999999147
 30
0.0
 40
25.399999999999995
100
AcDbArc
 50
270.0
 51
0.0
  0
ARC
  5
18E
100
AcDbEntity
  8
icones4
 62
256
370
9
 48
1.0
  6
BYLAYER
100
AcDbCircle
 10
241.7271715192821944
 20
238.7243004976813836
 30
0.0
 40
2.5452824379803314
100
AcDbArc
 50
345.4237757286069268
 51
74.9722281045256835
  0
LINE
  5
18F
100
AcDbEntity
  8
icones2
 62
256
370
9
 48
1.0
  6
BYLAYER
100
AcDbLine
 10
329.6800000000002342
 20
150.8636000000000195
 30
0.0
 11
324.7778000000001839
 21
150.127000000000038
 31
0.0
  0
ARC
  5
190
100
AcDbEntity
  8
icones3
 62
256
370
9
 48
1.0
  6
BYLAYER
100
AcDbCircle
 10
250.0
 20
150.0
 30
0.0
 40
25.399999999999995
100
AcDbArc
 50
0.0
 51
90.0000000000000142
  0
LINE
  5
191
100
AcDbEntity
  8
icones4
 62
256
370
9
 48
1.0
  6
BYLAYER
100
AcDbLine
 10
244.1905307001893277
 20
238.0837349390290001
 30
0.0
 11
240.8885307001892784
 21
225.8155349390289643
 31
0.0
  0
LINE
  5
192
100
AcDbEntity
  8
icones2
 62
256
370
9
 48
1.0
  6
BYLAYER
100
AcDbLine
 10
324.7778000000001839
 20
150.127000000000038
 30
0.0
 11
325.3112000000001558
 21
147.6378000000001123
 31
0.0
  0
ARC
  5
193
100
AcDbEntity
  8
icones3
 62
256
370
9
 48
1.0
  6
BYLAYER
100
AcDbCircle
 10
249.9483723387880048
 20
150.3145140279476095
 30
0.0
 40
22.5455450839276139
100
AcDbArc
 50
57.2612902417344429
 51
89.8687967104900025
  0
ARC
  5
194
100
AcDbEntity
  8
icones4
 62
256
370
9
 48
1.0
  6
BYLAYER
100
AcDbCircle
 10
238.4444423378606643
 20
226.451186772889514
 30
0.0
 40
2.5253952515914762
100
AcDbArc
 50
254.9743669752874382
 51
345.4216368578449874
  0
LINE
  5
195
100
AcDbEntity
  8
icones2
 62
256
370
9
 48
1.0
  6
BYLAYER
100
AcDbLine
 10
325.3112000000001558
 20
147.6378000000001123
 30
0.0
 11
329.7816000000001964
 21
148.2981999999999516
 31
0.0
  0
LINE
  5
196
100
AcDbEntity
  8
icones3
 62
256
370
9
 48
1.0
  6
BYLAYER
100
AcDbLine
 10
262.1412000000001399
 20
169.2785999999998978
 30
0.0
 11
261.4300000000000637
 21
167.7799999999999443
 31
0.0
  0
ARC
  5
197
100
AcDbEntity
  8
icones4
 62
256
370
9
 48
1.0
  6
BYLAYER
100
AcDbCircle
 10
238.3880290269931663
 20
226.3955290746803257
 30
0.0
 40
2.4573417535445383
100
AcDbArc
 50
163.0743813984181259
 51
255.9083422079224874
  0
LINE
  5
198
100
AcDbEntity
  8
icones2
 62
256
370
9
 48
1.0
  6
BYLAYER
100
AcDbLine
 10
329.7816000000001964
 20
148.2981999999999516
 30
0.0
 11
330.1372000000002345
 21
146.4948000000000263
 31
0.0
  0
LINE
  5
199
100
AcDbEntity
  8
icones3
 62
256
370
9
 48
1.0
  6
BYLAYER
100
AcDbLine
 10
261.4300000000000637
 20
167.7799999999999443
 30
0.0
 11
252.5400000000000773
 21
167.7799999999999443
 31
0.0
  0
LINE
  5
19A
100
AcDbEntity
  8
icones4
 62
256
370
9
 48
1.0
  6
BYLAYER
100
AcDbLine
 10
236.0371307001892944
 20
227.1109349390289935
 30
0.0
 11
239.2883307001893627
 21
239.3791349390290293
 31
0.0
  0
LINE
  5
19B
100
AcDbEntity
  8
icones2
 62
256
370
9
 48
1.0
  6
BYLAYER
100
AcDbLine
 10
330.1372000000002345
 20
146.4948000000000263
 30
0.0
 11
326.1494000000000142
 21
144.1071999999999775
 31
0.0
  0
LINE
  5
19C
100
AcDbEntity
  8
icones3
 62
256
370
9
 48
1.0
  6
BYLAYER
100
AcDbLine
 10
252.5400000000000773
 20
167.7799999999999443
 30
0.0
 11
250.0
 21
167.7799999999999443
 31
0.0
  0
ARC
  5
19D
100
AcDbEntity
  8
icones4
 62
256
370
9
 48
1.0
  6
BYLAYER
100
AcDbCircle
 10
241.7324190625179767
 20
238.7434831051684796
 30
0.0
 40
2.5253952515914606
100
AcDbArc
 50
74.9743669752870545
 51
165.4216368578454137
  0
LINE
  5
19E
100
AcDbEntity
  8
icones2
 62
256
370
9
 48
1.0
  6
BYLAYER
100
AcDbLine
 10
326.1494000000000142
 20
144.1071999999999775
 30
0.0
 11
327.3432000000002517
 21
141.846600000000052
 31
0.0
  0
LINE
  5
19F
100
AcDbEntity
  8
icones3
 62
256
370
9
 48
1.0
  6
BYLAYER
100
AcDbLine
 10
250.0
 20
167.7799999999999443
 30
0.0
 11
245.6312000000000921
 21
169.9135999999999171
 31
0.0
  0
ARC
  5
1A0
100
AcDbEntity
  8
icones4
 62
256
370
9
 48
1.0
  6
BYLAYER
100
AcDbCircle
 10
251.8871715192822478
 20
238.7243004976813836
 30
0.0
 40
2.5452824379803269
100
AcDbArc
 50
345.4237757286069268
 51
74.972228104525783
  0
LINE
  5
1A1
100
AcDbEntity
  8
icones2
 62
256
370
9
 48
1.0
  6
BYLAYER
100
AcDbLine
 10
327.3432000000002517
 20
141.846600000000052
 30
0.0
 11
331.0262000000002445
 21
144.1071999999999775
 31
0.0
  0
LINE
  5
1A2
100
AcDbEntity
  8
icones3
 62
256
370
9
 48
1.0
  6
BYLAYER
100
AcDbLine
 10
245.6312000000000921
 20
169.9135999999999171
 30
0.0
 11
246.5202000000000169
 21
172.5297999999999661
 31
0.0
  0
LINE
  5
1A3
100
AcDbEntity
  8
icones4
 62
256
370
9
 48
1.0
  6
BYLAYER
100
AcDbLine
 10
254.3505307001893812
 20
238.0837349390290001
 30
0.0
 11
249.0927307001892927
 21
218.4495349390289789
 31
0.0
  0
SPLINE
  5
1A4
100
AcDbEntity
  8
icones2
 62
256
370
9
 48
1.0
  6
BYLAYER
100
AcDbSpline
 70
8
 71
3
 72
8
 73
4
 74
0
 40
0.0
 40
0.0
 40
0.0
 40
0.0
 40
1.0
 40
1.0
 40
1.0
 40
1.0
 10
331.0262000000002445
 20
144.1071999999999775
 30
0.0
 10
333.9472000000001799
 20
137.9095999999999833
 30
0.0
 10
341.3386000000001559
 20
134.7600000000000477
 30
0.0
 10
350.0000000000001705
 20
134.7600000000000477
 30
0.0
  0
ARC
  5
1A5
100
AcDbEntity
  8
icones3
 62
256
370
9
 48
1.0
  6
BYLAYER
100
AcDbCircle
 10
250.1141396464647073
 20
153.1561744949492834
 30
0.0
 40
19.7041560943974687
100
AcDbArc
 50
90.3318973195380437
 51
100.5092932479869319
  0
ARC
  5
1A6
100
AcDbEntity
  8
icones4
 62
256
370
9
 48
1.0
  6
BYLAYER
100
AcDbCircle
 10
246.6500827443463493
 20
219.0732912568977326
 30
0.0
 40
2.5210317293253399
100
AcDbArc
 50
254.3151147683591375
 51
345.6750444659203367
  0
SPLINE
  5
1A7
100
AcDbEntity
  8
icones2
 62
256
370
9
 48
1.0
  6
BYLAYER
100
AcDbSpline
 70
8
 71
3
 72
8
 73
4
 74
0
 40
0.0
 40
0.0
 40
0.0
 40
0.0
 40
1.0
 40
1.0
 40
1.0
 40
1.0
 10
350.0000000000001705
 20
134.7600000000000477
 30
0.0
 10
358.6614000000001852
 20
134.7600000000000477
 30
0.0
 10
366.0528000000001612
 20
137.9095999999999833
 30
0.0
 10
368.9738000000000966
 20
144.1071999999999775
 30
0.0
  0
LINE
  5
1A8
100
AcDbEntity
  8
icones3
 62
256
370
9
 48
1.0
  6
BYLAYER
100
AcDbLine
 10
243.7262000000000342
 20
171.8947999999999467
 30
0.0
 11
242.8626000000001
 21
169.2785999999998978
 31
0.0
  0
ARC
  5
1A9
100
AcDbEntity
  8
icones4
 62
256
370
9
 48
1.0
  6
BYLAYER
100
AcDbCircle
 10
246.6693136293876876
 20
219.1332454103549026
 30
0.0
 40
2.5839534071717396
100
AcDbArc
 50
165.726185699521892
 51
254.2639735347579801
  0
LINE
  5
1AA
100
AcDbEntity
  8
icones2
 62
256
370
9
 48
1.0
  6
BYLAYER
100
AcDbLine
 10
368.9738000000000966
 20
144.1071999999999775
 30
0.0
 11
372.6568000000000893
 21
141.846600000000052
 31
0.0
  0
LINE
  5
1AB
100
AcDbEntity
  8
icones3
 62
256
370
9
 48
1.0
  6
BYLAYER
100
AcDbLine
 10
242.8626000000001
 20
169.2785999999998978
 30
0.0
 11
236.3602000000002192
 21
166.0273999999999148
 31
0.0
  0
LINE
  5
1AC
100
AcDbEntity
  8
icones4
 62
256
370
9
 48
1.0
  6
BYLAYER
100
AcDbLine
 10
244.1651307001893372
 20
219.7703349390289986
 30
0.0
 11
249.4483307001894161
 21
239.3791349390290293
 31
0.0
  0
LINE
  5
1AD
100
AcDbEntity
  8
icones2
 62
256
370
9
 48
1.0
  6
BYLAYER
100
AcDbLine
 10
372.6568000000000893
 20
141.846600000000052
 30
0.0
 11
373.8506000000001563
 21
144.1071999999999775
 31
0.0
  0
LINE
  5
1AE
100
AcDbEntity
  8
icones3
 62
256
370
9
 48
1.0
  6
BYLAYER
100
AcDbLine
 10
236.3602000000002192
 20
166.0273999999999148
 30
0.0
 11
233.1852000000001226
 21
165.3923999999999808
 31
0.0
  0
ARC
  5
1AF
100
AcDbEntity
  8
icones4
 62
256
370
9
 48
1.0
  6
BYLAYER
100
AcDbCircle
 10
251.8924190625180302
 20
238.7434831051684796
 30
0.0
 40
2.5253952515914646
100
AcDbArc
 50
74.9743669752870545
 51
165.4216368578453284
  0
LINE
  5
1B0
100
AcDbEntity
  8
icones2
 62
256
370
9
 48
1.0
  6
BYLAYER
100
AcDbLine
 10
373.8506000000001563
 20
144.1071999999999775
 30
0.0
 11
369.8628000000001066
 21
146.4948000000000263
 31
0.0
  0
ARC
  5
1B1
100
AcDbEntity
  8
icones3
 62
256
370
9
 48
1.0
  6
BYLAYER
100
AcDbCircle
 10
250.0326480165183511
 20
149.8762819263475023
 30
0.0
 40
22.903851744735114
100
AcDbArc
 50
105.9825410213634882
 51
137.3556304897002747
  0
ARC
  5
1B2
100
AcDbEntity
  8
icones4
 62
256
370
9
 48
1.0
  6
BYLAYER
100
AcDbCircle
 10
262.0471715192823012
 20
238.7243004976813836
 30
0.0
 40
2.5452824379803269
100
AcDbArc
 50
345.42377572860687
 51
74.9722281045256835
  0
LINE
  5
1B3
100
AcDbEntity
  8
icones2
 62
256
370
9
 48
1.0
  6
BYLAYER
100
AcDbLine
 10
369.8628000000001066
 20
146.4948000000000263
 30
0.0
 11
370.2184000000001447
 21
148.2981999999999516
 31
0.0
  0
LINE
  5
1B4
100
AcDbEntity
  8
icones3
 62
256
370
9
 48
1.0
  6
BYLAYER
100
AcDbLine
 10
252.5400000000000773
 20
165.2399999999999523
 30
0.0
 11
260.1600000000000819
 21
165.2399999999999523
 31
0.0
  0
LINE
  5
1B5
100
AcDbEntity
  8
icones4
 62
256
370
9
 48
1.0
  6
BYLAYER
100
AcDbLine
 10
264.5105307001891788
 20
238.0837349390290001
 30
0.0
 11
261.2085307001893852
 21
225.8155349390289643
 31
0.0
  0
LINE
  5
1B6
100
AcDbEntity
  8
icones2
 62
256
370
9
 48
1.0
  6
BYLAYER
100
AcDbLine
 10
370.2184000000001447
 20
148.2981999999999516
 30
0.0
 11
374.6888000000001853
 21
147.6378000000001123
 31
0.0
  0
LINE
  5
1B7
100
AcDbEntity
  8
icones3
 62
256
370
9
 48
1.0
  6
BYLAYER
100
AcDbLine
 10
260.1600000000000819
 20
165.2399999999999523
 30
0.0
 11
266.9926000000000386
 21
156.1213999999999373
 31
0.0
  0
ARC
  5
1B8
100
AcDbEntity
  8
icones4
 62
256
370
9
 48
1.0
  6
BYLAYER
100
AcDbCircle
 10
258.764442337860487
 20
226.451186772889514
 30
0.0
 40
2.5253952515914873
100
AcDbArc
 50
254.9743669752875235
 51
345.4216368578448737
  0
LINE
  5
1B9
100
AcDbEntity
  8
icones2
 62
256
370
9
 48
1.0
  6
BYLAYER
100
AcDbLine
 10
374.6888000000001853
 20
147.6378000000001123
 30
0.0
 11
375.2222000000001572
 21
150.127000000000038
 31
0.0
  0
LINE
  5
1BA
100
AcDbEntity
  8
icones3
 62
256
370
9
 48
1.0
  6
BYLAYER
100
AcDbLine
 10
266.9926000000000386
 20
156.1213999999999373
 30
0.0
 11
263.8176000000001977
 21
149.5935999999998955
 31
0.0
  0
ARC
  5
1BB
100
AcDbEntity
  8
icones4
 62
256
370
9
 48
1.0
  6
BYLAYER
100
AcDbCircle
 10
258.7080290269930174
 20
226.3955290746803257
 30
0.0
 40
2.4573417535445579
100
AcDbArc
 50
163.0743813984180974
 51
255.9083422079218906
  0
LINE
  5
1BC
100
AcDbEntity
  8
icones2
 62
256
370
9
 48
1.0
  6
BYLAYER
100
AcDbLine
 10
375.2222000000001572
 20
150.127000000000038
 30
0.0
 11
370.3200000000001069
 21
150.8636000000000195
 31
0.0
  0
LINE
  5
1BD
100
AcDbEntity
  8
icones3
 62
256
370
9
 48
1.0
  6
BYLAYER
100
AcDbLine
 10
263.8176000000001977
 20
149.5935999999998955
 30
0.0
 11
257.1374000000001843
 21
148.0187999999999704
 31
0.0
  0
LINE
  5
1BE
100
AcDbEntity
  8
icones4
 62
256
370
9
 48
1.0
  6
BYLAYER
100
AcDbLine
 10
256.3571307001893729
 20
227.1109349390289935
 30
0.0
 11
259.6083307001891853
 21
239.3791349390290293
 31
0.0
  0
ARC
  5
1BF
100
AcDbEntity
  8
icones2
 62
256
370
9
 48
1.0
  6
BYLAYER
100
AcDbCircle
 10
360.0821630836575764
 20
149.8731482490271389
 30
0.0
 40
10.2856355854479098
100
AcDbArc
 50
5.5258398543677121
 51
40.6868138621757751
  0
LINE
  5
1C0
100
AcDbEntity
  8
icones3
 62
256
370
9
 48
1.0
  6
BYLAYER
100
AcDbLine
 10
257.1374000000001843
 20
148.0187999999999704
 30
0.0
 11
248.8062000000001888
 21
157.7723999999999194
 31
0.0
  0
ARC
  5
1C1
100
AcDbEntity
  8
icones4
 62
256
370
9
 48
1.0
  6
BYLAYER
100
AcDbCircle
 10
262.0524190625180836
 20
238.7434831051684796
 30
0.0
 40
2.5253952515914522
100
AcDbArc
 50
74.9743669752866708
 51
165.4216368578457548
  0
ARC
  5
1C2
100
AcDbEntity
  8
icones2
 62
256
370
9
 48
1.0
  6
BYLAYER
100
AcDbCircle
 10
351.8422915834217406
 20
165.2617471292818436
 30
0.0
 40
18.2388721841805861
100
AcDbArc
 50
331.5703620479332017
 51
29.0929680770755965
  0
LINE
  5
1C3
100
AcDbEntity
  8
icones3
 62
256
370
9
 48
1.0
  6
BYLAYER
100
AcDbLine
 10
248.8062000000001888
 20
157.7723999999999194
 30
0.0
 11
252.5400000000000773
 21
165.2399999999999523
 31
0.0
  0
LINE
  5
1C4
100
AcDbEntity
  8
icones4
 62
256
370
9
 48
1.0
  6
BYLAYER
100
AcDbLine
 10
262.7071307001893388
 20
246.2625349390290239
 30
0.0
 11
262.7071307001893388
 21
248.8025349390289307
 31
0.0
  0
SPLINE
  5
1C5
100
AcDbEntity
  8
icones2
 62
256
370
9
 48
1.0
  6
BYLAYER
100
AcDbSpline
 70
8
 71
3
 72
8
 73
4
 74
0
 40
0.0
 40
0.0
 40
0.0
 40
0.0
 40
1.0
 40
1.0
 40
1.0
 40
1.0
 10
367.7800000000000296
 20
174.1300000000000523
 30
0.0
 10
361.6840000000000828
 20
174.1300000000000523
 30
0.0
 10
355.5626000000001454
 20
167.6022000000000958
 30
0.0
 10
353.3782000000001062
 20
165.0114000000000374
 30
0.0
  0
LINE
  5
1C6
100
AcDbEntity
  8
icones3
 62
256
370
9
 48
1.0
  6
BYLAYER
100
AcDbLine
 10
235.1664000000001522
 20
163.5635999999999797
 30
0.0
 11
237.3000000000001251
 21
155.0799999999998988
 31
0.0
  0
ARC
  5
1C7
100
AcDbEntity
  8
icones4
 62
256
370
9
 48
1.0
  6
BYLAYER
100
AcDbCircle
 10
250.007130700189208
 20
248.8025349390289307
 30
0.0
 40
12.6999999999999975
100
AcDbArc
 50
0.0
 51
90.0000000000000142
  0
LINE
  5
1C8
100
AcDbEntity
  8
icones2
 62
256
370
9
 48
1.0
  6
BYLAYER
100
AcDbLine
 10
353.3782000000001062
 20
165.0114000000000374
 30
0.0
 11
350.0000000000015348
 21
165.2400000000000375
 31
0.0
  0
LINE
  5
1C9
100
AcDbEntity
  8
icones3
 62
256
370
9
 48
1.0
  6
BYLAYER
100
AcDbLine
 10
237.3000000000001251
 20
155.0799999999998988
 30
0.0
 11
234.2012
 21
147.3075999999999794
 31
0.0
  0
ARC
  5
1CA
100
AcDbEntity
  8
icones4
 62
256
370
9
 48
1.0
  6
BYLAYER
100
AcDbCircle
 10
249.9994629016991041
 20
248.7934800284181733
 30
0.0
 40
12.7090572237303228
100
AcDbArc
 50
89.9654315414149721
 51
170.6423308189228862
  0
ARC
  5
1CB
100
AcDbEntity
  8
icones2
 62
256
370
9
 48
1.0
  6
BYLAYER
100
AcDbCircle
 10
342.3800000000001091
 20
155.0799999999999841
 30
0.0
 40
2.54
100
AcDbArc
 50
0.0
 51
90.0000000000000142
  0
LINE
  5
1CC
100
AcDbEntity
  8
icones3
 62
256
370
9
 48
1.0
  6
BYLAYER
100
AcDbLine
 10
234.2012
 20
147.3075999999999794
 30
0.0
 11
227.6988000000001193
 21
145.0723999999999592
 31
0.0
  0
ARC
  5
1CD
100
AcDbEntity
  8
icones4
 62
256
370
9
 48
1.0
  6
BYLAYER
100
AcDbCircle
 10
234.7401165063219253
 20
243.4401452258736072
 30
0.0
 40
7.9024358868170932
100
AcDbArc
 50
69.871697562343698
 51
89.8041360496549714
  0
ARC
  5
1CE
100
AcDbEntity
  8
icones2
 62
256
370
9
 48
1.0
  6
BYLAYER
100
AcDbCircle
 10
342.3800000000001091
 20
155.0799999999999841
 30
0.0
 40
2.54
100
AcDbArc
 50
270.0
 51
0.0
  0
ARC
  5
1CF
100
AcDbEntity
  8
icones3
 62
256
370
9
 48
1.0
  6
BYLAYER
100
AcDbCircle
 10
249.6795635401808795
 20
150.0605484427008207
 30
0.0
 40
22.5396448662297786
100
AcDbArc
 50
180.1539143325411487
 51
192.7857256378066211
  0
ARC
  5
1D0
100
AcDbEntity
  8
icones4
 62
256
370
9
 48
1.0
  6
BYLAYER
100
AcDbCircle
 10
234.7671307001892558
 20
243.7225349390289466
 30
0.0
 40
7.6200000000000001
100
AcDbArc
 50
90.0000000000000142
 51
180.0
  0
ARC
  5
1D1
100
AcDbEntity
  8
icones2
 62
256
370
9
 48
1.0
  6
BYLAYER
100
AcDbCircle
 10
342.3800000000001091
 20
155.0799999999999841
 30
0.0
 40
2.54
100
AcDbArc
 50
180.0
 51
270.0
  0
ARC
  5
1D2
100
AcDbEntity
  8
icones3
 62
256
370
9
 48
1.0
  6
BYLAYER
100
AcDbCircle
 10
249.7659241481497929
 20
150.0272602366290471
 30
0.0
 40
22.6259405700255272
100
AcDbArc
 50
145.2357387624166734
 51
180.0690312467057481
  0
ARC
  5
1D3
100
AcDbEntity
  8
icones4
 62
256
370
9
 48
1.0
  6
BYLAYER
100
AcDbCircle
 10
234.7575558190522145
 20
243.7121263537576965
 30
0.0
 40
7.6104322366386503
100
AcDbArc
 50
179.9216380654634122
 51
240.0416406722282829
  0
ARC
  5
1D4
100
AcDbEntity
  8
icones2
 62
256
370
9
 48
1.0
  6
BYLAYER
100
AcDbCircle
 10
342.3800000000001091
 20
155.0799999999999841
 30
0.0
 40
2.54
100
AcDbArc
 50
90.0000000000000142
 51
180.0
  0
LINE
  5
1D5
100
AcDbEntity
  8
icones3
 62
256
370
9
 48
1.0
  6
BYLAYER
100
AcDbLine
 10
231.1786000000001025
 20
162.9285999999999603
 30
0.0
 11
235.1664000000001522
 21
163.5635999999999797
 31
0.0
  0
LINE
  5
1D6
100
AcDbEntity
  8
icones4
 62
256
370
9
 48
1.0
  6
BYLAYER
100
AcDbLine
 10
230.9571307001893956
 20
237.1185349390290185
 30
0.0
 11
230.9571307001893956
 21
237.143934939029009
 31
0.0
  0
ARC
  5
1D7
100
AcDbEntity
  8
icones2
 62
256
370
9
 48
1.0
  6
BYLAYER
100
AcDbCircle
 10
357.6200000000002319
 20
155.0799999999999841
 30
0.0
 40
2.54
100
AcDbArc
 50
0.0
 51
90.0000000000000142
  0
ARC
  5
1D8
100
AcDbEntity
  8
icones3
 62
256
370
9
 48
1.0
  6
BYLAYER
100
AcDbCircle
 10
250.5161030590839459
 20
150.0825990453226098
 30
0.0
 40
22.344049613008135
100
AcDbArc
 50
359.7881947297071861
 51
18.1993900678041065
  0
ARC
  5
1D9
100
AcDbEntity
  8
icones4
 62
256
370
9
 48
1.0
  6
BYLAYER
100
AcDbCircle
 10
229.7080035531391502
 20
234.939772132891278
 30
0.0
 40
2.5335059316010913
100
AcDbArc
 50
329.7677265857898306
 51
60.4592195333620879
  0
ARC
  5
1DA
100
AcDbEntity
  8
icones2
 62
256
370
9
 48
1.0
  6
BYLAYER
100
AcDbCircle
 10
357.6200000000002319
 20
155.0799999999999841
 30
0.0
 40
2.54
100
AcDbArc
 50
270.0
 51
0.0
  0
ARC
  5
1DB
100
AcDbEntity
  8
icones3
 62
256
370
9
 48
1.0
  6
BYLAYER
100
AcDbCircle
 10
250.0556830760040725
 20
150.1513111040689523
 30
0.0
 40
22.8048189078594561
100
AcDbArc
 50
333.1179742402424608
 51
359.6198368729166646
  0
ARC
  5
1DC
100
AcDbEntity
  8
icones4
 62
256
370
9
 48
1.0
  6
BYLAYER
100
AcDbCircle
 10
229.6990543786929209
 20
234.9497892736122822
 30
0.0
 40
2.5462850179481311
100
AcDbArc
 50
239.7715776463800523
 51
329.6743724771202437
  0
ARC
  5
1DD
100
AcDbEntity
  8
icones2
 62
256
370
9
 48
1.0
  6
BYLAYER
100
AcDbCircle
 10
357.6200000000002319
 20
155.0799999999999841
 30
0.0
 40
2.54
100
AcDbArc
 50
180.0
 51
270.0
  0
LINE
  5
1DE
100
AcDbEntity
  8
icones3
 62
256
370
9
 48
1.0
  6
BYLAYER
100
AcDbLine
 10
270.3962000000001353
 20
139.8399999999999466
 30
0.0
 11
267.7800000000000864
 21
139.8399999999999466
 31
0.0
  0
LINE
  5
1DF
100
AcDbEntity
  8
icones4
 62
256
370
9
 48
1.0
  6
BYLAYER
100
AcDbLine
 10
228.4171307001893183
 20
232.7497349390289401
 30
0.0
 11
228.4171307001893183
 21
232.7243349390289495
 31
0.0
  0
ARC
  5
1E0
100
AcDbEntity
  8
icones2
 62
256
370
9
 48
1.0
  6
BYLAYER
100
AcDbCircle
 10
357.6200000000002319
 20
155.0799999999999841
 30
0.0
 40
2.54
100
AcDbArc
 50
90.0000000000000142
 51
180.0
  0
LINE
  5
1E1
100
AcDbEntity
  8
icones3
 62
256
370
9
 48
1.0
  6
BYLAYER
100
AcDbLine
 10
267.7800000000000864
 20
139.8399999999999466
 30
0.0
 11
265.6464000000000851
 21
148.3235999999999422
 31
0.0
  0
ARC
  5
1E2
100
AcDbEntity
  8
icones4
 62
256
370
9
 48
1.0
  6
BYLAYER
100
AcDbCircle
 10
234.7166728297416114
 20
243.6937248521653601
 30
0.0
 40
12.6495749378554478
100
AcDbArc
 50
179.8695056695669336
 51
240.1319498920888407
  0
LINE
  5
1E3
100
AcDbEntity
  8
icones2
 62
256
370
9
 48
1.0
  6
BYLAYER
100
AcDbLine
 10
347.4600000000000932
 20
150.0
 30
0.0
 11
352.5400000000000773
 21
150.0
 31
0.0
  0
LINE
  5
1E4
100
AcDbEntity
  8
icones3
 62
256
370
9
 48
1.0
  6
BYLAYER
100
AcDbLine
 10
265.6464000000000851
 20
148.3235999999999422
 30
0.0
 11
269.4564000000001442
 21
155.9435999999999183
 31
0.0
  0
ARC
  5
1E5
100
AcDbEntity
  8
icones4
 62
256
370
9
 48
1.0
  6
BYLAYER
100
AcDbCircle
 10
234.7671307001892558
 20
243.7225349390289466
 30
0.0
 40
12.6999999999999975
100
AcDbArc
 50
90.0000000000000142
 51
180.0
  0
LINE
  5
1E6
100
AcDbEntity
  8
icones2
 62
256
370
9
 48
1.0
  6
BYLAYER
100
AcDbLine
 10
352.5400000000000773
 20
150.0
 30
0.0
 11
350.7620000000000573
 21
146.4694000000000358
 31
0.0
  0
LINE
  5
1E7
100
AcDbEntity
  8
icones3
 62
256
370
9
 48
1.0
  6
BYLAYER
100
AcDbLine
 10
269.4564000000001442
 20
155.9435999999999183
 30
0.0
 11
271.7423999999999751
 21
157.0612000000000137
 31
0.0
  0
ARC
  5
1E8
100
AcDbEntity
  8
icones4
 62
256
370
9
 48
1.0
  6
BYLAYER
100
AcDbCircle
 10
250.0465017129485545
 20
250.013478419890248
 30
0.0
 40
16.5691032953223001
100
AcDbArc
 50
90.1361446632824084
 51
157.2439903886773038
  0
ARC
  5
1E9
100
AcDbEntity
  8
icones2
 62
256
370
9
 48
1.0
  6
BYLAYER
100
AcDbCircle
 10
354.4992818440452425
 20
147.536171778257085
 30
0.0
 40
3.8865508627464256
100
AcDbArc
 50
195.9308945456348852
 51
269.1997475912296522
  0
LINE
  5
1EA
100
AcDbEntity
  8
icones3
 62
256
370
9
 48
1.0
  6
BYLAYER
100
AcDbLine
 10
239.8400000000002024
 20
155.0799999999998988
 30
0.0
 11
247.4600000000001785
 21
155.0799999999998988
 31
0.0
  0
ARC
  5
1EB
100
AcDbEntity
  8
icones4
 62
256
370
9
 48
1.0
  6
BYLAYER
100
AcDbCircle
 10
249.9767491435257227
 20
249.993260790054876
 30
0.0
 40
16.5893019693056019
100
AcDbArc
 50
4.4012436579112002
 51
89.8950687649087001
  0
ARC
  5
1EC
100
AcDbEntity
  8
icones2
 62
256
370
9
 48
1.0
  6
BYLAYER
100
AcDbCircle
 10
354.4450000000002206
 20
147.460000000000008
 30
0.0
 40
3.8100000000000001
100
AcDbArc
 50
270.0
 51
0.0
  0
LINE
  5
1ED
100
AcDbEntity
  8
icones3
 62
256
370
9
 48
1.0
  6
BYLAYER
100
AcDbLine
 10
247.4600000000001785
 20
155.0799999999998988
 30
0.0
 11
254.5974000000000785
 21
146.7487999999999317
 31
0.0
  0
LINE
  5
1EE
100
AcDbEntity
  8
icones4
 62
256
370
9
 48
1.0
  6
BYLAYER
100
AcDbLine
 10
266.5171307001892274
 20
251.2663349390290364
 30
0.0
 11
267.7871307001892092
 21
251.342534939029008
 31
0.0
  0
LINE
  5
1EF
100
AcDbEntity
  8
icones2
 62
256
370
9
 48
1.0
  6
BYLAYER
100
AcDbLine
 10
358.255000000000166
 20
147.460000000000008
 30
0.0
 11
359.5250000000000341
 21
147.460000000000008
 31
0.0
  0
LINE
  5
1F0
100
AcDbEntity
  8
icones3
 62
256
370
9
 48
1.0
  6
BYLAYER
100
AcDbLine
 10
254.5974000000000785
 20
146.7487999999999317
 30
0.0
 11
250.0
 21
139.8399999999999466
 31
0.0
  0
ARC
  5
1F1
100
AcDbEntity
  8
icones4
 62
256
370
9
 48
1.0
  6
BYLAYER
100
AcDbCircle
 10
267.7871307001892092
 20
241.1825349390290398
 30
0.0
 40
10.1600000000000001
100
AcDbArc
 50
0.0
 51
90.0000000000000142
  0
ARC
  5
1F2
100
AcDbEntity
  8
icones2
 62
256
370
9
 48
1.0
  6
BYLAYER
100
AcDbCircle
 10
354.4450000000002206
 20
147.460000000000008
 30
0.0
 40
5.0800000000000001
100
AcDbArc
 50
270.0
 51
0.0
  0
LINE
  5
1F3
100
AcDbEntity
  8
icones3
 62
256
370
9
 48
1.0
  6
BYLAYER
100
AcDbLine
 10
250.0
 20
139.8399999999999466
 30
0.0
 11
241.9736000000001752
 21
137.8588000000000022
 31
0.0
  0
ARC
  5
1F4
100
AcDbEntity
  8
icones4
 62
256
370
9
 48
1.0
  6
BYLAYER
100
AcDbCircle
 10
267.8994619838287008
 20
241.1280278386593636
 30
0.0
 40
10.0478165617073891
100
AcDbArc
 50
299.6303784894830642
 51
0.310817987487996
  0
ARC
  5
1F5
100
AcDbEntity
  8
icones2
 62
256
370
9
 48
1.0
  6
BYLAYER
100
AcDbCircle
 10
354.454681995346391
 20
147.556318491855734
 30
0.0
 40
5.1763275466455259
100
AcDbArc
 50
210.6174056231692759
 51
269.8928317829463026
  0
LINE
  5
1F6
100
AcDbEntity
  8
icones3
 62
256
370
9
 48
1.0
  6
BYLAYER
100
AcDbLine
 10
241.9736000000001752
 20
137.8588000000000022
 30
0.0
 11
236.106200000000058
 21
145.7073999999999785
 31
0.0
  0
LINE
  5
1F7
100
AcDbEntity
  8
icones4
 62
256
370
9
 48
1.0
  6
BYLAYER
100
AcDbLine
 10
272.8671307001893069
 20
232.394134939028902
 30
0.0
 11
272.8671307001893069
 21
232.394134939028902
 31
0.0
  0
LINE
  5
1F8
100
AcDbEntity
  8
icones2
 62
256
370
9
 48
1.0
  6
BYLAYER
100
AcDbLine
 10
350.0000000000015348
 20
144.9200000000001012
 30
0.0
 11
350.0000000000015348
 21
144.9200000000001012
 31
0.0
  0
LINE
  5
1F9
100
AcDbEntity
  8
icones3
 62
256
370
9
 48
1.0
  6
BYLAYER
100
AcDbLine
 10
236.106200000000058
 20
145.7073999999999785
 30
0.0
 11
239.8400000000002024
 21
155.0799999999998988
 31
0.0
  0
ARC
  5
1FA
100
AcDbEntity
  8
icones4
 62
256
370
9
 48
1.0
  6
BYLAYER
100
AcDbCircle
 10
271.5990570119246286
 20
234.6110674986977074
 30
0.0
 40
2.5539774574158947
100
AcDbArc
 50
210.003725936729353
 51
299.7693279441185155
  0
LINE
  5
1FB
100
AcDbEntity
  8
icones2
 62
256
370
9
 48
1.0
  6
BYLAYER
100
AcDbLine
 10
350.0000000000015348
 20
144.9200000000001012
 30
0.0
 11
350.0000000000015348
 21
144.9200000000001012
 31
0.0
  0
LINE
  5
1FC
100
AcDbEntity
  8
icones3
 62
256
370
9
 48
1.0
  6
BYLAYER
100
AcDbLine
 10
250.0
 20
137.2999999999999545
 30
0.0
 11
257.6200000000000045
 21
132.2199999999999704
 31
0.0
  0
ARC
  5
1FD
100
AcDbEntity
  8
icones4
 62
256
370
9
 48
1.0
  6
BYLAYER
100
AcDbCircle
 10
271.5605970128977447
 20
234.6138017012902992
 30
0.0
 40
2.5221311217093154
100
AcDbArc
 50
119.2786310189176788
 51
210.494422861930218
  0
ARC
  5
1FE
100
AcDbEntity
  8
icones2
 62
256
370
9
 48
1.0
  6
BYLAYER
100
AcDbCircle
 10
345.5453180046539501
 20
147.556318491855734
 30
0.0
 40
5.1763275466455472
100
AcDbArc
 50
270.1071682170536974
 51
329.3825943768304683
  0
LINE
  5
1FF
100
AcDbEntity
  8
icones3
 62
256
370
9
 48
1.0
  6
BYLAYER
100
AcDbLine
 10
257.6200000000000045
 20
132.2199999999999704
 30
0.0
 11
255.4102000000000317
 21
127.8511999999999773
 31
0.0
  0
LINE
  5
200
100
AcDbEntity
  8
icones4
 62
256
370
9
 48
1.0
  6
BYLAYER
100
AcDbLine
 10
270.3271307001892296
 20
236.8137349390289614
 30
0.0
 11
270.3271307001892296
 21
236.7883349390289709
 31
0.0
  0
ARC
  5
201
100
AcDbEntity
  8
icones2
 62
256
370
9
 48
1.0
  6
BYLAYER
100
AcDbCircle
 10
345.5550000000001205
 20
147.460000000000008
 30
0.0
 40
5.0800000000000001
100
AcDbArc
 50
180.0
 51
270.0
  0
ARC
  5
202
100
AcDbEntity
  8
icones3
 62
256
370
9
 48
1.0
  6
BYLAYER
100
AcDbCircle
 10
249.607069696969603
 20
151.0627590909096796
 30
0.0
 40
23.9259858050769196
100
AcDbArc
 50
270.9409961331364798
 51
284.0368022701437098
  0
ARC
  5
203
100
AcDbEntity
  8
icones4
 62
256
370
9
 48
1.0
  6
BYLAYER
100
AcDbCircle
 10
267.8279379139120238
 20
241.1641590929464201
 30
0.0
 40
5.0392262907104781
100
AcDbArc
 50
299.7322634586525965
 51
0.208933018317057
  0
LINE
  5
204
100
AcDbEntity
  8
icones2
 62
256
370
9
 48
1.0
  6
BYLAYER
100
AcDbLine
 10
340.4750000000001364
 20
147.460000000000008
 30
0.0
 11
341.7450000000001751
 21
147.460000000000008
 31
0.0
  0
ARC
  5
205
100
AcDbEntity
  8
icones3
 62
256
370
9
 48
1.0
  6
BYLAYER
100
AcDbCircle
 10
249.9520893271041189
 20
149.6293885428792407
 30
0.0
 40
22.4894395765027113
100
AcDbArc
 50
237.7005893898058275
 51
270.1220609085269189
  0
ARC
  5
206
100
AcDbEntity
  8
icones4
 62
256
370
9
 48
1.0
  6
BYLAYER
100
AcDbCircle
 10
267.7871307001892092
 20
241.1825349390290398
 30
0.0
 40
5.0800000000000001
100
AcDbArc
 50
0.0
 51
90.0000000000000142
  0
ARC
  5
207
100
AcDbEntity
  8
icones2
 62
256
370
9
 48
1.0
  6
BYLAYER
100
AcDbCircle
 10
345.5550000000001205
 20
147.460000000000008
 30
0.0
 40
3.8100000000000001
100
AcDbArc
 50
180.0
 51
270.0
  0
LINE
  5
208
100
AcDbEntity
  8
icones3
 62
256
370
9
 48
1.0
  6
BYLAYER
100
AcDbLine
 10
237.9350000000001444
 20
130.6197999999999695
 30
0.0
 11
240.8814000000000703
 21
134.9885999999999626
 31
0.0
  0
LINE
  5
209
100
AcDbEntity
  8
icones4
 62
256
370
9
 48
1.0
  6
BYLAYER
100
AcDbLine
 10
267.7871307001892092
 20
246.2625349390290239
 30
0.0
 11
262.7071307001893388
 21
246.2625349390290239
 31
0.0
  0
ARC
  5
20A
100
AcDbEntity
  8
icones2
 62
256
370
9
 48
1.0
  6
BYLAYER
100
AcDbCircle
 10
345.5007181559549281
 20
147.536171778257085
 30
0.0
 40
3.8865508627464309
100
AcDbArc
 50
270.8002524087703478
 51
344.069105454365058
  0
LINE
  5
20B
100
AcDbEntity
  8
icones3
 62
256
370
9
 48
1.0
  6
BYLAYER
100
AcDbLine
 10
240.8814000000000703
 20
134.9885999999999626
 30
0.0
 11
250.0
 21
137.2999999999999545
 31
0.0
  0
LINE
  5
20C
100
AcDbEntity
  8
icones4
 62
256
370
9
 48
1.0
  6
BYLAYER
100
AcDbLine
 10
324.5999999999997385
 20
266.5099999999998204
 30
0.0
 11
344.9199999999998454
 21
266.5099999999998204
 31
0.0
  0
LINE
  5
20D
100
AcDbEntity
  8
icones2
 62
256
370
9
 48
1.0
  6
BYLAYER
100
AcDbLine
 10
349.2380000000001132
 20
146.4694000000000358
 30
0.0
 11
347.4600000000000932
 21
150.0
 31
0.0
  0
LINE
  5
20E
100
AcDbEntity
  8
icones3
 62
256
370
9
 48
1.0
  6
BYLAYER
100
AcDbLine
 10
267.7800000000000864
 20
137.2999999999999545
 30
0.0
 11
269.0499999999999545
 21
137.2999999999999545
 31
0.0
  0
ARC
  5
20F
100
AcDbEntity
  8
icones4
 62
256
370
9
 48
1.0
  6
BYLAYER
100
AcDbCircle
 10
349.9999999999996589
 20
266.5099999999998204
 30
0.0
 40
5.0800000000000001
100
AcDbArc
 50
90.0000000000000142
 51
180.0
  0
ARC
  5
210
100
AcDbEntity
  8
icones2
 62
256
370
9
 48
1.0
  6
BYLAYER
100
AcDbCircle
 10
433.7105509350730017
 20
125.0639007491901253
 30
0.0
 40
2.7940000000000005
100
AcDbArc
 50
180.0
 51
270.0
  0
ARC
  5
211
100
AcDbEntity
  8
icones3
 62
256
370
9
 48
1.0
  6
BYLAYER
100
AcDbCircle
 10
250.0075642930439699
 20
150.2712415006425886
 30
0.0
 40
23.0405612718430248
100
AcDbArc
 50
291.3809573558220336
 51
325.7382660735827926
  0
ARC
  5
212
100
AcDbEntity
  8
icones4
 62
256
370
9
 48
1.0
  6
BYLAYER
100
AcDbCircle
 10
349.9999999999996589
 20
266.5099999999998204
 30
0.0
 40
5.0800000000000001
100
AcDbArc
 50
0.0
 51
90.0000000000000142
  0
LINE
  5
213
100
AcDbEntity
  8
icones2
 62
256
370
9
 48
1.0
  6
BYLAYER
100
AcDbLine
 10
433.7105509350730017
 20
122.2699007491900431
 30
0.0
 11
467.238550935072908
 21
122.2699007491900431
 31
0.0
  0
LINE
  5
214
100
AcDbEntity
  8
icones3
 62
256
370
9
 48
1.0
  6
BYLAYER
100
AcDbLine
 10
258.4074000000001661
 20
128.8163999999999589
 30
0.0
 11
260.1600000000000819
 21
132.2199999999999704
 31
0.0
  0
LINE
  5
215
100
AcDbEntity
  8
icones4
 62
256
370
9
 48
1.0
  6
BYLAYER
100
AcDbLine
 10
355.0799999999998136
 20
266.5099999999998204
 30
0.0
 11
375.3999999999997499
 21
266.5099999999998204
 31
0.0
  0
ARC
  5
216
100
AcDbEntity
  8
icones2
 62
256
370
9
 48
1.0
  6
BYLAYER
100
AcDbCircle
 10
467.238550935072908
 20
125.0639007491901253
 30
0.0
 40
2.7940000000000005
100
AcDbArc
 50
270.0
 51
0.0
  0
LINE
  5
217
100
AcDbEntity
  8
icones3
 62
256
370
9
 48
1.0
  6
BYLAYER
100
AcDbLine
 10
260.1600000000000819
 20
132.2199999999999704
 30
0.0
 11
267.7800000000000864
 21
137.2999999999999545
 31
0.0
  0
LINE
  5
218
100
AcDbEntity
  8
icones4
 62
256
370
9
 48
1.0
  6
BYLAYER
100
AcDbLine
 10
375.3999999999997499
 20
266.5099999999998204
 30
0.0
 11
375.3999999999997499
 21
261.4299999999998363
 31
0.0
  0
ARC
  5
219
100
AcDbEntity
  8
icones2
 62
256
370
9
 48
1.0
  6
BYLAYER
100
AcDbCircle
 10
467.1964801923952564
 20
125.0439978830813885
 30
0.0
 40
2.8361405785947702
100
AcDbArc
 50
0.4020814753607023
 51
34.6490552720850573
  0
LINE
  5
21A
100
AcDbEntity
  8
icones3
 62
256
370
9
 48
1.0
  6
BYLAYER
100
AcDbLine
 10
78.1741978856538537
 20
239.5645355590117447
 30
0.0
 11
34.849278034462202
 21
239.5645355590117447
 31
0.0
  0
LINE
  5
21B
100
AcDbEntity
  8
icones4
 62
256
370
9
 48
1.0
  6
BYLAYER
100
AcDbLine
 10
375.3999999999997499
 20
261.4299999999998363
 30
0.0
 11
372.8599999999998431
 21
261.4299999999998363
 31
0.0
  0
LINE
  5
21C
100
AcDbEntity
  8
icones2
 62
256
370
9
 48
1.0
  6
BYLAYER
100
AcDbLine
 10
469.5296309350729871
 20
126.656480749190095
 30
0.0
 11
453.2685509350728807
 21
154.8200007491900294
 31
0.0
  0
SPLINE
  5
21D
100
AcDbEntity
  8
icones3
 62
256
370
9
 48
1.0
  6
BYLAYER
100
AcDbSpline
 70
8
 71
3
 72
8
 73
4
 74
0
 40
0.0
 40
0.0
 40
0.0
 40
0.0
 40
1.0
 40
1.0
 40
1.0
 40
1.0
 10
34.849278034462202
 20
239.5645355590117447
 30
0.0
 10
32.8059777751072943
 20
239.5645355590117447
 30
0.0
 10
30.3683002130047157
 20
243.1349792099022693
 30
0.0
 10
30.3683002130047157
 20
245.4607840859004568
 30
0.0
  0
LINE
  5
21E
100
AcDbEntity
  8
icones4
 62
256
370
9
 48
1.0
  6
BYLAYER
100
AcDbLine
 10
372.8599999999998431
 20
261.4299999999998363
 30
0.0
 11
372.8599999999998431
 21
233.4899999999998386
 31
0.0
  0
LINE
  5
21F
100
AcDbEntity
  8
icones2
 62
256
370
9
 48
1.0
  6
BYLAYER
100
AcDbLine
 10
453.2685509350728807
 20
154.8200007491900294
 30
0.0
 11
453.2685509350728807
 21
166.973900749189994
 31
0.0
  0
LINE
  5
220
100
AcDbEntity
  8
icones3
 62
256
370
9
 48
1.0
  6
BYLAYER
100
AcDbLine
 10
30.3683002130047157
 20
245.4607840859004568
 30
0.0
 11
30.6069162350839008
 21
257.0520486512914431
 31
0.0
  0
LINE
  5
221
100
AcDbEntity
  8
icones4
 62
256
370
9
 48
1.0
  6
BYLAYER
100
AcDbLine
 10
372.8599999999998431
 20
233.4899999999998386
 30
0.0
 11
358.2549999999996544
 21
233.4899999999998386
 31
0.0
  0
LINE
  5
222
100
AcDbEntity
  8
icones2
 62
256
370
9
 48
1.0
  6
BYLAYER
100
AcDbLine
 10
453.2685509350728807
 20
166.973900749189994
 30
0.0
 11
447.6805509350728585
 21
166.973900749189994
 31
0.0
  0
SPLINE
  5
223
100
AcDbEntity
  8
icones3
 62
256
370
9
 48
1.0
  6
BYLAYER
100
AcDbSpline
 70
8
 71
3
 72
8
 73
4
 74
0
 40
0.0
 40
0.0
 40
0.0
 40
0.0
 40
1.0
 40
1.0
 40
1.0
 40
1.0
 10
30.6069162350839008
 20
257.0520486512914431
 30
0.0
 10
31.15688770072137
 20
261.4340212408087609
 30
0.0
 10
32.6703044269852398
 20
265.4431891920995099
 30
0.0
 10
34.1713638262638142
 20
269.4571376996920549
 30
0.0
  0
LINE
  5
224
100
AcDbEntity
  8
icones4
 62
256
370
9
 48
1.0
  6
BYLAYER
100
AcDbLine
 10
358.2549999999996544
 20
233.4899999999998386
 30
0.0
 11
362.6999999999998749
 21
218.2499999999998863
 31
0.0
  0
LINE
  5
225
100
AcDbEntity
  8
icones2
 62
256
370
9
 48
1.0
  6
BYLAYER
100
AcDbLine
 10
447.6805509350728585
 20
166.973900749189994
 30
0.0
 11
447.6805509350728585
 21
154.8200007491900294
 31
0.0
  0
SPLINE
  5
226
100
AcDbEntity
  8
icones3
 62
256
370
9
 48
1.0
  6
BYLAYER
100
AcDbSpline
 70
8
 71
3
 72
8
 73
4
 74
0
 40
0.0
 40
0.0
 40
0.0
 40
0.0
 40
1.0
 40
1.0
 40
1.0
 40
1.0
 10
34.1713638262638142
 20
269.4571376996920549
 30
0.0
 10
34.5394228954565961
 20
270.2960859540116871
 30
0.0
 10
34.9818043107065364
 20
271.1158440923306898
 30
0.0
 10
35.8810575670300977
 20
271.1158440923306898
 30
0.0
  0
LINE
  5
227
100
AcDbEntity
  8
icones4
 62
256
370
9
 48
1.0
  6
BYLAYER
100
AcDbLine
 10
362.6999999999998749
 20
218.2499999999998863
 30
0.0
 11
357.6199999999997203
 21
218.2499999999998863
 31
0.0
  0
LINE
  5
228
100
AcDbEntity
  8
icones2
 62
256
370
9
 48
1.0
  6
BYLAYER
100
AcDbLine
 10
447.6805509350728585
 20
154.8200007491900294
 30
0.0
 11
431.4194709350729227
 21
126.656480749190095
 31
0.0
  0
LINE
  5
229
100
AcDbEntity
  8
icones3
 62
256
370
9
 48
1.0
  6
BYLAYER
100
AcDbLine
 10
35.8810575670300977
 20
271.1158440923306898
 30
0.0
 11
51.5804434454536818
 21
271.1158440923306898
 31
0.0
  0
LINE
  5
22A
100
AcDbEntity
  8
icones4
 62
256
370
9
 48
1.0
  6
BYLAYER
100
AcDbLine
 10
357.6199999999997203
 20
218.2499999999998863
 30
0.0
 11
353.1749999999998408
 21
233.4899999999998386
 31
0.0
  0
ARC
  5
22B
100
AcDbEntity
  8
icones2
 62
256
370
9
 48
1.0
  6
BYLAYER
100
AcDbCircle
 10
433.7526216777508807
 20
125.0439978830812038
 30
0.0
 40
2.8361405785949119
100
AcDbArc
 50
145.350944727915504
 51
179.5979185246374925
  0
SPLINE
  5
22C
100
AcDbEntity
  8
icones3
 62
256
370
9
 48
1.0
  6
BYLAYER
100
AcDbSpline
 70
8
 71
3
 72
8
 73
4
 74
0
 40
0.0
 40
0.0
 40
0.0
 40
0.0
 40
1.0
 40
1.0
 40
1.0
 40
1.0
 10
51.5804434454536818
 20
271.1158440923306898
 30
0.0
 10
53.0063711979714185
 20
270.4010965081182576
 30
0.0
 10
54.5481998243437545
 20
269.856006762277616
 30
0.0
 10
55.1975237482877787
 20
268.0044685835326845
 30
0.0
  0
LINE
  5
22D
100
AcDbEntity
  8
icones4
 62
256
370
9
 48
1.0
  6
BYLAYER
100
AcDbLine
 10
353.1749999999998408
 20
233.4899999999998386
 30
0.0
 11
346.8249999999998181
 21
233.4899999999998386
 31
0.0
  0
ARC
  5
22E
100
AcDbEntity
  8
icones2
 62
256
370
9
 48
1.0
  6
BYLAYER
100
AcDbCircle
 10
433.7105509350730017
 20
125.0639007491901253
 30
0.0
 40
8.3820000000000014
100
AcDbArc
 50
180.0
 51
270.0
  0
SPLINE
  5
22F
100
AcDbEntity
  8
icones3
 62
256
370
9
 48
1.0
  6
BYLAYER
100
AcDbSpline
 70
8
 71
3
 72
8
 73
4
 74
0
 40
0.0
 40
0.0
 40
0.0
 40
0.0
 40
1.0
 40
1.0
 40
1.0
 40
1.0
 10
55.1975237482877787
 20
268.0044685835326845
 30
0.0
 10
59.703165525063838
 20
255.6675548427918159
 30
0.0
 10
68.6053343132134898
 20
249.7709720843067203
 30
0.0
 10
78.8134891096918295
 20
247.6902592379290127
 30
0.0
  0
LINE
  5
230
100
AcDbEntity
  8
icones4
 62
256
370
9
 48
1.0
  6
BYLAYER
100
AcDbLine
 10
346.8249999999998181
 20
233.4899999999998386
 30
0.0
 11
342.3799999999997681
 21
218.2499999999998863
 31
0.0
  0
ARC
  5
231
100
AcDbEntity
  8
icones2
 62
256
370
9
 48
1.0
  6
BYLAYER
100
AcDbCircle
 10
433.3762073688296255
 20
125.0866682848474909
 30
0.0
 40
8.0476886393836171
100
AcDbArc
 50
145.7312760400056675
 51
180.1620944225944356
  0
LINE
  5
232
100
AcDbEntity
  8
icones3
 62
256
370
9
 48
1.0
  6
BYLAYER
100
AcDbLine
 10
78.8134891096918295
 20
247.6902592379290127
 30
0.0
 11
78.8214694530572046
 21
240.2210228158708958
 31
0.0
  0
LINE
  5
233
100
AcDbEntity
  8
icones4
 62
256
370
9
 48
1.0
  6
BYLAYER
100
AcDbLine
 10
342.3799999999997681
 20
218.2499999999998863
 30
0.0
 11
337.2999999999999545
 21
218.2499999999998863
 31
0.0
  0
LINE
  5
234
100
AcDbEntity
  8
icones2
 62
256
370
9
 48
1.0
  6
BYLAYER
100
AcDbLine
 10
426.7255509350729881
 20
129.6181207491901262
 30
0.0
 11
442.0925509350730636
 21
156.3287607491900246
 31
0.0
  0
ELLIPSE
  5
235
100
AcDbEntity
  8
icones3
 62
256
370
9
 48
1.0
  6
BYLAYER
100
AcDbEllipse
 10
78.0986580337961982
 20
240.3798745567475521
 30
0.0
 11
0.0
 21
-0.8196584127541011
 31
0.0
 40
0.8988870572579851
 41
0.1027074433083936
 42
1.375759801966262
  0
LINE
  5
236
100
AcDbEntity
  8
icones4
 62
256
370
9
 48
1.0
  6
BYLAYER
100
AcDbLine
 10
337.2999999999999545
 20
218.2499999999998863
 30
0.0
 11
341.7449999999996635
 21
233.4899999999998386
 31
0.0
  0
LINE
  5
237
100
AcDbEntity
  8
icones2
 62
256
370
9
 48
1.0
  6
BYLAYER
100
AcDbLine
 10
442.0925509350730636
 20
156.3287607491900246
 30
0.0
 11
442.0925509350730636
 21
161.3859007491901139
 31
0.0
  0
SPLINE
  5
238
100
AcDbEntity
  8
icones3
 62
256
370
9
 48
1.0
  6
BYLAYER
100
AcDbSpline
 70
8
 71
3
 72
8
 73
4
 74
0
 40
0.0
 40
0.0
 40
0.0
 40
0.0
 40
1.0
 40
1.0
 40
1.0
 40
1.0
 10
37.7343430342646684
 20
276.5899221831031696
 30
0.0
 10
37.142244744297443
 20
276.5899221831031696
 30
0.0
 10
37.1603648180563368
 20
275.3104420621312443
 30
0.0
 10
37.7343430342646684
 20
275.3104418532366253
 30
0.0
  0
LINE
  5
239
100
AcDbEntity
  8
icones4
 62
256
370
9
 48
1.0
  6
BYLAYER
100
AcDbLine
 10
341.7449999999996635
 20
233.4899999999998386
 30
0.0
 11
327.1399999999998158
 21
233.4899999999998386
 31
0.0
  0
ARC
  5
23A
100
AcDbEntity
  8
icones2
 62
256
370
9
 48
1.0
  6
BYLAYER
100
AcDbCircle
 10
442.0925509350730636
 20
164.1799007491900113
 30
0.0
 40
2.7940000000000005
100
AcDbArc
 50
180.0
 51
270.0
  0
LINE
  5
23B
100
AcDbEntity
  8
icones3
 62
256
370
9
 48
1.0
  6
BYLAYER
100
AcDbLine
 10
37.7343430342646684
 20
275.3104418532366253
 30
0.0
 11
40.2868793312645721
 21
275.3104418532366253
 31
0.0
  0
LINE
  5
23C
100
AcDbEntity
  8
icones4
 62
256
370
9
 48
1.0
  6
BYLAYER
100
AcDbLine
 10
327.1399999999998158
 20
233.4899999999998386
 30
0.0
 11
327.1399999999998158
 21
261.4299999999998363
 31
0.0
  0
LINE
  5
23D
100
AcDbEntity
  8
icones2
 62
256
370
9
 48
1.0
  6
BYLAYER
100
AcDbLine
 10
439.2985509350729671
 20
164.1799007491900113
 30
0.0
 11
439.2985509350729671
 21
166.973900749189994
 31
0.0
  0
SPLINE
  5
23E
100
AcDbEntity
  8
icones3
 62
256
370
9
 48
1.0
  6
BYLAYER
100
AcDbSpline
 70
8
 71
3
 72
8
 73
4
 74
0
 40
0.0
 40
0.0
 40
0.0
 40
0.0
 40
1.0
 40
1.0
 40
1.0
 40
1.0
 10
40.2868793312645721
 20
275.3104418532366253
 30
0.0
 10
42.4448355309090744
 20
274.3404541325587047
 30
0.0
 10
43.718712392991165
 20
272.9609769314258756
 30
0.0
 10
44.3122584111312108
 20
271.1064350551031339
 30
0.0
  0
LINE
  5
23F
100
AcDbEntity
  8
icones4
 62
256
370
9
 48
1.0
  6
BYLAYER
100
AcDbLine
 10
327.1399999999998158
 20
261.4299999999998363
 30
0.0
 11
324.5999999999997385
 21
261.4299999999998363
 31
0.0
  0
ARC
  5
240
100
AcDbEntity
  8
icones2
 62
256
370
9
 48
1.0
  6
BYLAYER
100
AcDbCircle
 10
444.8865509350729894
 20
166.973900749189994
 30
0.0
 40
5.588000000000001
100
AcDbArc
 50
90.0000000000000142
 51
180.0
  0
LINE
  5
241
100
AcDbEntity
  8
icones3
 62
256
370
9
 48
1.0
  6
BYLAYER
100
AcDbLine
 10
44.3122584111312108
 20
271.1064350551031339
 30
0.0
 11
45.2921976331979579
 21
271.1064350551031339
 31
0.0
  0
LINE
  5
242
100
AcDbEntity
  8
icones4
 62
256
370
9
 48
1.0
  6
BYLAYER
100
AcDbLine
 10
324.5999999999997385
 20
261.4299999999998363
 30
0.0
 11
324.5999999999997385
 21
266.5099999999998204
 31
0.0
  0
LINE
  5
243
100
AcDbEntity
  8
icones2
 62
256
370
9
 48
1.0
  6
BYLAYER
100
AcDbLine
 10
444.8865509350729894
 20
172.5619007491899879
 30
0.0
 11
456.0625509350729203
 21
172.5619007491899879
 31
0.0
  0
LINE
  5
244
100
AcDbEntity
  8
icones3
 62
256
370
9
 48
1.0
  6
BYLAYER
100
AcDbLine
 10
45.2921976331979579
 20
271.1064350551031339
 30
0.0
 11
45.2921976331979579
 21
271.1129630159699104
 31
0.0
  0
LINE
  5
245
100
AcDbEntity
  8
icones4
 62
256
370
9
 48
1.0
  6
BYLAYER
100
AcDbLine
 10
332.2199999999997999
 20
261.4299999999998363
 30
0.0
 11
332.2199999999997999
 21
238.5699999999998226
 31
0.0
  0
ARC
  5
246
100
AcDbEntity
  8
icones2
 62
256
370
9
 48
1.0
  6
BYLAYER
100
AcDbCircle
 10
456.0625509350729203
 20
166.973900749189994
 30
0.0
 40
5.588000000000001
100
AcDbArc
 50
0.0
 51
90.0000000000000142
  0
LINE
  5
247
100
AcDbEntity
  8
icones3
 62
256
370
9
 48
1.0
  6
BYLAYER
100
AcDbLine
 10
45.2921976331979579
 20
271.1129630159699104
 30
0.0
 11
46.2604010561979067
 21
271.1129630159699104
 31
0.0
  0
LINE
  5
248
100
AcDbEntity
  8
icones4
 62
256
370
9
 48
1.0
  6
BYLAYER
100
AcDbLine
 10
332.2199999999997999
 20
238.5699999999998226
 30
0.0
 11
367.779999999999859
 21
238.5699999999998226
 31
0.0
  0
LINE
  5
249
100
AcDbEntity
  8
icones2
 62
256
370
9
 48
1.0
  6
BYLAYER
100
AcDbLine
 10
461.6505509350729426
 20
166.973900749189994
 30
0.0
 11
461.6505509350729426
 21
164.1799007491900113
 31
0.0
  0
SPLINE
  5
24A
100
AcDbEntity
  8
icones3
 62
256
370
9
 48
1.0
  6
BYLAYER
100
AcDbSpline
 70
8
 71
3
 72
8
 73
4
 74
0
 40
0.0
 40
0.0
 40
0.0
 40
0.0
 40
1.0
 40
1.0
 40
1.0
 40
1.0
 10
46.2604010561979067
 20
271.1129630159699104
 30
0.0
 10
46.8539264193316285
 20
272.9674428505522883
 30
0.0
 10
48.1279572550976127
 20
274.3404595638220371
 30
0.0
 10
50.2857801360646306
 20
275.3104418532366253
 30
0.0
  0
LINE
  5
24B
100
AcDbEntity
  8
icones4
 62
256
370
9
 48
1.0
  6
BYLAYER
100
AcDbLine
 10
367.779999999999859
 20
238.5699999999998226
 30
0.0
 11
367.779999999999859
 21
261.4299999999998363
 31
0.0
  0
ARC
  5
24C
100
AcDbEntity
  8
icones2
 62
256
370
9
 48
1.0
  6
BYLAYER
100
AcDbCircle
 10
458.8565509350730167
 20
164.1799007491900113
 30
0.0
 40
2.7940000000000005
100
AcDbArc
 50
270.0
 51
0.0
  0
LINE
  5
24D
100
AcDbEntity
  8
icones3
 62
256
370
9
 48
1.0
  6
BYLAYER
100
AcDbLine
 10
50.2857801360646306
 20
275.3104418532366253
 30
0.0
 11
52.77963743773131
 21
275.3104418532366253
 31
0.0
  0
LINE
  5
24E
100
AcDbEntity
  8
icones4
 62
256
370
9
 48
1.0
  6
BYLAYER
100
AcDbLine
 10
367.779999999999859
 20
261.4299999999998363
 30
0.0
 11
332.2199999999997999
 21
261.4299999999998363
 31
0.0
  0
LINE
  5
24F
100
AcDbEntity
  8
icones2
 62
256
370
9
 48
1.0
  6
BYLAYER
100
AcDbLine
 10
458.8565509350730167
 20
161.3859007491901139
 30
0.0
 11
458.8565509350730167
 21
156.3287607491900246
 31
0.0
  0
SPLINE
  5
250
100
AcDbEntity
  8
icones3
 62
256
370
9
 48
1.0
  6
BYLAYER
100
AcDbSpline
 70
8
 71
3
 72
8
 73
4
 74
0
 40
0.0
 40
0.0
 40
0.0
 40
0.0
 40
1.0
 40
1.0
 40
1.0
 40
1.0
 10
52.77963743773131
 20
275.3104418532366253
 30
0.0
 10
53.3951603826355381
 20
275.3104418532366253
 30
0.0
 10
53.3019931598690277
 20
276.5899221831031696
 30
0.0
 10
52.77963743773131
 20
276.5899221831031696
 30
0.0
  0
LINE
  5
251
100
AcDbEntity
  8
icones2
 62
256
370
9
 48
1.0
  6
BYLAYER
100
AcDbLine
 10
458.8565509350730167
 20
156.3287607491900246
 30
0.0
 11
474.2235509350729217
 21
129.6181207491901262
 31
0.0
  0
LINE
  5
252
100
AcDbEntity
  8
icones3
 62
256
370
9
 48
1.0
  6
BYLAYER
100
AcDbLine
 10
52.77963743773131
 20
276.5899221831031696
 30
0.0
 11
37.7343430342646684
 21
276.5899221831031696
 31
0.0
  0
ARC
  5
253
100
AcDbEntity
  8
icones2
 62
256
370
9
 48
1.0
  6
BYLAYER
100
AcDbCircle
 10
467.5728945013162843
 20
125.0866682848474909
 30
0.0
 40
8.0476886393837965
100
AcDbArc
 50
359.8379055774100834
 51
34.268723959994027
  0
LINE
  5
254
100
AcDbEntity
  8
icones3
 62
256
370
9
 48
1.0
  6
BYLAYER
100
AcDbLine
 10
42.9274341212646107
 20
275.3104418532366253
 30
0.0
 11
47.6334895469979642
 21
275.3104418532366253
 31
0.0
  0
ARC
  5
255
100
AcDbEntity
  8
icones2
 62
256
370
9
 48
1.0
  6
BYLAYER
100
AcDbCircle
 10
467.238550935072908
 20
125.0639007491901253
 30
0.0
 40
8.3820000000000014
100
AcDbArc
 50
270.0
 51
0.0
  0
SPLINE
  5
256
100
AcDbEntity
  8
icones3
 62
256
370
9
 48
1.0
  6
BYLAYER
100
AcDbSpline
 70
8
 71
3
 72
8
 73
4
 74
0
 40
0.0
 40
0.0
 40
0.0
 40
0.0
 40
1.0
 40
1.0
 40
1.0
 40
1.0
 10
47.6334895469979642
 20
275.3104418532366253
 30
0.0
 10
46.6189362897320621
 20
274.3598754950448892
 30
0.0
 10
45.5210438372700423
 20
273.3930963976921475
 30
0.0
 10
45.5210457149979675
 20
271.9093742417031763
 30
0.0
  0
LINE
  5
257
100
AcDbEntity
  8
icones2
 62
256
370
9
 48
1.0
  6
BYLAYER
100
AcDbLine
 10
467.238550935072908
 20
116.681900749189964
 30
0.0
 11
433.7105509350730017
 21
116.681900749189964
 31
0.0
  0
LINE
  5
258
100
AcDbEntity
  8
icones3
 62
256
370
9
 48
1.0
  6
BYLAYER
100
AcDbLine
 10
45.5210457149979675
 20
271.9093742417031763
 30
0.0
 11
45.2921976331979579
 21
271.9093742417031763
 31
0.0
  0
LINE
  5
259
100
AcDbEntity
  8
icones2
 62
256
370
9
 48
1.0
  6
BYLAYER
100
AcDbLine
 10
451.5822506666548293
 20
44.6138453333450826
 30
0.0
 11
448.5369599999881984
 21
44.6138453333450826
 31
0.0
  0
LINE
  5
25A
100
AcDbEntity
  8
icones3
 62
256
370
9
 48
1.0
  6
BYLAYER
100
AcDbLine
 10
45.2921976331979579
 20
271.9093742417031763
 30
0.0
 11
45.0516137523313205
 21
271.9093742417031763
 31
0.0
  0
ARC
  5
25B
100
AcDbEntity
  8
icones2
 62
256
370
9
 48
1.0
  6
BYLAYER
100
AcDbCircle
 10
437.0037729144184482
 20
40.8004182699133793
 30
0.0
 40
12.1472890110865421
100
AcDbArc
 50
18.2963731602495585
 51
26.9433567358301858
  0
SPLINE
  5
25C
100
AcDbEntity
  8
icones3
 62
256
370
9
 48
1.0
  6
BYLAYER
100
AcDbSpline
 70
8
 71
3
 72
8
 73
4
 74
0
 40
0.0
 40
0.0
 40
0.0
 40
0.0
 40
1.0
 40
1.0
 40
1.0
 40
1.0
 10
45.0516137523313205
 20
271.9093742417031763
 30
0.0
 10
45.0516081191477156
 20
273.3977430524608394
 30
0.0
 10
43.9446312193441599
 20
274.356973320314637
 30
0.0
 10
42.9274341212646107
 20
275.3104418532366253
 30
0.0
  0
LINE
  5
25D
100
AcDbEntity
  8
icones2
 62
256
370
9
 48
1.0
  6
BYLAYER
100
AcDbLine
 10
447.8325333333215212
 20
46.3044693333450397
 30
0.0
 11
449.9999999999882334
 21
48.4719360000117518
 31
0.0
  0
LINE
  5
25E
100
AcDbEntity
  8
icones3
 62
256
370
9
 48
1.0
  6
BYLAYER
100
AcDbLine
 10
33.3322598261807173
 20
260.4830843033346355
 30
0.0
 11
53.0650520710326532
 21
260.4830843033346355
 31
0.0
  0
ARC
  5
25F
100
AcDbEntity
  8
icones2
 62
256
370
9
 48
1.0
  6
BYLAYER
100
AcDbCircle
 10
449.2314822060488382
 20
49.2359680000117521
 30
0.0
 40
1.0836809939394185
100
AcDbArc
 50
315.1677050413140933
 51
44.8322949586856367
  0
SPLINE
  5
260
100
AcDbEntity
  8
icones3
 62
256
370
9
 48
1.0
  6
BYLAYER
100
AcDbSpline
 70
8
 71
3
 72
8
 73
4
 74
0
 40
0.0
 40
0.0
 40
0.0
 40
0.0
 40
1.0
 40
1.0
 40
1.0
 40
1.0
 10
53.0650520710326532
 20
260.4830843033346355
 30
0.0
 10
53.5442256857885468
 20
260.4830843033346355
 30
0.0
 10
53.7228764689566844
 20
261.584567507605243
 30
0.0
 10
53.4961671191785797
 20
262.2730093940250526
 30
0.0
  0
LINE
  5
261
100
AcDbEntity
  8
icones2
 62
256
370
9
 48
1.0
  6
BYLAYER
100
AcDbLine
 10
449.9999999999882334
 20
50.0000000000117097
 30
0.0
 11
446.0985599999882538
 21
53.901440000011732
 31
0.0
  0
SPLINE
  5
262
100
AcDbEntity
  8
icones3
 62
256
370
9
 48
1.0
  6
BYLAYER
100
AcDbSpline
 70
8
 71
3
 72
8
 73
4
 74
0
 40
0.0
 40
0.0
 40
0.0
 40
0.0
 40
1.0
 40
1.0
 40
1.0
 40
1.0
 10
53.4961671191785797
 20
262.2730093940250526
 30
0.0
 10
52.7837797053698807
 20
264.3914626277915545
 30
0.0
 10
51.9145175182772505
 20
268.5323230504220078
 30
0.0
 10
50.9273321444347857
 20
268.5323230504220078
 30
0.0
  0
ARC
  5
263
100
AcDbEntity
  8
icones2
 62
256
370
9
 48
1.0
  6
BYLAYER
100
AcDbCircle
 10
445.3345279999882109
 20
53.1329222060722941
 30
0.0
 40
1.0836809939394147
100
AcDbArc
 50
45.1677050413136953
 51
134.8322949586860773
  0
LINE
  5
264
100
AcDbEntity
  8
icones3
 62
256
370
9
 48
1.0
  6
BYLAYER
100
AcDbLine
 10
50.9273321444347857
 20
268.5323230504220078
 30
0.0
 11
35.757749056804613
 21
268.5323230504220078
 31
0.0
  0
LINE
  5
265
100
AcDbEntity
  8
icones2
 62
256
370
9
 48
1.0
  6
BYLAYER
100
AcDbLine
 10
444.570495999988168
 20
53.901440000011732
 30
0.0
 11
442.4030293333216264
 21
51.7339733333450624
 31
0.0
  0
SPLINE
  5
266
100
AcDbEntity
  8
icones3
 62
256
370
9
 48
1.0
  6
BYLAYER
100
AcDbSpline
 70
8
 71
3
 72
8
 73
4
 74
0
 40
0.0
 40
0.0
 40
0.0
 40
0.0
 40
1.0
 40
1.0
 40
1.0
 40
1.0
 10
35.757749056804613
 20
268.5323230504220078
 30
0.0
 10
34.935732380162591
 20
268.5323230504220078
 30
0.0
 10
33.8392820226898721
 20
264.3247665038404648
 30
0.0
 10
32.8800485056325442
 20
262.2209883349970596
 30
0.0
  0
ARC
  5
267
100
AcDbEntity
  8
icones2
 62
256
370
9
 48
1.0
  6
BYLAYER
100
AcDbCircle
 10
437.0703502144364734
 20
40.9561510345914428
 30
0.0
 40
12.0249291095001141
100
AcDbArc
 50
63.6745947946538777
 51
72.2069921460912383
  0
SPLINE
  5
268
100
AcDbEntity
  8
icones3
 62
256
370
9
 48
1.0
  6
BYLAYER
100
AcDbSpline
 70
8
 71
3
 72
8
 73
4
 74
0
 40
0.0
 40
0.0
 40
0.0
 40
0.0
 40
1.0
 40
1.0
 40
1.0
 40
1.0
 10
32.8800485056325442
 20
262.2209883349970596
 30
0.0
 10
32.6895041942582907
 20
261.3848223498225707
 30
0.0
 10
32.8782477646237794
 20
260.4830843033346355
 30
0.0
 10
33.3322598261807173
 20
260.4830843033346355
 30
0.0
  0
LINE
  5
269
100
AcDbEntity
  8
icones2
 62
256
370
9
 48
1.0
  6
BYLAYER
100
AcDbLine
 10
440.7449173333216095
 20
52.4058880000117142
 30
0.0
 11
440.7449173333216095
 21
55.4511786666783877
 31
0.0
  0
ELLIPSE
  5
26A
100
AcDbEntity
  8
icones3
 62
256
370
9
 48
1.0
  6
BYLAYER
100
AcDbEllipse
 10
35.1165971265305075
 20
250.0000005987165537
 30
0.0
 11
0.0
 21
-2.0050201165317296
 31
0.0
 40
0.8988870572579953
 41
0.0000001405772735
 42
1.570796186952619
  0
ARC
  5
26B
100
AcDbEntity
  8
icones2
 62
256
370
9
 48
1.0
  6
BYLAYER
100
AcDbCircle
 10
439.6611357807436775
 20
55.4511304474338971
 30
0.0
 40
1.0837815536505262
100
AcDbArc
 50
0.0025491846800882
 51
89.9974508154399331
  0
ELLIPSE
  5
26C
100
AcDbEntity
  8
icones3
 62
256
370
9
 48
1.0
  6
BYLAYER
100
AcDbEllipse
 10
35.1165961564519193
 20
250.0000010444737768
 30
0.0
 11
0.0
 21
-2.005020562289404
 31
0.0
 40
0.8988870572580032
 41
4.7123893435203588
 42
0.0000006791072407
  0
LINE
  5
26D
100
AcDbEntity
  8
icones2
 62
256
370
9
 48
1.0
  6
BYLAYER
100
AcDbLine
 10
439.6611839999881681
 20
56.5349120000117438
 30
0.0
 11
434.1124693333215419
 21
56.5349120000117438
 31
0.0
  0
ELLIPSE
  5
26E
100
AcDbEntity
  8
icones3
 62
256
370
9
 48
1.0
  6
BYLAYER
100
AcDbEllipse
 10
35.1165961564519193
 20
249.9999995889687909
 30
0.0
 11
0.0
 21
2.0050205622894808
 31
0.0
 40
0.8988870572579987
 41
6.2831846280723456
 42
1.5707959639063429
  0
ARC
  5
26F
100
AcDbEntity
  8
icones2
 62
256
370
9
 48
1.0
  6
BYLAYER
100
AcDbCircle
 10
434.1125175525660325
 20
55.4511304474338544
 30
0.0
 40
1.083781553650528
100
AcDbArc
 50
90.0025491845600953
 51
179.9974508153199224
  0
ELLIPSE
  5
270
100
AcDbEntity
  8
icones3
 62
256
370
9
 48
1.0
  6
BYLAYER
100
AcDbEllipse
 10
35.1165971265305075
 20
250.0000000347260993
 30
0.0
 11
0.0
 21
-2.0050201165316568
 31
0.0
 40
0.8988870572579976
 41
1.5707964666371743
 42
3.1415925122249657
  0
LINE
  5
271
100
AcDbEntity
  8
icones2
 62
256
370
9
 48
1.0
  6
BYLAYER
100
AcDbLine
 10
433.028735999988271
 20
55.4511786666783877
 30
0.0
 11
433.028735999988271
 21
52.2866773333450681
 31
0.0
  0
ELLIPSE
  5
272
100
AcDbEntity
  8
icones3
 62
256
370
9
 48
1.0
  6
BYLAYER
100
AcDbEllipse
 10
50.0000009700785029
 20
249.9999995542427769
 30
0.0
 11
0.0
 21
-2.0050201165317296
 31
0.0
 40
0.8988870572579953
 41
0.0000001413648275
 42
1.570796186952619
  0
ARC
  5
273
100
AcDbEntity
  8
icones2
 62
256
370
9
 48
1.0
  6
BYLAYER
100
AcDbCircle
 10
436.9373212303475498
 20
40.795010373192099
 30
0.0
 40
12.1381814134595345
100
AcDbArc
 50
108.784372401897997
 51
116.9526176474016097
  0
ELLIPSE
  5
274
100
AcDbEntity
  8
icones3
 62
256
370
9
 48
1.0
  6
BYLAYER
100
AcDbEllipse
 10
50.0
 20
250.0
 30
0.0
 11
0.0
 21
-2.005020562289404
 31
0.0
 40
0.8988870572580032
 41
4.7123893435203579
 42
0.0000006791072407
  0
LINE
  5
275
100
AcDbEntity
  8
icones2
 62
256
370
9
 48
1.0
  6
BYLAYER
100
AcDbLine
 10
431.4356479999881344
 20
51.6147626666783736
 30
0.0
 11
429.181482666654972
 21
53.8579552000117161
 31
0.0
  0
ELLIPSE
  5
276
100
AcDbEntity
  8
icones3
 62
256
370
9
 48
1.0
  6
BYLAYER
100
AcDbEllipse
 10
50.0
 20
249.9999985444950994
 30
0.0
 11
0.0
 21
2.0050205622894808
 31
0.0
 40
0.8988870572579987
 41
6.2831846280723456
 42
1.5707959639063434
  0
ARC
  5
277
100
AcDbEntity
  8
icones2
 62
256
370
9
 48
1.0
  6
BYLAYER
100
AcDbCircle
 10
428.4174506666549291
 20
53.0894374060723209
 30
0.0
 40
1.0836809939393919
100
AcDbArc
 50
45.1677050413125656
 51
134.8322949586874131
  0
ELLIPSE
  5
278
100
AcDbEntity
  8
icones3
 62
256
370
9
 48
1.0
  6
BYLAYER
100
AcDbEllipse
 10
50.0000009700784176
 20
249.9999989902523225
 30
0.0
 11
0.0
 21
-2.0050201165316568
 31
0.0
 40
0.8988870572579976
 41
1.5707964666371743
 42
3.1415925138045107
  0
LINE
  5
279
100
AcDbEntity
  8
icones2
 62
256
370
9
 48
1.0
  6
BYLAYER
100
AcDbLine
 10
427.6534186666548862
 20
53.8579552000117161
 30
0.0
 11
423.7628159999882769
 21
49.967488000011727
 31
0.0
  0
LINE
  5
27A
100
AcDbEntity
  8
icones3
 62
256
370
9
 48
1.0
  6
BYLAYER
100
AcDbLine
 10
60.2181887199446919
 20
255.8410502865742728
 30
0.0
 11
60.2181887199446919
 21
248.5464268951989482
 31
0.0
  0
ARC
  5
27B
100
AcDbEntity
  8
icones2
 62
256
370
9
 48
1.0
  6
BYLAYER
100
AcDbCircle
 10
424.5313337939276721
 20
49.2034560000117267
 30
0.0
 40
1.083680993939411
100
AcDbArc
 50
135.1677050413137238
 51
224.8322949586863331
  0
LINE
  5
27C
100
AcDbEntity
  8
icones3
 62
256
370
9
 48
1.0
  6
BYLAYER
100
AcDbLine
 10
60.2181887199446919
 20
248.5464268951989482
 30
0.0
 11
57.2171608812686543
 21
250.0785257324469626
 31
0.0
  0
LINE
  5
27D
100
AcDbEntity
  8
icones2
 62
256
370
9
 48
1.0
  6
BYLAYER
100
AcDbLine
 10
423.7628159999882769
 20
48.4394240000117264
 30
0.0
 11
426.0386559999881797
 21
46.1635840000117383
 31
0.0
  0
ELLIPSE
  5
27E
100
AcDbEntity
  8
icones3
 62
256
370
9
 48
1.0
  6
BYLAYER
100
AcDbEllipse
 10
144.2337330605756165
 20
258.5490051931388393
 30
0.0
 11
0.0
 21
-97.1746687828389781
 31
0.0
 40
0.8988870572579923
 41
4.7033104649915911
 42
4.7996673125011666
  0
ARC
  5
27F
100
AcDbEntity
  8
icones2
 62
256
370
9
 48
1.0
  6
BYLAYER
100
AcDbCircle
 10
436.8891881878559502
 20
40.6996298326078829
 30
0.0
 40
12.1486148964992964
100
AcDbArc
 50
153.2717494252071049
 51
161.2043160059209299
  0
SPLINE
  5
280
100
AcDbEntity
  8
icones3
 62
256
370
9
 48
1.0
  6
BYLAYER
100
AcDbSpline
 70
8
 71
3
 72
8
 73
4
 74
0
 40
0.0
 40
0.0
 40
0.0
 40
0.0
 40
1.0
 40
1.0
 40
1.0
 40
1.0
 10
56.8882806036800446
 20
259.4311948011234108
 30
0.0
 10
57.9981548375571663
 20
258.2341965623992337
 30
0.0
 10
59.1891431591273545
 20
256.5918221878227996
 30
0.0
 10
60.2181887199446919
 20
255.8410502865742728
 30
0.0
  0
LINE
  5
281
100
AcDbEntity
  8
icones2
 62
256
370
9
 48
1.0
  6
BYLAYER
100
AcDbLine
 10
425.3884159999881831
 20
44.6138453333450826
 30
0.0
 11
422.1372159999882001
 21
44.6138453333450826
 31
0.0
  0
LINE
  5
282
100
AcDbEntity
  8
icones3
 62
256
370
9
 48
1.0
  6
BYLAYER
100
AcDbLine
 10
64.7608423903851644
 20
251.8621651801781809
 30
0.0
 11
64.8046234929512366
 21
246.247905762202123
 31
0.0
  0
ARC
  5
283
100
AcDbEntity
  8
icones2
 62
256
370
9
 48
1.0
  6
BYLAYER
100
AcDbCircle
 10
422.1372642192326907
 20
43.5300637807672359
 30
0.0
 40
1.0837815536505264
100
AcDbArc
 50
90.0025491845598964
 51
179.9974508153199224
  0
LINE
  5
284
100
AcDbEntity
  8
icones3
 62
256
370
9
 48
1.0
  6
BYLAYER
100
AcDbLine
 10
64.8046234929512366
 20
246.247905762202123
 30
0.0
 11
61.9349408397015111
 21
247.585181001924127
 31
0.0
  0
LINE
  5
285
100
AcDbEntity
  8
icones2
 62
256
370
9
 48
1.0
  6
BYLAYER
100
AcDbLine
 10
421.0534826666549293
 20
43.5301120000117265
 30
0.0
 11
421.0534826666549293
 21
38.013909333345083
 31
0.0
  0
LINE
  5
286
100
AcDbEntity
  8
icones3
 62
256
370
9
 48
1.0
  6
BYLAYER
100
AcDbLine
 10
61.9349408397015111
 20
247.585181001924127
 30
0.0
 11
61.9344207090868792
 21
254.1372420556368183
 31
0.0
  0
ARC
  5
287
100
AcDbEntity
  8
icones2
 62
256
370
9
 48
1.0
  6
BYLAYER
100
AcDbCircle
 10
422.1372642192326907
 20
38.0139575525895737
 30
0.0
 40
1.0837815536505189
100
AcDbArc
 50
180.0025491846800776
 51
269.9974508153199508
  0
SPLINE
  5
288
100
AcDbEntity
  8
icones3
 62
256
370
9
 48
1.0
  6
BYLAYER
100
AcDbSpline
 70
8
 71
3
 72
8
 73
4
 74
0
 40
0.0
 40
0.0
 40
0.0
 40
0.0
 40
1.0
 40
1.0
 40
1.0
 40
1.0
 10
61.9344207090868792
 20
254.1372420556368183
 30
0.0
 10
63.1756382506623879
 20
252.9645967666034494
 30
0.0
 10
63.6880157270016696
 20
252.7347018298804358
 30
0.0
 10
64.7608423903851644
 20
251.8621651801781809
 30
0.0
  0
LINE
  5
289
100
AcDbEntity
  8
icones2
 62
256
370
9
 48
1.0
  6
BYLAYER
100
AcDbLine
 10
422.1372159999882001
 20
36.930176000011727
 30
0.0
 11
425.3884159999881831
 21
36.930176000011727
 31
0.0
  0
LINE
  5
28A
100
AcDbEntity
  8
icones3
 62
256
370
9
 48
1.0
  6
BYLAYER
100
AcDbLine
 10
66.2419941189909594
 20
250.8653319776795456
 30
0.0
 11
66.2419941189909594
 21
245.8542394322037126
 31
0.0
  0
ARC
  5
28B
100
AcDbEntity
  8
icones2
 62
256
370
9
 48
1.0
  6
BYLAYER
100
AcDbCircle
 10
436.8838569433893895
 20
40.6918392436483174
 30
0.0
 40
12.0952582792492986
100
AcDbArc
 50
198.1196944573018186
 51
206.1627817829653395
  0
ELLIPSE
  5
28C
100
AcDbEntity
  8
icones3
 62
256
370
9
 48
1.0
  6
BYLAYER
100
AcDbEllipse
 10
69.6743744164767236
 20
253.4360625448229314
 30
0.0
 11
0.0
 21
-8.4890997537706507
 31
0.0
 40
0.8988870572579936
 41
5.8166332609819635
 42
6.2004421588281513
  0
LINE
  5
28D
100
AcDbEntity
  8
icones2
 62
256
370
9
 48
1.0
  6
BYLAYER
100
AcDbLine
 10
426.0278186666548095
 20
35.3587626666784161
 30
0.0
 11
423.7628159999882769
 21
33.0612480000117301
 31
0.0
  0
LINE
  5
28E
100
AcDbEntity
  8
icones3
 62
256
370
9
 48
1.0
  6
BYLAYER
100
AcDbLine
 10
69.0437030240465788
 20
244.9760062227307458
 30
0.0
 11
69.0437030240465788
 21
249.5910322375566466
 31
0.0
  0
ARC
  5
28F
100
AcDbEntity
  8
icones2
 62
256
370
9
 48
1.0
  6
BYLAYER
100
AcDbCircle
 10
424.5313337939276721
 20
32.2972160000117725
 30
0.0
 40
1.0836809939394072
100
AcDbArc
 50
135.1677050413135532
 51
224.8322949586865036
  0
LINE
  5
290
100
AcDbEntity
  8
icones3
 62
256
370
9
 48
1.0
  6
BYLAYER
100
AcDbLine
 10
69.0437030240465788
 20
249.5910322375566466
 30
0.0
 11
66.2419941189909594
 21
250.8653319776795456
 31
0.0
  0
LINE
  5
291
100
AcDbEntity
  8
icones2
 62
256
370
9
 48
1.0
  6
BYLAYER
100
AcDbLine
 10
423.7628159999882769
 20
31.5331840000117296
 30
0.0
 11
427.6642559999882565
 21
27.63174400001175
 31
0.0
  0
LINE
  5
292
100
AcDbEntity
  8
icones3
 62
256
370
9
 48
1.0
  6
BYLAYER
100
AcDbLine
 10
70.2046326781833443
 20
248.9711036504983497
 30
0.0
 11
70.2046326781833443
 21
244.5971609750839662
 31
0.0
  0
ARC
  5
293
100
AcDbEntity
  8
icones2
 62
256
370
9
 48
1.0
  6
BYLAYER
100
AcDbCircle
 10
428.4282879999882994
 20
28.4002617939511453
 30
0.0
 40
1.0836809939393861
100
AcDbArc
 50
225.1677050413123027
 51
314.8322949586876689
  0
ELLIPSE
  5
294
100
AcDbEntity
  8
icones3
 62
256
370
9
 48
1.0
  6
BYLAYER
100
AcDbEllipse
 10
72.5300849707990949
 20
251.8345910380299131
 30
0.0
 11
0.0
 21
-7.6859055478446692
 31
0.0
 40
0.8988870572579925
 41
5.9398870789069775
 42
6.2692218170252101
  0
LINE
  5
295
100
AcDbEntity
  8
icones2
 62
256
370
9
 48
1.0
  6
BYLAYER
100
AcDbLine
 10
429.1923199999881717
 20
27.63174400001175
 30
0.0
 11
431.4356479999881344
 21
29.8750720000117127
 31
0.0
  0
LINE
  5
296
100
AcDbEntity
  8
icones3
 62
256
370
9
 48
1.0
  6
BYLAYER
100
AcDbLine
 10
72.4336176892350068
 20
244.149434773319598
 30
0.0
 11
72.4336176892350068
 21
248.3339558693843685
 31
0.0
  0
ARC
  5
297
100
AcDbEntity
  8
icones2
 62
256
370
9
 48
1.0
  6
BYLAYER
100
AcDbCircle
 10
436.9650139364260326
 20
40.7604828062973752
 30
0.0
 40
12.2092610784043671
100
AcDbArc
 50
243.0711992266701316
 51
251.1918107240309155
  0
LINE
  5
298
100
AcDbEntity
  8
icones3
 62
256
370
9
 48
1.0
  6
BYLAYER
100
AcDbLine
 10
72.4336176892350068
 20
248.3339558693843685
 30
0.0
 11
70.2046326781833443
 21
248.9711036504983497
 31
0.0
  0
LINE
  5
299
100
AcDbEntity
  8
icones2
 62
256
370
9
 48
1.0
  6
BYLAYER
100
AcDbLine
 10
433.028735999988271
 20
29.2031573333450609
 30
0.0
 11
433.028735999988271
 21
26.0386560000117413
 31
0.0
  0
LINE
  5
29A
100
AcDbEntity
  8
icones3
 62
256
370
9
 48
1.0
  6
BYLAYER
100
AcDbLine
 10
73.5790673549708458
 20
247.9034488616757699
 30
0.0
 11
73.5790673549708458
 21
243.9772323880256693
 31
0.0
  0
ARC
  5
29B
100
AcDbEntity
  8
icones2
 62
256
370
9
 48
1.0
  6
BYLAYER
100
AcDbCircle
 10
434.1125175525660325
 20
26.0387042192562745
 30
0.0
 40
1.0837815536505262
100
AcDbArc
 50
180.0025491846800776
 51
269.9974508153199508
  0
ELLIPSE
  5
29C
100
AcDbEntity
  8
icones3
 62
256
370
9
 48
1.0
  6
BYLAYER
100
AcDbEllipse
 10
75.122206856532614
 20
249.7628263215851803
 30
0.0
 11
0.0
 21
6.0349177949622064
 31
0.0
 40
0.8988870572579952
 41
2.8531444202965468
 42
3.1938570705980909
  0
LINE
  5
29D
100
AcDbEntity
  8
icones2
 62
256
370
9
 48
1.0
  6
BYLAYER
100
AcDbLine
 10
434.1124693333215419
 20
24.9549226666783852
 30
0.0
 11
439.628671999988228
 21
24.9549226666783852
 31
0.0
  0
LINE
  5
29E
100
AcDbEntity
  8
icones3
 62
256
370
9
 48
1.0
  6
BYLAYER
100
AcDbLine
 10
75.4055970780611915
 20
243.7361490486140667
 30
0.0
 11
75.4055970780611915
 21
247.5073823310258376
 31
0.0
  0
ARC
  5
29F
100
AcDbEntity
  8
icones2
 62
256
370
9
 48
1.0
  6
BYLAYER
100
AcDbCircle
 10
439.6286237807437374
 20
26.0387042192562745
 30
0.0
 40
1.0837815536505262
100
AcDbArc
 50
270.0025491845600527
 51
359.9974508153199508
  0
LINE
  5
2A0
100
AcDbEntity
  8
icones3
 62
256
370
9
 48
1.0
  6
BYLAYER
100
AcDbLine
 10
75.4055970780611915
 20
247.5073823310258376
 30
0.0
 11
73.5790673549708458
 21
247.9034488616757699
 31
0.0
  0
LINE
  5
2A1
100
AcDbEntity
  8
icones2
 62
256
370
9
 48
1.0
  6
BYLAYER
100
AcDbLine
 10
440.7124053333214988
 20
26.0386560000117413
 30
0.0
 11
440.7124053333214988
 21
29.1381333333450954
 31
0.0
  0
LINE
  5
2A2
100
AcDbEntity
  8
icones3
 62
256
370
9
 48
1.0
  6
BYLAYER
100
AcDbLine
 10
76.38077626002638
 20
247.300739468673072
 30
0.0
 11
76.38077626002638
 21
243.5811658573758223
 31
0.0
  0
ARC
  5
2A3
100
AcDbEntity
  8
icones2
 62
256
370
9
 48
1.0
  6
BYLAYER
100
AcDbCircle
 10
437.016002647001244
 20
40.6417548442110785
 30
0.0
 40
12.0829094461844768
100
AcDbArc
 50
287.8135170265591682
 51
296.3048960326935912
  0
LINE
  5
2A4
100
AcDbEntity
  8
icones3
 62
256
370
9
 48
1.0
  6
BYLAYER
100
AcDbLine
 10
76.38077626002638
 20
243.5811658573758223
 30
0.0
 11
77.8512850271747538
 21
243.3056420409054681
 31
0.0
  0
LINE
  5
2A5
100
AcDbEntity
  8
icones2
 62
256
370
9
 48
1.0
  6
BYLAYER
100
AcDbLine
 10
442.3705173333215157
 20
29.8100480000117471
 30
0.0
 11
444.5379839999882279
 21
27.6425813333450776
 31
0.0
  0
LINE
  5
2A6
100
AcDbEntity
  8
icones3
 62
256
370
9
 48
1.0
  6
BYLAYER
100
AcDbLine
 10
77.8512850271747538
 20
243.3056420409054681
 30
0.0
 11
77.8512850271747538
 21
247.0768774122647073
 31
0.0
  0
ARC
  5
2A7
100
AcDbEntity
  8
icones2
 62
256
370
9
 48
1.0
  6
BYLAYER
100
AcDbCircle
 10
445.3020159999882708
 20
28.4110991272844728
 30
0.0
 40
1.0836809939393997
100
AcDbArc
 50
225.1677050413132406
 51
314.8322949586873278
  0
LINE
  5
2A8
100
AcDbEntity
  8
icones3
 62
256
370
9
 48
1.0
  6
BYLAYER
100
AcDbLine
 10
77.8512850271747538
 20
247.0768774122647073
 30
0.0
 11
76.38077626002638
 21
247.300739468673072
 31
0.0
  0
LINE
  5
2A9
100
AcDbEntity
  8
icones2
 62
256
370
9
 48
1.0
  6
BYLAYER
100
AcDbLine
 10
446.0660479999881431
 20
27.6425813333450776
 30
0.0
 11
449.9674879999881227
 21
31.5440213333450998
 31
0.0
  0
LINE
  5
2AA
100
AcDbEntity
  8
icones3
 62
256
370
9
 48
1.0
  6
BYLAYER
100
AcDbLine
 10
30.3699150589563089
 20
236.4440867068460079
 30
0.0
 11
34.1130528655892533
 21
236.4440867068460079
 31
0.0
  0
ARC
  5
2AB
100
AcDbEntity
  8
icones2
 62
256
370
9
 48
1.0
  6
BYLAYER
100
AcDbCircle
 10
449.1989702060487275
 20
32.3080533333450575
 30
0.0
 40
1.0836809939394225
100
AcDbArc
 50
315.167705041313809
 51
44.8322949586862407
  0
LINE
  5
2AC
100
AcDbEntity
  8
icones3
 62
256
370
9
 48
1.0
  6
BYLAYER
100
AcDbLine
 10
34.1130528655892533
 20
236.4440867068460079
 30
0.0
 11
34.1130528655892533
 21
238.5294161271486075
 31
0.0
  0
LINE
  5
2AD
100
AcDbEntity
  8
0
 62
256
370
13
 48
1.0
  6
BYLAYER
100
AcDbLine
 10
167.4500000000007276
 20
167.4500000000005286
 30
0.0
 11
170.0000000000001137
 21
169.9999999999999432
 31
0.0
  0
LINE
  5
2AE
100
AcDbEntity
  8
icones2
 62
256
370
9
 48
1.0
  6
BYLAYER
100
AcDbLine
 10
449.9674879999881227
 20
33.0720853333450577
 30
0.0
 11
447.8000213333215811
 21
35.2395520000117273
 31
0.0
  0
LINE
  5
2AF
100
AcDbEntity
  8
icones3
 62
256
370
9
 48
1.0
  6
BYLAYER
100
AcDbLine
 10
34.1130528655892533
 20
238.5294161271486075
 30
0.0
 11
39.7530187705858111
 21
238.5294161271486075
 31
0.0
  0
LINE
  5
2B0
100
AcDbEntity
  8
0
 62
256
370
13
 48
1.0
  6
BYLAYER
100
AcDbLine
 10
0.0000000000000842
 20
169.9999999999999147
 30
0.0
 11
2.5500000000001077
 21
167.4499999999999034
 31
0.0
  0
LINE
  5
2B1
100
AcDbEntity
  8
0
 62
256
370
13
 48
1.0
  6
BYLAYER
100
AcDbLine
 10
170.0000000000000853
 20
-0.0000000000000945
 30
0.0
 11
172.5500000000001251
 21
2.5499999999999297
 31
0.0
  0
LINE
  5
2B2
100
AcDbEntity
  8
0
 62
256
370
13
 48
1.0
  6
BYLAYER
100
AcDbLine
 10
0.0000000000000846
 20
169.9999999999999147
 30
0.0
 11
-2.5500000000000118
 21
167.4499999999999318
 31
0.0
  0
LINE
  5
2B3
100
AcDbEntity
  8
0
 62
256
370
13
 48
1.0
  6
BYLAYER
100
AcDbLine
 10
-0.0000000000001208
 20
0.000000000000135
 30
0.0
 11
2.5499999999999035
 21
2.5500000000001832
 31
0.0
  0
ARC
  5
2B4
100
AcDbEntity
  8
icones2
 62
256
370
9
 48
1.0
  6
BYLAYER
100
AcDbCircle
 10
437.0742479711964279
 20
40.7006917897862053
 30
0.0
 40
12.0360401303390177
100
AcDbArc
 50
333.0166042321193345
 51
341.7436658717991236
  0
LINE
  5
2B5
100
AcDbEntity
  8
icones3
 62
256
370
9
 48
1.0
  6
BYLAYER
100
AcDbLine
 10
39.7530187705858111
 20
238.5294161271486075
 30
0.0
 11
39.7530187705858111
 21
236.4692021223660277
 31
0.0
  0
LINE
  5
2B6
100
AcDbEntity
  8
0
 62
256
370
13
 48
1.0
  6
BYLAYER
100
AcDbLine
 10
-0.0000000000001208
 20
0.000000000000135
 30
0.0
 11
2.549999999999879
 21
-2.5499999999999496
 31
0.0
  0
LINE
  5
2B7
100
AcDbEntity
  8
0
 62
256
370
13
 48
1.0
  6
BYLAYER
100
AcDbLine
 10
170.0000000000001421
 20
-0.0000000000001186
 30
0.0
 11
167.4500000000001592
 21
2.5499999999999052
 31
0.0
  0
LINE
  5
2B8
100
AcDbEntity
  8
0
 62
256
370
13
 48
1.0
  6
BYLAYER
100
AcDbLine
 10
170.0000000000000853
 20
170.000000000000199
 30
0.0
 11
167.4499999999998465
 21
172.5500000000000966
 31
0.0
  0
LINE
  5
2B9
100
AcDbEntity
  8
icones2
 62
256
370
9
 48
1.0
  6
BYLAYER
100
AcDbLine
 10
448.5044479999882583
 20
36.930176000011727
 30
0.0
 11
451.5497386666548891
 21
36.930176000011727
 31
0.0
  0
LINE
  5
2BA
100
AcDbEntity
  8
icones3
 62
256
370
9
 48
1.0
  6
BYLAYER
100
AcDbLine
 10
39.7530187705858111
 20
236.4692021223660277
 30
0.0
 11
48.016042797469936
 21
236.4692021223660277
 31
0.0
  0
ARC
  5
2BB
100
AcDbEntity
  8
icones2
 62
256
370
9
 48
1.0
  6
BYLAYER
100
AcDbCircle
 10
451.5496904474103985
 20
38.0139575525895737
 30
0.0
 40
1.0837815536505262
100
AcDbArc
 50
270.0025491846801629
 51
359.9974508153199508
  0
LINE
  5
2BC
100
AcDbEntity
  8
icones3
 62
256
370
9
 48
1.0
  6
BYLAYER
100
AcDbLine
 10
48.016042797469936
 20
236.4692021223660277
 30
0.0
 11
48.016042797469936
 21
238.5356328348411523
 31
0.0
  0
LINE
  5
2BD
100
AcDbEntity
  8
icones2
 62
256
370
9
 48
1.0
  6
BYLAYER
100
AcDbLine
 10
452.63347199998816
 20
38.013909333345083
 30
0.0
 11
452.63347199998816
 21
43.5301120000117265
 31
0.0
  0
LINE
  5
2BE
100
AcDbEntity
  8
icones3
 62
256
370
9
 48
1.0
  6
BYLAYER
100
AcDbLine
 10
48.016042797469936
 20
238.5356328348411523
 30
0.0
 11
78.8306515422469261
 21
238.5356328348411523
 31
0.0
  0
ARC
  5
2BF
100
AcDbEntity
  8
icones2
 62
256
370
9
 48
1.0
  6
BYLAYER
100
AcDbCircle
 10
451.5496786059454166
 20
43.5305414211234307
 30
0.0
 40
1.0837934791156019
100
AcDbArc
 50
359.9772982413583122
 51
88.2777875128377048
  0
LINE
  5
2C0
100
AcDbEntity
  8
icones3
 62
256
370
9
 48
1.0
  6
BYLAYER
100
AcDbLine
 10
78.8306515422469261
 20
238.5356328348411523
 30
0.0
 11
78.8306515422469261
 21
236.4378699991534631
 31
0.0
  0
ARC
  5
2C1
100
AcDbEntity
  8
icones2
 62
256
370
9
 48
1.0
  6
BYLAYER
100
AcDbCircle
 10
436.8760512168915398
 20
40.7122079831083852
 30
0.0
 40
6.0689685505521709
100
AcDbArc
 50
90.0005842289925795
 51
179.9994157717332541
  0
SPLINE
  5
2C2
100
AcDbEntity
  8
icones3
 62
256
370
9
 48
1.0
  6
BYLAYER
100
AcDbSpline
 70
8
 71
3
 72
8
 73
4
 74
0
 40
0.0
 40
0.0
 40
0.0
 40
0.0
 40
1.0
 40
1.0
 40
1.0
 40
1.0
 10
78.8306515422469261
 20
236.4378699991534631
 30
0.0
 10
70.1473507123709226
 20
236.0849882797025145
 30
0.0
 10
61.3015607029374223
 20
235.8095793553434305
 30
0.0
 10
56.7068920933056688
 20
233.5073190063621666
 30
0.0
  0
ARC
  5
2C3
100
AcDbEntity
  8
icones2
 62
256
370
9
 48
1.0
  6
BYLAYER
100
AcDbCircle
 10
436.8760512168915398
 20
40.7123317502484525
 30
0.0
 40
6.0689685505522082
100
AcDbArc
 50
180.0005842282667743
 51
269.9994157704855411
  0
LINE
  5
2C4
100
AcDbEntity
  8
icones3
 62
256
370
9
 48
1.0
  6
BYLAYER
100
AcDbLine
 10
56.7068920933056688
 20
233.5073190063621666
 30
0.0
 11
30.3643269408726724
 21
233.5073190063621666
 31
0.0
  0
ARC
  5
2C5
100
AcDbEntity
  8
icones2
 62
256
370
9
 48
1.0
  6
BYLAYER
100
AcDbCircle
 10
436.8759274497514298
 20
40.7123317502484525
 30
0.0
 40
6.0689685505522508
100
AcDbArc
 50
270.0005842289933184
 51
359.9994157704855411
  0
LINE
  5
2C6
100
AcDbEntity
  8
icones3
 62
256
370
9
 48
1.0
  6
BYLAYER
100
AcDbLine
 10
30.3643269408726724
 20
233.5073190063621666
 30
0.0
 11
30.3699150589563089
 21
236.4440867068460079
 31
0.0
  0
ARC
  5
2C7
100
AcDbEntity
  8
icones2
 62
256
370
9
 48
1.0
  6
BYLAYER
100
AcDbCircle
 10
436.8652378135310528
 20
40.7015183468880934
 30
0.0
 40
6.0796676931663853
100
AcDbArc
 50
0.1013241281451961
 51
89.8986758718534418
  0
ARC
  5
2C8
100
AcDbEntity
  8
icones2
 62
256
370
9
 48
1.0
  6
BYLAYER
100
AcDbCircle
 10
479.5601027470827944
 20
59.5297851809874743
 30
0.0
 40
1.0754858429484149
100
AcDbArc
 50
10.9876577994472751
 51
13.7809100168632135
  0
LINE
  5
2C9
100
AcDbEntity
  8
icones2
 62
256
370
9
 48
1.0
  6
BYLAYER
100
AcDbLine
 10
480.6046293333215544
 20
59.7859765333450639
 30
0.0
 11
479.4341973333214924
 21
65.1287818666783807
 31
0.0
  0
ARC
  5
2CA
100
AcDbEntity
  8
icones2
 62
256
370
9
 48
1.0
  6
BYLAYER
100
AcDbCircle
 10
478.3763126878220646
 20
64.8938303471901889
 30
0.0
 40
1.0836614506816109
100
AcDbArc
 50
12.5218937245673754
 51
102.3489892804875296
  0
LINE
  5
2CB
100
AcDbEntity
  8
hach
 62
256
370
-1
 48
1.0
  6
BYLAYER
100
AcDbLine
 10
2.5500000000001051
 20
167.4499999999999318
 30
0.0
 11
2.5500000000000358
 21
82.4499999999998749
 31
0.0
  0
LINE
  5
2CC
100
AcDbEntity
  8
hach
 62
256
370
-1
 48
1.0
  6
BYLAYER
100
AcDbLine
 10
2.549999999999879
 20
2.5500000000001832
 30
0.0
 11
87.5499999999998693
 21
2.5500000000001228
 31
0.0
  0
LINE
  5
2CD
100
AcDbEntity
  8
hach
 62
256
370
-1
 48
1.0
  6
BYLAYER
100
AcDbLine
 10
167.4500000000001592
 20
2.5499999999998813
 30
0.0
 11
167.4500000000001592
 21
87.5499999999998977
 31
0.0
  0
LINE
  5
2CE
100
AcDbEntity
  8
hach
 62
256
370
-1
 48
1.0
  6
BYLAYER
100
AcDbLine
 10
167.4499999999998749
 20
167.4500000000001023
 30
0.0
 11
82.4499999999998323
 21
167.4500000000001307
 31
0.0
  0
LINE
  5
2CF
100
AcDbEntity
  8
icones2
 62
256
370
9
 48
1.0
  6
BYLAYER
100
AcDbLine
 10
478.1445546666548694
 20
65.9524192000117466
 30
0.0
 11
475.1751253333214891
 21
65.30217920001175
 31
0.0
  0
ARC
  5
2D0
100
AcDbEntity
  8
icones2
 62
256
370
9
 48
1.0
  6
BYLAYER
100
AcDbCircle
 10
464.8918776498561556
 20
58.9909834487082776
 30
0.0
 40
12.0655035009222562
100
AcDbArc
 50
31.5389244968843308
 51
40.3180803487613915
  0
LINE
  5
2D1
100
AcDbEntity
  8
icones2
 62
256
370
9
 48
1.0
  6
BYLAYER
100
AcDbLine
 10
474.0913919999882182
 20
66.7977312000117678
 30
0.0
 11
475.7820159999881753
 21
69.3770165333450564
 31
0.0
  0
ARC
  5
2D2
100
AcDbEntity
  8
icones2
 62
256
370
9
 48
1.0
  6
BYLAYER
100
AcDbCircle
 10
474.8695625549912052
 20
69.9617722192153195
 30
0.0
 40
1.0837483570665063
100
AcDbArc
 50
327.3457799747948229
 51
57.183767480990177
  0
LINE
  5
2D3
100
AcDbEntity
  8
icones2
 62
256
370
9
 48
1.0
  6
BYLAYER
100
AcDbLine
 10
475.4568959999882622
 20
70.8725685333450741
 30
0.0
 11
470.7968426666549249
 21
73.8745098666783946
 31
0.0
  0
ARC
  5
2D4
100
AcDbEntity
  8
icones2
 62
256
370
9
 48
1.0
  6
BYLAYER
100
AcDbCircle
 10
470.2120869807847043
 20
72.9620564216815524
 30
0.0
 40
1.0837483570664619
100
AcDbArc
 50
57.3457799747923644
 51
147.1837674809921168
  0
LINE
  5
2D5
100
AcDbEntity
  8
icones2
 62
256
370
9
 48
1.0
  6
BYLAYER
100
AcDbLine
 10
469.3012906666547792
 20
73.5493898666784389
 30
0.0
 11
467.6323413333215626
 21
70.9484298666784099
 31
0.0
  0
HATCH
  5
2D6
100
AcDbEntity
  8
0
 62
256
370
-1
 48
1.0
  6
BYLAYER
100
AcDbHatch
 10
0.0
 20
0.0
 30
0.0
210
0.0
220
0.0
230
1.0
  2
ANSI31
 70
0
 71
0
 91
1
 92
1
 93
5
 72
1
 10
0.0000000000000842
 20
169.9999999999999147
 11
2.5500000000001077
 21
167.4499999999999034
 72
1
 10
2.5500000000001051
 20
167.4499999999999318
 11
2.5500000000000358
 21
82.4499999999998749
 72
1
 10
2.5500000000000362
 20
82.4499999999998892
 11
-2.5500000000001086
 21
87.5499999999998977
 72
1
 10
-2.5500000000001086
 20
87.5499999999998977
 11
-2.5500000000000118
 21
167.4499999999999318
 72
1
 10
-2.5500000000000118
 20
167.4499999999999318
 11
0.0000000000000846
 21
169.9999999999999147
 97
0
 75
0
 76
1
 52
30.0
 41
17.0
 77
0
 78
1
 53
45.0
 43
0.0
 44
0.0
 45
-0.0883883476483184
 46
0.0883883476483185
 79
0
 98
0
1001
ACAD
1010
0.0
1020
0.0
1030
0
  0
ARC
  5
2D7
100
AcDbEntity
  8
icones2
 62
256
370
9
 48
1.0
  6
BYLAYER
100
AcDbCircle
 10
464.7254319532508475
 20
59.3195213088853421
 30
0.0
 40
11.9867275096022983
100
AcDbArc
 50
75.9652300516378034
 51
84.5405896701482931
  0
HATCH
  5
2D8
100
AcDbEntity
  8
0
 62
256
370
-1
 48
1.0
  6
BYLAYER
100
AcDbHatch
 10
0.0
 20
0.0
 30
0.0
210
0.0
220
0.0
230
1.0
  2
ANSI31
 70
0
 71
0
 91
1
 92
1
 93
5
 72
1
 10
171.7000000000003013
 20
169.9999999999996874
 11
174.2500000000003126
 21
167.4499999999996476
 72
1
 10
174.2500000000003126
 20
167.449999999999676
 11
174.2500000000002558
 21
82.4499999999996476
 72
1
 10
174.2500000000002558
 20
82.4499999999996618
 11
169.1500000000000909
 21
87.5499999999996703
 72
1
 10
169.1500000000000909
 20
87.5499999999996703
 11
169.1500000000002046
 21
167.449999999999676
 72
1
 10
169.1500000000002046
 20
167.449999999999676
 11
171.7000000000003013
 21
169.9999999999996874
 97
0
 75
0
 76
1
 52
30.0
 41
17.0
 77
0
 78
1
 53
45.0
 43
0.0
 44
0.0
 45
-0.0883883476483184
 46
0.0883883476483185
 79
0
 98
0
1001
ACAD
1010
0.0
1020
0.0
1030
0
  0
HATCH
  5
2D9
100
AcDbEntity
  8
0
 62
256
370
-1
 48
1.0
  6
BYLAYER
100
AcDbHatch
 10
0.0
 20
0.0
 30
0.0
210
0.0
220
0.0
230
1.0
  2
ANSI31
 70
0
 71
0
 91
1
 92
1
 93
5
 72
1
 10
202.0000000000002274
 20
99.99999999999973
 11
203.5000000000002274
 21
98.4999999999997158
 72
1
 10
203.5000000000002274
 20
98.49999999999973
 11
203.500000000000199
 21
48.4999999999997158
 72
1
 10
203.500000000000199
 20
48.49999999999973
 11
200.5000000000001137
 21
51.49999999999973
 72
1
 10
200.5000000000001137
 20
51.49999999999973
 11
200.5000000000001705
 21
98.49999999999973
 72
1
 10
200.5000000000001705
 20
98.49999999999973
 11
202.0000000000002274
 21
99.99999999999973
 97
0
 75
0
 76
1
 52
30.0
 41
10.0
 77
0
 78
1
 53
45.0
 43
0.0
 44
0.0
 45
-0.0883883476483184
 46
0.0883883476483185
 79
0
 98
0
1001
ACAD
1010
0.0
1020
0.0
1030
0
  0
HATCH
  5
2DA
100
AcDbEntity
  8
0
 62
256
370
-1
 48
1.0
  6
BYLAYER
100
AcDbHatch
 10
0.0
 20
0.0
 30
0.0
210
0.0
220
0.0
230
1.0
  2
ANSI31
 70
0
 71
0
 91
1
 92
1
 93
5
 72
1
 10
303.0000000000003411
 20
99.9999999999995879
 11
304.5000000000003411
 21
98.4999999999995737
 72
1
 10
304.5000000000003411
 20
98.4999999999995879
 11
304.5000000000002842
 21
48.4999999999995808
 72
1
 10
304.5000000000003411
 20
48.499999999999595
 11
301.5000000000002274
 21
51.499999999999595
 72
1
 10
301.5000000000002274
 20
51.499999999999595
 11
301.5000000000002842
 21
98.4999999999995879
 72
1
 10
301.5000000000002842
 20
98.4999999999995879
 11
303.0000000000003411
 21
99.9999999999995879
 97
0
 75
0
 76
1
 52
30.0
 41
10.0
 77
0
 78
1
 53
45.0
 43
0.0
 44
0.0
 45
-0.0883883476483184
 46
0.0883883476483185
 79
0
 98
0
1001
ACAD
1010
0.0
1020
0.0
1030
0
  0
HATCH
  5
2DB
100
AcDbEntity
  8
0
 62
256
370
-1
 48
1.0
  6
BYLAYER
100
AcDbHatch
 10
0.0
 20
0.0
 30
0.0
210
0.0
220
0.0
230
1.0
  2
ANSI31
 70
0
 71
0
 91
1
 92
1
 93
5
 72
1
 10
404.0000000000004547
 20
99.99999999999946
 11
405.5000000000004547
 21
98.4999999999994458
 72
1
 10
405.5000000000004547
 20
98.49999999999946
 11
405.5000000000003979
 21
48.4999999999994458
 72
1
 10
405.5000000000004547
 20
48.49999999999946
 11
402.5000000000003411
 21
51.49999999999946
 72
1
 10
402.5000000000003411
 20
51.49999999999946
 11
402.5000000000003979
 21
98.49999999999946
 72
1
 10
402.5000000000003979
 20
98.49999999999946
 11
404.0000000000004547
 21
99.99999999999946
 97
0
 75
0
 76
1
 52
30.0
 41
10.0
 77
0
 78
1
 53
45.0
 43
0.0
 44
0.0
 45
-0.0883883476483184
 46
0.0883883476483185
 79
0
 98
0
1001
ACAD
1010
0.0
1020
0.0
1030
0
  0
HATCH
  5
2DC
100
AcDbEntity
  8
0
 62
256
370
-1
 48
1.0
  6
BYLAYER
100
AcDbHatch
 10
0.0
 20
0.0
 30
0.0
210
0.0
220
0.0
230
1.0
  2
ANSI31
 70
0
 71
0
 91
1
 92
1
 93
5
 72
1
 10
0.0000000000001206
 20
200.9999999999998579
 11
1.5000000000001346
 21
199.4999999999998295
 72
1
 10
1.500000000000133
 20
199.4999999999998579
 11
1.5000000000000921
 21
149.4999999999998295
 72
1
 10
1.5000000000000924
 20
149.4999999999998579
 11
-1.4999999999999929
 21
152.4999999999998579
 72
1
 10
-1.4999999999999929
 20
152.4999999999998579
 11
-1.4999999999999361
 21
199.4999999999998579
 72
1
 10
-1.4999999999999361
 20
199.4999999999998579
 11
0.0000000000001208
 21
200.9999999999998579
 97
0
 75
0
 76
1
 52
30.0
 41
10.0
 77
0
 78
1
 53
45.0
 43
0.0
 44
0.0
 45
-0.0883883476483184
 46
0.0883883476483185
 79
0
 98
0
1001
ACAD
1010
0.0
1020
0.0
1030
0
  0
HATCH
  5
2DD
100
AcDbEntity
  8
0
 62
256
370
-1
 48
1.0
  6
BYLAYER
100
AcDbHatch
 10
0.0
 20
0.0
 30
0.0
210
0.0
220
0.0
230
1.0
  2
ANSI31
 70
0
 71
0
 91
1
 92
1
 93
5
 72
1
 10
0.0000000000002414
 20
301.9999999999997158
 11
1.5000000000002554
 21
300.4999999999997158
 72
1
 10
1.5000000000002538
 20
300.4999999999997158
 11
1.5000000000002129
 21
250.4999999999997158
 72
1
 10
1.5000000000002132
 20
250.4999999999997158
 11
-1.4999999999998721
 21
253.4999999999997158
 72
1
 10
-1.4999999999998721
 20
253.4999999999997158
 11
-1.4999999999998153
 21
300.4999999999997158
 72
1
 10
-1.4999999999998153
 20
300.4999999999997158
 11
0.0000000000002416
 21
301.9999999999997158
 97
0
 75
0
 76
1
 52
30.0
 41
10.0
 77
0
 78
1
 53
45.0
 43
0.0
 44
0.0
 45
-0.0883883476483184
 46
0.0883883476483185
 79
0
 98
0
1001
ACAD
1010
0.0
1020
0.0
1030
0
  0
HATCH
  5
2DE
100
AcDbEntity
  8
0
 62
256
370
-1
 48
1.0
  6
BYLAYER
100
AcDbHatch
 10
0.0
 20
0.0
 30
0.0
210
0.0
220
0.0
230
1.0
  2
ANSI31
 70
0
 71
0
 91
1
 92
1
 93
5
 72
1
 10
101.0000000000001137
 20
200.9999999999998579
 11
102.5000000000001279
 21
199.4999999999998295
 72
1
 10
102.5000000000001279
 20
199.4999999999998579
 11
102.5000000000000853
 21
149.4999999999998295
 72
1
 10
102.5000000000000853
 20
149.4999999999998579
 11
99.5
 21
152.4999999999998579
 72
1
 10
99.5
 20
152.4999999999998579
 11
99.5000000000000568
 21
199.4999999999998579
 72
1
 10
99.5000000000000568
 20
199.4999999999998579
 11
101.0000000000001137
 21
200.9999999999998579
 97
0
 75
0
 76
1
 52
30.0
 41
10.0
 77
0
 78
1
 53
45.0
 43
0.0
 44
0.0
 45
-0.0883883476483184
 46
0.0883883476483185
 79
0
 98
0
1001
ACAD
1010
0.0
1020
0.0
1030
0
  0
HATCH
  5
2DF
100
AcDbEntity
  8
0
 62
256
370
-1
 48
1.0
  6
BYLAYER
100
AcDbHatch
 10
0.0
 20
0.0
 30
0.0
210
0.0
220
0.0
230
1.0
  2
ANSI31
 70
0
 71
0
 91
1
 92
1
 93
5
 72
1
 10
202.0000000000001137
 20
200.9999999999998579
 11
203.5000000000001421
 21
199.4999999999998295
 72
1
 10
203.5000000000001421
 20
199.4999999999998579
 11
203.5000000000000853
 21
149.4999999999998295
 72
1
 10
203.5000000000000853
 20
149.4999999999998579
 11
200.5
 21
152.4999999999998579
 72
1
 10
200.5
 20
152.4999999999998579
 11
200.5000000000000568
 21
199.4999999999998579
 72
1
 10
200.5000000000000568
 20
199.4999999999998579
 11
202.0000000000001137
 21
200.9999999999998579
 97
0
 75
0
 76
1
 52
30.0
 41
10.0
 77
0
 78
1
 53
45.0
 43
0.0
 44
0.0
 45
-0.0883883476483184
 46
0.0883883476483185
 79
0
 98
0
1001
ACAD
1010
0.0
1020
0.0
1030
0
  0
LINE
  5
2E0
100
AcDbEntity
  8
icones2
 62
256
370
9
 48
1.0
  6
BYLAYER
100
AcDbLine
 10
465.8658559999881845
 20
71.251875200011753
 30
0.0
 11
465.2047786666548177
 21
74.2863285333450563
 31
0.0
  0
ARC
  5
2E1
100
AcDbEntity
  8
icones1
 62
256
370
-1
 48
1.0
  6
BYLAYER
100
AcDbCircle
 10
24.6000000000000227
 20
32.2875000000005201
 30
0.0
 40
11.1124999999999989
100
AcDbArc
 50
180.0
 51
270.0
  0
ARC
  5
2E2
100
AcDbEntity
  8
icones1
 62
256
370
-1
 48
1.0
  6
BYLAYER
100
AcDbCircle
 10
24.6000000000000227
 20
32.2875000000005201
 30
0.0
 40
11.1124999999999989
100
AcDbArc
 50
90.0000000000000142
 51
180.0
  0
ARC
  5
2E3
100
AcDbEntity
  8
icones1
 62
256
370
-1
 48
1.0
  6
BYLAYER
100
AcDbCircle
 10
24.6000000000000227
 20
32.2875000000005201
 30
0.0
 40
11.1124999999999989
100
AcDbArc
 50
0.0
 51
90.0000000000000142
  0
ARC
  5
2E4
100
AcDbEntity
  8
icones1
 62
256
370
-1
 48
1.0
  6
BYLAYER
100
AcDbCircle
 10
24.6000000000000227
 20
32.2875000000005201
 30
0.0
 40
11.1124999999999989
100
AcDbArc
 50
270.0
 51
0.0
  0
ARC
  5
2E5
100
AcDbEntity
  8
icones1
 62
256
370
-1
 48
1.0
  6
BYLAYER
100
AcDbCircle
 10
24.6000000000000227
 20
32.2875000000005201
 30
0.0
 40
15.8749999999999982
100
AcDbArc
 50
90.0000000000000142
 51
180.0
  0
ARC
  5
2E6
100
AcDbEntity
  8
icones1
 62
256
370
-1
 48
1.0
  6
BYLAYER
100
AcDbCircle
 10
24.6000000000000227
 20
32.2875000000005201
 30
0.0
 40
15.8749999999999982
100
AcDbArc
 50
180.0
 51
270.0
  0
ARC
  5
2E7
100
AcDbEntity
  8
icones1
 62
256
370
-1
 48
1.0
  6
BYLAYER
100
AcDbCircle
 10
24.6000000000000227
 20
32.2875000000005201
 30
0.0
 40
15.8749999999999982
100
AcDbArc
 50
270.0
 51
0.0
  0
ARC
  5
2E8
100
AcDbEntity
  8
icones1
 62
256
370
-1
 48
1.0
  6
BYLAYER
100
AcDbCircle
 10
24.6000000000000227
 20
32.2875000000005201
 30
0.0
 40
15.8749999999999982
100
AcDbArc
 50
0.0
 51
90.0000000000000142
  0
ARC
  5
2E9
100
AcDbEntity
  8
icones2
 62
256
370
9
 48
1.0
  6
BYLAYER
100
AcDbCircle
 10
464.1487517339155033
 20
74.0435505335608042
 30
0.0
 40
1.0835746581801944
100
AcDbArc
 50
12.9471891086158113
 51
102.9572230944076239
  0
LINE
  5
2EA
100
AcDbEntity
  8
icones1
 62
256
370
-1
 48
1.0
  6
BYLAYER
100
AcDbLine
 10
55.7150000000000105
 20
54.5125000000005357
 30
0.0
 11
69.0500000000000114
 21
54.5125000000005357
 31
0.0
  0
LINE
  5
2EB
100
AcDbEntity
  8
icones1
 62
256
370
-1
 48
1.0
  6
BYLAYER
100
AcDbLine
 10
69.0500000000000114
 20
54.5125000000005357
 30
0.0
 11
69.0500000000000114
 21
60.2275000000005392
 31
0.0
  0
LINE
  5
2EC
100
AcDbEntity
  8
icones1
 62
256
370
-1
 48
1.0
  6
BYLAYER
100
AcDbLine
 10
69.0500000000000114
 20
60.2275000000005392
 30
0.0
 11
58.8900000000000219
 21
60.2275000000005392
 31
0.0
  0
LINE
  5
2ED
100
AcDbEntity
  8
icones1
 62
256
370
-1
 48
1.0
  6
BYLAYER
100
AcDbLine
 10
58.8900000000000219
 20
60.2275000000005392
 30
0.0
 11
52.7305000000000135
 21
70.6097500000005311
 31
0.0
  0
ARC
  5
2EE
100
AcDbEntity
  8
icones1
 62
256
370
-1
 48
1.0
  6
BYLAYER
100
AcDbCircle
 10
48.0765168858038763
 20
67.8178565099688058
 30
0.0
 40
5.4271749637269178
100
AcDbArc
 50
30.9592629538533473
 51
89.804869662403604
  0
ARC
  5
2EF
100
AcDbEntity
  8
icones1
 62
256
370
-1
 48
1.0
  6
BYLAYER
100
AcDbCircle
 10
48.0654587208242461
 20
67.9501490700223769
 30
0.0
 40
5.2949333383779145
100
AcDbArc
 50
89.6803360323860801
 51
135.5593938636947939
  0
LINE
  5
2F0
100
AcDbEntity
  8
icones1
 62
256
370
-1
 48
1.0
  6
BYLAYER
100
AcDbLine
 10
44.285000000000025
 20
71.6575000000005247
 30
0.0
 11
32.5375000000000085
 21
59.941750000000539
 31
0.0
  0
ARC
  5
2F1
100
AcDbEntity
  8
icones1
 62
256
370
-1
 48
1.0
  6
BYLAYER
100
AcDbCircle
 10
36.2105028473552366
 20
56.1751093605975527
 30
0.0
 40
5.2610390250483494
100
AcDbArc
 50
134.2788946108650805
 51
180.8180124771277804
  0
ARC
  5
2F2
100
AcDbEntity
  8
icones2
 62
256
370
9
 48
1.0
  6
BYLAYER
100
AcDbCircle
 10
464.1344561988117903
 20
74.0925896842209966
 30
0.0
 40
1.0325829332398779
100
AcDbArc
 50
102.7943213309153805
 51
105.3596094853312053
  0
ARC
  5
2F3
100
AcDbEntity
  8
icones1
 62
256
370
-1
 48
1.0
  6
BYLAYER
100
AcDbCircle
 10
36.3128917647626537
 20
56.0871159864279107
 30
0.0
 40
5.3629072412605314
100
AcDbArc
 50
179.8623507217625388
 51
240.2133387695836575
  0
LINE
  5
2F4
100
AcDbEntity
  8
icones1
 62
256
370
-1
 48
1.0
  6
BYLAYER
100
AcDbLine
 10
33.648750000000021
 20
51.4327500000005315
 30
0.0
 11
44.285000000000025
 21
44.987500000000523
 31
0.0
  0
LINE
  5
2F5
100
AcDbEntity
  8
icones1
 62
256
370
-1
 48
1.0
  6
BYLAYER
100
AcDbLine
 10
44.285000000000025
 20
44.987500000000523
 30
0.0
 11
44.285000000000025
 21
29.1125000000005301
 31
0.0
  0
LINE
  5
2F6
100
AcDbEntity
  8
icones1
 62
256
370
-1
 48
1.0
  6
BYLAYER
100
AcDbLine
 10
44.285000000000025
 20
29.1125000000005301
 30
0.0
 11
50.0000000000000071
 21
29.1125000000005301
 31
0.0
  0
LINE
  5
2F7
100
AcDbEntity
  8
icones1
 62
256
370
-1
 48
1.0
  6
BYLAYER
100
AcDbLine
 10
50.0000000000000071
 20
29.1125000000005301
 30
0.0
 11
50.0000000000000071
 21
49.7500000000005187
 31
0.0
  0
LINE
  5
2F8
100
AcDbEntity
  8
icones1
 62
256
370
-1
 48
1.0
  6
BYLAYER
100
AcDbLine
 10
50.0000000000000071
 20
49.7500000000005187
 30
0.0
 11
42.8562500000000242
 21
54.9887500000005289
 31
0.0
  0
LINE
  5
2F9
100
AcDbEntity
  8
icones1
 62
256
370
-1
 48
1.0
  6
BYLAYER
100
AcDbLine
 10
42.8562500000000242
 20
54.9887500000005289
 30
0.0
 11
50.2222500000000096
 21
62.4500000000005215
 31
0.0
  0
ARC
  5
2FA
100
AcDbEntity
  8
icones1
 62
256
370
-1
 48
1.0
  6
BYLAYER
100
AcDbCircle
 10
69.0500000000000114
 20
32.2875000000005201
 30
0.0
 40
11.1124999999999989
100
AcDbArc
 50
180.0
 51
270.0
  0
LINE
  5
2FB
100
AcDbEntity
  8
icones2
 62
256
370
9
 48
1.0
  6
BYLAYER
100
AcDbLine
 10
463.8609493333215141
 20
75.0882912000117244
 30
0.0
 11
458.442282666654819
 21
73.90702186667842
 31
0.0
  0
ARC
  5
2FC
100
AcDbEntity
  8
icones1
 62
256
370
-1
 48
1.0
  6
BYLAYER
100
AcDbCircle
 10
69.0500000000000114
 20
32.2875000000005201
 30
0.0
 40
11.1124999999999989
100
AcDbArc
 50
90.0000000000000142
 51
180.0
  0
ARC
  5
2FD
100
AcDbEntity
  8
icones1
 62
256
370
-1
 48
1.0
  6
BYLAYER
100
AcDbCircle
 10
69.0500000000000114
 20
32.2875000000005201
 30
0.0
 40
11.1124999999999989
100
AcDbArc
 50
0.0
 51
90.0000000000000142
  0
ARC
  5
2FE
100
AcDbEntity
  8
icones1
 62
256
370
-1
 48
1.0
  6
BYLAYER
100
AcDbCircle
 10
69.0500000000000114
 20
32.2875000000005201
 30
0.0
 40
11.1124999999999989
100
AcDbArc
 50
270.0
 51
0.0
  0
ARC
  5
2FF
100
AcDbEntity
  8
icones1
 62
256
370
-1
 48
1.0
  6
BYLAYER
100
AcDbCircle
 10
69.0500000000000114
 20
32.2875000000005201
 30
0.0
 40
15.8749999999999982
100
AcDbArc
 50
90.0000000000000142
 51
180.0
  0
ARC
  5
300
100
AcDbEntity
  8
icones1
 62
256
370
-1
 48
1.0
  6
BYLAYER
100
AcDbCircle
 10
69.0500000000000114
 20
32.2875000000005201
 30
0.0
 40
15.8749999999999982
100
AcDbArc
 50
180.0
 51
270.0
  0
ARC
  5
301
100
AcDbEntity
  8
icones1
 62
256
370
-1
 48
1.0
  6
BYLAYER
100
AcDbCircle
 10
69.0500000000000114
 20
32.2875000000005201
 30
0.0
 40
15.8749999999999982
100
AcDbArc
 50
270.0
 51
0.0
  0
ARC
  5
302
100
AcDbEntity
  8
icones1
 62
256
370
-1
 48
1.0
  6
BYLAYER
100
AcDbCircle
 10
69.0500000000000114
 20
32.2875000000005201
 30
0.0
 40
15.8749999999999982
100
AcDbArc
 50
0.0
 51
90.0000000000000142
  0
ARC
  5
303
100
AcDbEntity
  8
icones1
 62
256
370
-1
 48
1.0
  6
BYLAYER
100
AcDbCircle
 10
59.548812500000011
 20
76.7136875000005318
 30
0.0
 40
5.6912373167275758
100
AcDbArc
 50
269.7602701039189128
 51
0.2397298960808339
  0
ARC
  5
304
100
AcDbEntity
  8
icones2
 62
256
370
9
 48
1.0
  6
BYLAYER
100
AcDbCircle
 10
458.6773578464105299
 20
72.8490582448736461
 30
0.0
 40
1.0837653644582828
100
AcDbArc
 50
102.5273705538782139
 51
192.3435124511767356
  0
ARC
  5
305
100
AcDbEntity
  8
icones1
 62
256
370
-1
 48
1.0
  6
BYLAYER
100
AcDbCircle
 10
59.5488125000000323
 20
76.7613125000005141
 30
0.0
 40
5.6912373167275909
100
AcDbArc
 50
359.760270103919197
 51
90.2397298960810019
  0
ARC
  5
306
100
AcDbEntity
  8
icones1
 62
256
370
-1
 48
1.0
  6
BYLAYER
100
AcDbCircle
 10
59.5011875000000074
 20
76.7613125000005141
 30
0.0
 40
5.691237316727582
100
AcDbArc
 50
89.760270103919197
 51
180.2397298960808314
  0
ARC
  5
307
100
AcDbEntity
  8
icones1
 62
256
370
-1
 48
1.0
  6
BYLAYER
100
AcDbCircle
 10
59.5011875000000074
 20
76.7136875000005318
 30
0.0
 40
5.691237316727582
100
AcDbArc
 50
179.7602701039191686
 51
270.239729896080803
  0
ARC
  5
308
100
AcDbEntity
  8
icones1
 62
256
370
-1
 48
1.0
  6
BYLAYER
100
AcDbCircle
 10
165.9994706240447613
 20
42.4625020799086315
 30
0.0
 40
33.7318320162230663
100
AcDbArc
 50
73.2573689529314436
 51
90.4824263387567242
  0
ARC
  5
309
100
AcDbEntity
  8
icones1
 62
256
370
-1
 48
1.0
  6
BYLAYER
100
AcDbCircle
 10
164.5133608625396278
 20
49.644564631723739
 30
0.0
 40
26.5757746355317295
100
AcDbArc
 50
87.407473755083501
 51
123.1027636510321059
  0
ARC
  5
30A
100
AcDbEntity
  8
icones1
 62
256
370
-1
 48
1.0
  6
BYLAYER
100
AcDbCircle
 10
135.4850479029806252
 20
49.6445646317236395
 30
0.0
 40
26.5757746355318432
100
AcDbArc
 50
56.8972363489680717
 51
92.5925262449164848
  0
ARC
  5
30B
100
AcDbEntity
  8
icones1
 62
256
370
-1
 48
1.0
  6
BYLAYER
100
AcDbCircle
 10
133.0808608625394243
 20
49.6445646317236395
 30
0.0
 40
26.5757746355317863
100
AcDbArc
 50
87.4074737550835579
 51
123.1027636510320207
  0
LINE
  5
30C
100
AcDbEntity
  8
icones1
 62
256
370
-1
 48
1.0
  6
BYLAYER
100
AcDbLine
 10
118.5667043827601219
 20
71.9068883909148724
 30
0.0
 11
118.5667043827601219
 21
30.0445133909149327
 31
0.0
  0
LINE
  5
30D
100
AcDbEntity
  8
icones2
 62
256
370
9
 48
1.0
  6
BYLAYER
100
AcDbLine
 10
457.6186453333215809
 20
72.6173792000117544
 30
0.0
 11
458.3772586666549387
 21
69.5395765333450555
 31
0.0
  0
ARC
  5
30E
100
AcDbEntity
  8
icones1
 62
256
370
-1
 48
1.0
  6
BYLAYER
100
AcDbCircle
 10
120.0996340702602225
 20
30.1486930784149898
 30
0.0
 40
1.536465695714192
100
AcDbArc
 50
183.8879095608336627
 51
266.1120904391669342
  0
LINE
  5
30F
100
AcDbEntity
  8
icones1
 62
256
370
-1
 48
1.0
  6
BYLAYER
100
AcDbLine
 10
119.9954543827599736
 20
28.6157633909149851
 30
0.0
 11
120.7098293827600912
 21
28.7586383909149319
 31
0.0
  0
ARC
  5
310
100
AcDbEntity
  8
icones1
 62
256
370
-1
 48
1.0
  6
BYLAYER
100
AcDbCircle
 10
135.2063962440776095
 20
-2.9629372602283297
 30
0.0
 40
34.8770528077681519
100
AcDbArc
 50
91.5172011637796601
 51
114.5601120022663935
  0
ARC
  5
311
100
AcDbEntity
  8
icones1
 62
256
370
-1
 48
1.0
  6
BYLAYER
100
AcDbCircle
 10
135.4850479029806252
 20
5.3533146317238334
 30
0.0
 40
26.5757746355316797
100
AcDbArc
 50
56.8972363489679083
 51
92.5925262449165132
  0
ARC
  5
312
100
AcDbEntity
  8
icones1
 62
256
370
-1
 48
1.0
  6
BYLAYER
100
AcDbCircle
 10
166.6564202030724573
 20
-2.5045696168975411
 30
0.0
 40
34.4193226156233152
100
AcDbArc
 50
91.5665644755820978
 51
118.9436729305335376
  0
ARC
  5
313
100
AcDbEntity
  8
icones1
 62
256
370
-1
 48
1.0
  6
BYLAYER
100
AcDbCircle
 10
166.4062386658482353
 20
2.8255613382188045
 30
0.0
 40
29.0845315898522223
100
AcDbArc
 50
63.7091790628934191
 51
91.3609552529765949
  0
ARC
  5
314
100
AcDbEntity
  8
icones1
 62
256
370
-1
 48
1.0
  6
BYLAYER
100
AcDbCircle
 10
179.8880590702602262
 20
30.0415368284149338
 30
0.0
 40
1.2880331260392675
100
AcDbArc
 50
242.2624265329033051
 51
275.1177085190565208
  0
ARC
  5
315
100
AcDbEntity
  8
icones1
 62
256
370
-1
 48
1.0
  6
BYLAYER
100
AcDbCircle
 10
179.8987746952600162
 20
30.2915680784149366
 30
0.0
 40
1.5364656957141913
100
AcDbArc
 50
273.8879095608336343
 51
356.1120904391667068
  0
ARC
  5
316
100
AcDbEntity
  8
icones2
 62
256
370
9
 48
1.0
  6
BYLAYER
100
AcDbCircle
 10
464.6924435516276048
 20
59.0380270413367327
 30
0.0
 40
12.2541463131663804
100
AcDbArc
 50
121.0209100795493953
 51
129.1390639956464668
  0
LINE
  5
317
100
AcDbEntity
  8
icones1
 62
256
370
-1
 48
1.0
  6
BYLAYER
100
AcDbLine
 10
181.431704382760131
 20
30.1873883909149754
 30
0.0
 11
181.431704382760131
 21
71.9068883909148724
 31
0.0
  0
ARC
  5
318
100
AcDbEntity
  8
icones1
 62
256
370
-1
 48
1.0
  6
BYLAYER
100
AcDbCircle
 10
169.9759977066233887
 20
56.1392250386418397
 30
0.0
 40
19.4898030528862556
100
AcDbArc
 50
54.0004074479859781
 51
72.8694901978581697
  0
ARC
  5
319
100
AcDbEntity
  8
icones1
 62
256
370
-1
 48
1.0
  6
BYLAYER
100
AcDbCircle
 10
166.0748013496718158
 20
4.4135671592971306
 30
0.0
 40
33.2052657127243975
100
AcDbArc
 50
73.1197289845253806
 51
90.6200663071627446
  0
ARC
  5
31A
100
AcDbEntity
  8
icones1
 62
256
370
-1
 48
1.0
  6
BYLAYER
100
AcDbCircle
 10
166.6564202030724573
 20
3.2104303831025334
 30
0.0
 40
34.4193226156233081
100
AcDbArc
 50
91.5665644755821972
 51
118.9436729305334381
  0
LINE
  5
31B
100
AcDbEntity
  8
icones1
 62
256
370
-1
 48
1.0
  6
BYLAYER
100
AcDbLine
 10
149.9992043827599275
 20
33.3306383909149559
 30
0.0
 11
149.9992043827599275
 21
66.1918883909148974
 31
0.0
  0
ARC
  5
31C
100
AcDbEntity
  8
icones1
 62
256
370
-1
 48
1.0
  6
BYLAYER
100
AcDbCircle
 10
166.6564202030724573
 20
36.0716803831023825
 30
0.0
 40
34.419322615623372
100
AcDbArc
 50
91.5665644755823109
 51
118.9436729305334381
  0
ARC
  5
31D
100
AcDbEntity
  8
icones1
 62
256
370
-1
 48
1.0
  6
BYLAYER
100
AcDbCircle
 10
166.0748013496718158
 20
37.2748171592971715
 30
0.0
 40
33.2052657127243691
100
AcDbArc
 50
73.1197289845253806
 51
90.6200663071627446
  0
LINE
  5
31E
100
AcDbEntity
  8
icones1
 62
256
370
-1
 48
1.0
  6
BYLAYER
100
AcDbLine
 10
175.7167043827599286
 20
69.0493883909148849
 30
0.0
 11
175.7167043827599286
 21
36.1881383909149434
 31
0.0
  0
LINE
  5
31F
100
AcDbEntity
  8
icones2
 62
256
370
9
 48
1.0
  6
BYLAYER
100
AcDbLine
 10
456.9575679999882141
 20
68.5425418666784054
 30
0.0
 11
454.2807466666548066
 21
70.2549760000117232
 31
0.0
  0
ARC
  5
320
100
AcDbEntity
  8
icones2
 62
256
370
9
 48
1.0
  6
BYLAYER
100
AcDbCircle
 10
453.6959909807845861
 20
69.3425225550147957
 30
0.0
 40
1.0837483570664945
100
AcDbArc
 50
57.3457799747944037
 51
147.1837674809901273
  0
LINE
  5
321
100
AcDbEntity
  8
icones2
 62
256
370
9
 48
1.0
  6
BYLAYER
100
AcDbLine
 10
452.7851946666548315
 20
69.9298560000117249
 30
0.0
 11
449.7724159999881408
 21
65.2805045333450522
 31
0.0
  0
ARC
  5
322
100
AcDbEntity
  8
icones2
 62
256
370
9
 48
1.0
  6
BYLAYER
100
AcDbCircle
 10
450.6848694449851109
 20
64.6957488474748317
 30
0.0
 40
1.083748357066479
100
AcDbArc
 50
147.3457799747936861
 51
237.1837674809912073
  0
LINE
  5
323
100
AcDbEntity
  8
icones1
 62
256
370
-1
 48
1.0
  6
BYLAYER
100
AcDbLine
 10
272.0133333333336054
 20
50.0
 30
0.0
 11
231.3733333333333917
 21
50.0
 31
0.0
  0
LINE
  5
324
100
AcDbEntity
  8
icones1
 62
256
370
-1
 48
1.0
  6
BYLAYER
100
AcDbLine
 10
231.3733333333333917
 20
50.0
 30
0.0
 11
231.3733333333333917
 21
66.9333333333333371
 31
0.0
  0
LINE
  5
325
100
AcDbEntity
  8
icones1
 62
256
370
-1
 48
1.0
  6
BYLAYER
100
AcDbLine
 10
231.3733333333333917
 20
66.9333333333333371
 30
0.0
 11
272.0133333333336054
 21
66.9333333333333371
 31
0.0
  0
ARC
  5
326
100
AcDbEntity
  8
icones1
 62
256
370
-1
 48
1.0
  6
BYLAYER
100
AcDbCircle
 10
266.9333333333334508
 20
34.7600000000000477
 30
0.0
 40
5.0800000000000001
100
AcDbArc
 50
180.0
 51
270.0
  0
LINE
  5
327
100
AcDbEntity
  8
icones2
 62
256
370
9
 48
1.0
  6
BYLAYER
100
AcDbLine
 10
450.0975359999882244
 20
63.7849525333450771
 30
0.0
 11
452.806869333321572
 21
62.0509792000117244
 31
0.0
  0
ARC
  5
328
100
AcDbEntity
  8
icones1
 62
256
370
-1
 48
1.0
  6
BYLAYER
100
AcDbCircle
 10
266.9333333333334508
 20
34.7600000000000477
 30
0.0
 40
5.0800000000000001
100
AcDbArc
 50
90.0000000000000142
 51
180.0
  0
ARC
  5
329
100
AcDbEntity
  8
icones1
 62
256
370
-1
 48
1.0
  6
BYLAYER
100
AcDbCircle
 10
266.9333333333334508
 20
34.7600000000000477
 30
0.0
 40
5.0800000000000001
100
AcDbArc
 50
0.0
 51
90.0000000000000142
  0
ARC
  5
32A
100
AcDbEntity
  8
icones1
 62
256
370
-1
 48
1.0
  6
BYLAYER
100
AcDbCircle
 10
266.9333333333334508
 20
34.7600000000000477
 30
0.0
 40
5.0800000000000001
100
AcDbArc
 50
270.0
 51
0.0
  0
ARC
  5
32B
100
AcDbEntity
  8
icones1
 62
256
370
-1
 48
1.0
  6
BYLAYER
100
AcDbCircle
 10
236.4533333333335463
 20
34.7600000000000477
 30
0.0
 40
5.0800000000000001
100
AcDbArc
 50
180.0
 51
270.0
  0
ARC
  5
32C
100
AcDbEntity
  8
icones1
 62
256
370
-1
 48
1.0
  6
BYLAYER
100
AcDbCircle
 10
236.4533333333335463
 20
34.7600000000000477
 30
0.0
 40
5.0800000000000001
100
AcDbArc
 50
90.0000000000000142
 51
180.0
  0
ARC
  5
32D
100
AcDbEntity
  8
icones1
 62
256
370
-1
 48
1.0
  6
BYLAYER
100
AcDbCircle
 10
236.4533333333335463
 20
34.7600000000000477
 30
0.0
 40
5.0800000000000001
100
AcDbArc
 50
0.0
 51
90.0000000000000142
  0
ARC
  5
32E
100
AcDbEntity
  8
icones1
 62
256
370
-1
 48
1.0
  6
BYLAYER
100
AcDbCircle
 10
236.4533333333335463
 20
34.7600000000000477
 30
0.0
 40
5.0800000000000001
100
AcDbArc
 50
270.0
 51
0.0
  0
ARC
  5
32F
100
AcDbEntity
  8
icones1
 62
256
370
-1
 48
1.0
  6
BYLAYER
100
AcDbCircle
 10
234.7123424494322421
 20
33.0998131153597797
 30
0.0
 40
10.112396773349257
100
AcDbArc
 50
180.187804638137294
 51
228.3106041826651733
  0
ARC
  5
330
100
AcDbEntity
  8
icones2
 62
256
370
9
 48
1.0
  6
BYLAYER
100
AcDbCircle
 10
464.5851481302278216
 20
59.1258309260954178
 30
0.0
 40
12.1360761303664173
100
AcDbArc
 50
166.0527096436630927
 51
174.058701829966509
  0
LINE
  5
331
100
AcDbEntity
  8
icones1
 62
256
370
-1
 48
1.0
  6
BYLAYER
100
AcDbLine
 10
227.9866666666666219
 20
25.5482666666667342
 30
0.0
 11
227.9866666666666219
 21
19.5200000000000102
 31
0.0
  0
ARC
  5
332
100
AcDbEntity
  8
icones1
 62
256
370
-1
 48
1.0
  6
BYLAYER
100
AcDbCircle
 10
231.3733333333333917
 20
19.5200000000000102
 30
0.0
 40
3.3866666666666667
100
AcDbArc
 50
180.0
 51
270.0
  0
LINE
  5
333
100
AcDbEntity
  8
icones1
 62
256
370
-1
 48
1.0
  6
BYLAYER
100
AcDbLine
 10
231.3733333333333917
 20
16.1333333333333258
 30
0.0
 11
234.7600000000001614
 21
16.1333333333333258
 31
0.0
  0
ARC
  5
334
100
AcDbEntity
  8
icones1
 62
256
370
-1
 48
1.0
  6
BYLAYER
100
AcDbCircle
 10
234.7600000000001614
 20
19.5200000000000102
 30
0.0
 40
3.3866666666666667
100
AcDbArc
 50
270.0
 51
0.0
  0
LINE
  5
335
100
AcDbEntity
  8
icones1
 62
256
370
-1
 48
1.0
  6
BYLAYER
100
AcDbLine
 10
238.1466666666669312
 20
19.5200000000000102
 30
0.0
 11
238.1466666666669312
 21
22.9066666666666947
 31
0.0
  0
LINE
  5
336
100
AcDbEntity
  8
icones1
 62
256
370
-1
 48
1.0
  6
BYLAYER
100
AcDbLine
 10
238.1466666666669312
 20
22.9066666666666947
 30
0.0
 11
265.2400000000000659
 21
22.9066666666666947
 31
0.0
  0
LINE
  5
337
100
AcDbEntity
  8
icones1
 62
256
370
-1
 48
1.0
  6
BYLAYER
100
AcDbLine
 10
265.2400000000000659
 20
22.9066666666666947
 30
0.0
 11
265.2400000000000659
 21
19.5200000000000102
 31
0.0
  0
ARC
  5
338
100
AcDbEntity
  8
icones1
 62
256
370
-1
 48
1.0
  6
BYLAYER
100
AcDbCircle
 10
268.6266666666668357
 20
19.5200000000000102
 30
0.0
 40
3.3866666666666667
100
AcDbArc
 50
180.0
 51
270.0
  0
LINE
  5
339
100
AcDbEntity
  8
icones2
 62
256
370
9
 48
1.0
  6
BYLAYER
100
AcDbLine
 10
452.5142613333215991
 20
60.3820298666784225
 30
0.0
 11
449.360597333321607
 21
59.6884405333450729
 31
0.0
  0
LINE
  5
33A
100
AcDbEntity
  8
icones1
 62
256
370
-1
 48
1.0
  6
BYLAYER
100
AcDbLine
 10
268.6266666666668357
 20
16.1333333333333258
 30
0.0
 11
272.0133333333336054
 21
16.1333333333333258
 31
0.0
  0
ARC
  5
33B
100
AcDbEntity
  8
icones1
 62
256
370
-1
 48
1.0
  6
BYLAYER
100
AcDbCircle
 10
272.0133333333336054
 20
19.5200000000000102
 30
0.0
 40
3.3866666666666667
100
AcDbArc
 50
270.0
 51
0.0
  0
LINE
  5
33C
100
AcDbEntity
  8
icones1
 62
256
370
-1
 48
1.0
  6
BYLAYER
100
AcDbLine
 10
275.4000000000000341
 20
19.5200000000000102
 30
0.0
 11
275.4000000000000341
 21
25.5482666666667342
 31
0.0
  0
ARC
  5
33D
100
AcDbEntity
  8
icones1
 62
256
370
-1
 48
1.0
  6
BYLAYER
100
AcDbCircle
 10
268.674324217234755
 20
33.0998131153597797
 30
0.0
 40
10.112396773349257
100
AcDbArc
 50
311.6893958173348551
 51
359.8121953618626776
  0
LINE
  5
33E
100
AcDbEntity
  8
icones1
 62
256
370
-1
 48
1.0
  6
BYLAYER
100
AcDbLine
 10
278.7866666666668038
 20
33.0666666666666629
 30
0.0
 11
278.7866666666668038
 21
66.9333333333333371
 31
0.0
  0
SPLINE
  5
33F
100
AcDbEntity
  8
icones1
 62
256
370
-1
 48
1.0
  6
BYLAYER
100
AcDbSpline
 70
8
 71
3
 72
8
 73
4
 74
0
 40
0.0
 40
0.0
 40
0.0
 40
0.0
 40
1.0
 40
1.0
 40
1.0
 40
1.0
 10
278.7866666666668038
 20
66.9333333333333371
 30
0.0
 10
278.7866666666668038
 20
78.7866666666666902
 30
0.0
 10
266.6624000000002184
 20
80.4799999999999898
 30
0.0
 10
251.693333333333328
 20
80.4799999999999898
 30
0.0
  0
SPLINE
  5
340
100
AcDbEntity
  8
icones1
 62
256
370
-1
 48
1.0
  6
BYLAYER
100
AcDbSpline
 70
8
 71
3
 72
8
 73
4
 74
0
 40
0.0
 40
0.0
 40
0.0
 40
0.0
 40
1.0
 40
1.0
 40
1.0
 40
1.0
 10
251.693333333333328
 20
80.4799999999999898
 30
0.0
 10
236.7242666666667787
 20
80.4799999999999898
 30
0.0
 10
224.6000000000001933
 20
78.7866666666666902
 30
0.0
 10
224.6000000000001933
 20
66.9333333333333371
 30
0.0
  0
LINE
  5
341
100
AcDbEntity
  8
icones1
 62
256
370
-1
 48
1.0
  6
BYLAYER
100
AcDbLine
 10
224.6000000000001933
 20
66.9333333333333371
 30
0.0
 11
224.6000000000001933
 21
33.0666666666666629
 31
0.0
  0
ARC
  5
342
100
AcDbEntity
  8
icones2
 62
256
370
9
 48
1.0
  6
BYLAYER
100
AcDbCircle
 10
449.5955488528097135
 20
58.6305558878456026
 30
0.0
 40
1.0836614506815903
100
AcDbArc
 50
102.5218937245659419
 51
192.3489892804896044
  0
LINE
  5
343
100
AcDbEntity
  8
icones1
 62
256
370
-1
 48
1.0
  6
BYLAYER
100
AcDbLine
 10
42.3799999999999812
 20
134.7600000000000477
 30
0.0
 11
42.3799999999999812
 21
150.0
 31
0.0
  0
LINE
  5
344
100
AcDbEntity
  8
icones1
 62
256
370
-1
 48
1.0
  6
BYLAYER
100
AcDbLine
 10
42.3799999999999812
 20
150.0
 30
0.0
 11
47.460000000000008
 21
150.0
 31
0.0
  0
LINE
  5
345
100
AcDbEntity
  8
icones1
 62
256
370
-1
 48
1.0
  6
BYLAYER
100
AcDbLine
 10
47.460000000000008
 20
150.0
 30
0.0
 11
52.5399999999999707
 21
150.0
 31
0.0
  0
LINE
  5
346
100
AcDbEntity
  8
icones1
 62
256
370
-1
 48
1.0
  6
BYLAYER
100
AcDbLine
 10
52.5399999999999707
 20
150.0
 30
0.0
 11
57.6199999999999974
 21
150.0
 31
0.0
  0
LINE
  5
347
100
AcDbEntity
  8
icones1
 62
256
370
-1
 48
1.0
  6
BYLAYER
100
AcDbLine
 10
57.6199999999999974
 20
150.0
 30
0.0
 11
57.6199999999999974
 21
134.7600000000000477
 31
0.0
  0
LINE
  5
348
100
AcDbEntity
  8
icones1
 62
256
370
-1
 48
1.0
  6
BYLAYER
100
AcDbLine
 10
57.6199999999999974
 20
134.7600000000000477
 30
0.0
 11
65.2399999999999807
 21
134.7600000000000477
 31
0.0
  0
LINE
  5
349
100
AcDbEntity
  8
icones1
 62
256
370
-1
 48
1.0
  6
BYLAYER
100
AcDbLine
 10
65.2399999999999807
 20
134.7600000000000477
 30
0.0
 11
65.2399999999999807
 21
155.3086000000000695
 31
0.0
  0
LINE
  5
34A
100
AcDbEntity
  8
icones1
 62
256
370
-1
 48
1.0
  6
BYLAYER
100
AcDbLine
 10
65.2399999999999807
 20
155.3086000000000695
 30
0.0
 11
49.9999999999999574
 21
170.5486000000000217
 31
0.0
  0
LINE
  5
34B
100
AcDbEntity
  8
icones2
 62
256
370
9
 48
1.0
  6
BYLAYER
100
AcDbLine
 10
448.5369599999881984
 20
58.3987978666784073
 30
0.0
 11
449.7182293333216307
 21
52.9801312000117548
 31
0.0
  0
LINE
  5
34C
100
AcDbEntity
  8
icones1
 62
256
370
-1
 48
1.0
  6
BYLAYER
100
AcDbLine
 10
49.9999999999999574
 20
170.5486000000000217
 30
0.0
 11
34.7600000000000051
 21
155.3086000000000695
 31
0.0
  0
LINE
  5
34D
100
AcDbEntity
  8
icones1
 62
256
370
-1
 48
1.0
  6
BYLAYER
100
AcDbLine
 10
34.7600000000000051
 20
155.3086000000000695
 30
0.0
 11
34.7600000000000051
 21
134.7600000000000477
 31
0.0
  0
LINE
  5
34E
100
AcDbEntity
  8
icones1
 62
256
370
-1
 48
1.0
  6
BYLAYER
100
AcDbLine
 10
34.7600000000000051
 20
134.7600000000000477
 30
0.0
 11
42.3799999999999812
 21
134.7600000000000477
 31
0.0
  0
LINE
  5
34F
100
AcDbEntity
  8
icones1
 62
256
370
-1
 48
1.0
  6
BYLAYER
100
AcDbLine
 10
49.9999999999999574
 20
177.7113999999999123
 30
0.0
 11
75.1713999999999771
 21
152.5400000000000773
 31
0.0
  0
LINE
  5
350
100
AcDbEntity
  8
icones1
 62
256
370
-1
 48
1.0
  6
BYLAYER
100
AcDbLine
 10
75.1713999999999771
 20
152.5400000000000773
 30
0.0
 11
70.3199999999999932
 21
152.5400000000000773
 31
0.0
  0
LINE
  5
351
100
AcDbEntity
  8
icones1
 62
256
370
-1
 48
1.0
  6
BYLAYER
100
AcDbLine
 10
70.3199999999999932
 20
152.5400000000000773
 30
0.0
 11
70.3199999999999932
 21
129.6799999999998931
 31
0.0
  0
LINE
  5
352
100
AcDbEntity
  8
icones1
 62
256
370
-1
 48
1.0
  6
BYLAYER
100
AcDbLine
 10
70.3199999999999932
 20
129.6799999999998931
 30
0.0
 11
52.5399999999999707
 21
129.6799999999998931
 31
0.0
  0
LINE
  5
353
100
AcDbEntity
  8
icones1
 62
256
370
-1
 48
1.0
  6
BYLAYER
100
AcDbLine
 10
52.5399999999999707
 20
129.6799999999998931
 30
0.0
 11
52.5399999999999707
 21
144.9200000000001012
 31
0.0
  0
ARC
  5
354
100
AcDbEntity
  8
icones2
 62
256
370
9
 48
1.0
  6
BYLAYER
100
AcDbCircle
 10
450.7761139788210585
 20
53.2150827194999039
 30
0.0
 40
1.0836614506816016
100
AcDbArc
 50
192.5218937245666098
 51
282.3489892804877854
  0
LINE
  5
355
100
AcDbEntity
  8
icones1
 62
256
370
-1
 48
1.0
  6
BYLAYER
100
AcDbLine
 10
52.5399999999999707
 20
144.9200000000001012
 30
0.0
 11
47.460000000000008
 21
144.9200000000001012
 31
0.0
  0
LINE
  5
356
100
AcDbEntity
  8
icones1
 62
256
370
-1
 48
1.0
  6
BYLAYER
100
AcDbLine
 10
47.460000000000008
 20
144.9200000000001012
 30
0.0
 11
47.460000000000008
 21
129.6799999999998931
 31
0.0
  0
LINE
  5
357
100
AcDbEntity
  8
icones1
 62
256
370
-1
 48
1.0
  6
BYLAYER
100
AcDbLine
 10
47.460000000000008
 20
129.6799999999998931
 30
0.0
 11
29.6799999999999784
 21
129.6799999999998931
 31
0.0
  0
LINE
  5
358
100
AcDbEntity
  8
icones1
 62
256
370
-1
 48
1.0
  6
BYLAYER
100
AcDbLine
 10
29.6799999999999784
 20
129.6799999999998931
 30
0.0
 11
29.6799999999999784
 21
152.5400000000000773
 31
0.0
  0
LINE
  5
359
100
AcDbEntity
  8
icones1
 62
256
370
-1
 48
1.0
  6
BYLAYER
100
AcDbLine
 10
29.6799999999999784
 20
152.5400000000000773
 30
0.0
 11
24.8285999999999945
 21
152.5400000000000773
 31
0.0
  0
LINE
  5
35A
100
AcDbEntity
  8
icones1
 62
256
370
-1
 48
1.0
  6
BYLAYER
100
AcDbLine
 10
24.8285999999999945
 20
152.5400000000000773
 30
0.0
 11
49.9999999999999574
 21
177.7113999999999123
 31
0.0
  0
LINE
  5
35B
100
AcDbEntity
  8
icones1
 62
256
370
-1
 48
1.0
  6
BYLAYER
100
AcDbLine
 10
272.0133333333336054
 20
66.9333333333333371
 30
0.0
 11
272.0133333333336054
 21
50.0
 31
0.0
  0
LINE
  5
35C
100
AcDbEntity
  8
icones2
 62
256
370
9
 48
1.0
  6
BYLAYER
100
AcDbLine
 10
451.0078719999882537
 20
52.1564938666783888
 30
0.0
 11
454.1615359999882457
 21
52.8392458666783682
 31
0.0
  0
ARC
  5
35D
100
AcDbEntity
  8
icones2
 62
256
370
9
 48
1.0
  6
BYLAYER
100
AcDbCircle
 10
464.4299231163417403
 20
59.5104090205428662
 30
0.0
 40
12.2451701416017791
100
AcDbArc
 50
213.0109664840023243
 51
221.0193010854843294
  0
LINE
  5
35E
100
AcDbEntity
  8
icones2
 62
256
370
9
 48
1.0
  6
BYLAYER
100
AcDbLine
 10
455.191082666654836
 20
51.4737418666784095
 30
0.0
 11
453.4571093333215686
 21
48.7644085333450619
 31
0.0
  0
ARC
  5
35F
100
AcDbEntity
  8
icones2
 62
256
370
9
 48
1.0
  6
BYLAYER
100
AcDbCircle
 10
454.3695627783185387
 20
48.1796528474748413
 30
0.0
 40
1.0837483570664985
100
AcDbArc
 50
147.3457799747948513
 51
237.1837674809899852
  0
LINE
  5
360
100
AcDbEntity
  8
icones2
 62
256
370
9
 48
1.0
  6
BYLAYER
100
AcDbLine
 10
453.7822293333214816
 20
47.2688565333450867
 30
0.0
 11
458.420607999988249
 21
44.2885898666783788
 31
0.0
  0
ARC
  5
361
100
AcDbEntity
  8
icones2
 62
256
370
9
 48
1.0
  6
BYLAYER
100
AcDbCircle
 10
459.0053636858584696
 20
45.2010433116753489
 30
0.0
 40
1.083748357066483
100
AcDbArc
 50
237.3457799747935724
 51
327.1837674809894452
  0
LINE
  5
362
100
AcDbEntity
  8
icones2
 62
256
370
9
 48
1.0
  6
BYLAYER
100
AcDbLine
 10
459.9161599999882242
 20
44.6137098666783771
 30
0.0
 11
461.6284586666549217
 21
47.2905312000116993
 31
0.0
  0
ARC
  5
363
100
AcDbEntity
  8
icones2
 62
256
370
9
 48
1.0
  6
BYLAYER
100
AcDbCircle
 10
464.6657236072928754
 20
58.9708340395558963
 30
0.0
 40
12.0687386558451379
100
AcDbArc
 50
255.4240093208271105
 51
263.6453138219688412
  0
LINE
  5
364
100
AcDbEntity
  8
icones2
 62
256
370
9
 48
1.0
  6
BYLAYER
100
AcDbLine
 10
463.3299199999882489
 20
46.9762485333450712
 30
0.0
 11
464.0018346666548155
 21
43.8876085333450447
 31
0.0
  0
ARC
  5
365
100
AcDbEntity
  8
icones2
 62
256
370
9
 48
1.0
  6
BYLAYER
100
AcDbCircle
 10
465.0614625535303048
 20
44.1149278163096454
 30
0.0
 40
1.0837367369668272
100
AcDbArc
 50
192.1079995358842325
 51
271.2745293292188649
  0
LINE
  5
366
100
AcDbEntity
  8
icones2
 62
256
370
9
 48
1.0
  6
BYLAYER
100
AcDbLine
 10
465.0855679999882568
 20
43.031459200011696
 30
0.0
 11
465.3131519999881789
 21
43.031459200011696
 31
0.0
  0
LINE
  5
367
100
AcDbEntity
  8
icones2
 62
256
370
9
 48
1.0
  6
BYLAYER
100
AcDbLine
 10
465.3131519999881789
 20
43.031459200011696
 30
0.0
 11
470.7318186666548741
 21
44.2018912000117155
 31
0.0
  0
ARC
  5
368
100
AcDbEntity
  8
icones2
 62
256
370
9
 48
1.0
  6
BYLAYER
100
AcDbCircle
 10
470.4001137863899658
 20
45.2335518013683213
 30
0.0
 40
1.0836751007488119
100
AcDbArc
 50
287.8239066980187317
 51
14.9551739700499571
  0
LINE
  5
369
100
AcDbEntity
  8
icones2
 62
256
370
9
 48
1.0
  6
BYLAYER
100
AcDbLine
 10
471.4470826666549215
 20
45.5132085333450362
 30
0.0
 11
470.7860053333215546
 21
48.5476618666783821
 31
0.0
  0
ARC
  5
36A
100
AcDbEntity
  8
icones2
 62
256
370
9
 48
1.0
  6
BYLAYER
100
AcDbCircle
 10
464.5939007815716195
 20
59.1843922505992737
 30
0.0
 40
12.3078102049076303
100
AcDbArc
 50
300.2055508358322413
 51
308.524927286687614
  0
LINE
  5
36B
100
AcDbEntity
  8
icones2
 62
256
370
9
 48
1.0
  6
BYLAYER
100
AcDbLine
 10
472.2598826666549598
 20
49.5555338666784024
 30
0.0
 11
474.8933546666548864
 21
47.8649098666784028
 31
0.0
  0
ARC
  5
36C
100
AcDbEntity
  8
icones2
 62
256
370
9
 48
1.0
  6
BYLAYER
100
AcDbCircle
 10
475.4781103525251069
 20
48.777363311675245
 30
0.0
 40
1.0837483570664561
100
AcDbArc
 50
237.3457799747921229
 51
327.1837674809927421
  0
LINE
  5
36D
100
AcDbEntity
  8
icones2
 62
256
370
9
 48
1.0
  6
BYLAYER
100
AcDbLine
 10
476.3889066666548615
 20
48.1900298666783584
 30
0.0
 11
479.3691733333216121
 21
52.8392458666783682
 31
0.0
  0
ARC
  5
36E
100
AcDbEntity
  8
icones2
 62
256
370
9
 48
1.0
  6
BYLAYER
100
AcDbCircle
 10
478.4686896788701347
 20
53.4422007338758931
 30
0.0
 40
1.083709086337902
100
AcDbArc
 50
326.1941302843636663
 51
56.1913314270981914
  0
ARC
  5
36F
100
AcDbEntity
  8
icones2
 62
256
370
9
 48
1.0
  6
BYLAYER
100
AcDbCircle
 10
478.4965878979155605
 20
53.4875896487919107
 30
0.0
 40
1.0304743479060186
100
AcDbArc
 50
56.0759739695280004
 51
58.6168673679371892
  0
LINE
  5
370
100
AcDbEntity
  8
icones2
 62
256
370
9
 48
1.0
  6
BYLAYER
100
AcDbLine
 10
479.0332159999881583
 20
54.3673098666784114
 30
0.0
 11
476.4647679999882826
 21
56.014584533345058
 31
0.0
  0
ARC
  5
371
100
AcDbEntity
  8
icones2
 62
256
370
9
 48
1.0
  6
BYLAYER
100
AcDbCircle
 10
464.7924808996950219
 20
59.0529109892213029
 30
0.0
 40
12.0612484347246163
100
AcDbArc
 50
345.4095461435900347
 51
354.1022789634927221
  0
LINE
  5
372
100
AcDbEntity
  8
icones2
 62
256
370
9
 48
1.0
  6
BYLAYER
100
AcDbLine
 10
476.7898879999881956
 20
57.8135818666783763
 30
0.0
 11
479.7593173333215759
 21
58.4638218666783729
 31
0.0
  0
ARC
  5
373
100
AcDbEntity
  8
icones2
 62
256
370
9
 48
1.0
  6
BYLAYER
100
AcDbCircle
 10
479.5521687079671551
 20
59.5275417588104006
 30
0.0
 40
1.083702247807703
100
AcDbArc
 50
281.0198474288345665
 51
11.024143037901478
  0
LINE
  5
374
100
AcDbEntity
  8
icones2
 62
256
370
9
 48
1.0
  6
BYLAYER
100
AcDbLine
 10
465.4106879999881698
 20
55.2559712000117429
 30
0.0
 11
465.4215253333215401
 21
55.2559712000117429
 31
0.0
  0
ARC
  5
375
100
AcDbEntity
  8
icones2
 62
256
370
9
 48
1.0
  6
BYLAYER
100
AcDbCircle
 10
464.6336338789765819
 20
59.1433823445669731
 30
0.0
 40
3.9664516069959985
100
AcDbArc
 50
193.2207995791636677
 51
281.4573749774907014
  0
ARC
  5
376
100
AcDbEntity
  8
icones2
 62
256
370
9
 48
1.0
  6
BYLAYER
100
AcDbCircle
 10
464.5958101768815141
 20
59.0650974626870635
 30
0.0
 40
3.9123096670123987
100
AcDbArc
 50
102.4468341683348456
 51
192.231340388318614
  0
ARC
  5
377
100
AcDbEntity
  8
icones2
 62
256
370
9
 48
1.0
  6
BYLAYER
100
AcDbCircle
 10
464.5788641207083174
 20
58.9916893714142958
 30
0.0
 40
3.9804715804817024
100
AcDbArc
 50
89.8821609820037537
 51
101.9808928678365305
  0
ARC
  5
378
100
AcDbEntity
  8
icones2
 62
256
370
9
 48
1.0
  6
BYLAYER
100
AcDbCircle
 10
464.5927747168976225
 20
59.0707470842144033
 30
0.0
 40
3.9014096482242708
100
AcDbArc
 50
0.0830496130360773
 51
90.0840629587428907
  0
ARC
  5
379
100
AcDbEntity
  8
icones2
 62
256
370
9
 48
1.0
  6
BYLAYER
100
AcDbCircle
 10
464.5926525235406643
 20
59.0707802771256496
 30
0.0
 40
3.9015317934828628
100
AcDbArc
 50
282.1030337137034394
 51
0.0825595594031803
  0
LINE
  5
37A
100
AcDbEntity
  8
layer 1
 62
256
370
-1
 48
1.0
  6
BYLAYER
100
AcDbLine
 10
-4.2048700961005352
 20
-3.3720102835617638
 30
0.0
 11
595.7951299038994648
 21
-3.3720102835617638
 31
0.0
  0
LINE
  5
37B
100
AcDbEntity
  8
layer 1
 62
256
370
-1
 48
1.0
  6
BYLAYER
100
AcDbLine
 10
595.7951299038994648
 20
-3.3720102835617638
 30
0.0
 11
595.7951299038994648
 21
396.6279897164382646
 31
0.0
  0
LINE
  5
37C
100
AcDbEntity
  8
layer 1
 62
256
370
-1
 48
1.0
  6
BYLAYER
100
AcDbLine
 10
595.7951299038994648
 20
396.6279897164382646
 30
0.0
 11
-4.2048700961005352
 21
396.6279897164382646
 31
0.0
  0
LINE
  5
37D
100
AcDbEntity
  8
layer 1
 62
256
370
-1
 48
1.0
  6
BYLAYER
100
AcDbLine
 10
-4.2048700961005352
 20
396.6279897164382646
 30
0.0
 11
-4.2048700961005352
 21
-3.3720102835617638
 31
0.0
  0
ENDSEC
  0
SECTION
  2
OBJECTS
  0
DICTIONARY
  5
C
100
AcDbDictionary
280
0
281
1
  3
ACAD_GROUP
350
D
  3
ACAD_LAYOUT
350
1A
  3
ACAD_MLINESTYLE
350
17
  3
ACAD_PLOTSETTINGS
350
19
  3
ACAD_PLOTSTYLENAME
350
E
  3
AcDbVariableDictionary
350
37E
  3
QCAD_OBJECTS
350
37F
  0
DICTIONARY
  5
D
100
AcDbDictionary
280
0
281
1
  0
ACDBDICTIONARYWDFLT
  5
E
100
AcDbDictionary
281
1
  3
Normal
350
F
100
AcDbDictionaryWithDefault
340
F
  0
ACDBPLACEHOLDER
  5
F
  0
DICTIONARY
  5
17
100
AcDbDictionary
280
0
281
1
  3
Standard
350
18
  0
MLINESTYLE
  5
18
100
AcDbMlineStyle
  2
STANDARD
 70
0
  3

 62
256
 51
90.0
 52
90.0
 71
2
 49
0.5
 62
256
  6
BYLAYER
 49
-0.5
 62
256
  6
BYLAYER
  0
DICTIONARY
  5
19
100
AcDbDictionary
280
0
281
1
  0
DICTIONARY
  5
1A
100
AcDbDictionary
281
1
  3
Layout1
350
1E
  3
Layout2
350
26
  3
Model
350
22
  0
LAYOUT
  5
1E
100
AcDbPlotSettings
  1

  2
none_device
  4

  6

 40
0.0
 41
0.0
 42
0.0
 43
0.0
 44
0.0
 45
0.0
 46
0.0
 47
0.0
 48
0.0
 49
0.0
140
0.0
141
0.0
142
1.0
143
1.0
 70
688
 72
0
 73
0
 74
5
  7

 75
16
147
1.0
148
0.0
149
0.0
100
AcDbLayout
  1
Layout1
 70
1
 71
1
 10
0.0
 20
0.0
 11
420.0
 21
297.0
 12
0.0
 22
0.0
 32
0.0
 14
100000000000000000000.0
 24
100000000000000000000.0
 34
100000000000000000000.0
 15
-100000000000000000000.0
 25
-100000000000000000000.0
 35
-100000000000000000000.0
146
0.0
 13
0.0
 23
0.0
 33
0.0
 16
1.0
 26
0.0
 36
0.0
 17
0.0
 27
1.0
 37
0.0
 76
0
330
1B
  0
LAYOUT
  5
22
100
AcDbPlotSettings
  1

  2
none_device
  4

  6

 40
0.0
 41
0.0
 42
0.0
 43
0.0
 44
0.0
 45
0.0
 46
0.0
 47
0.0
 48
0.0
 49
0.0
140
0.0
141
0.0
142
1.0
143
1.0
 70
1712
 72
0
 73
0
 74
0
  7

 75
0
147
1.0
148
0.0
149
0.0
100
AcDbLayout
  1
Model
 70
1
 71
0
 10
0.0
 20
0.0
 11
12.0
 21
9.0
 12
0.0
 22
0.0
 32
0.0
 14
0.0
 24
0.0
 34
0.0
 15
0.0
 25
0.0
 35
0.0
146
0.0
 13
0.0
 23
0.0
 33
0.0
 16
1.0
 26
0.0
 36
0.0
 17
0.0
 27
1.0
 37
0.0
 76
0
330
1F
  0
LAYOUT
  5
26
100
AcDbPlotSettings
  1

  2
none_device
  4

  6

 40
0.0
 41
0.0
 42
0.0
 43
0.0
 44
0.0
 45
0.0
 46
0.0
 47
0.0
 48
0.0
 49
0.0
140
0.0
141
0.0
142
1.0
143
1.0
 70
688
 72
0
 73
0
 74
5
  7

 75
16
147
1.0
148
0.0
149
0.0
100
AcDbLayout
  1
Layout2
 70
1
 71
2
 10
0.0
 20
0.0
 11
12.0
 21
9.0
 12
0.0
 22
0.0
 32
0.0
 14
0.0
 24
0.0
 34
0.0
 15
0.0
 25
0.0
 35
0.0
146
0.0
 13
0.0
 23
0.0
 33
0.0
 16
1.0
 26
0.0
 36
0.0
 17
0.0
 27
1.0
 37
0.0
 76
0
330
23
  0
DICTIONARY
  5
37E
100
AcDbDictionary
281
1
  3
DIMASSOC
350
381
  3
HIDETEXT
350
380
  0
DICTIONARYVAR
  5
380
100
DictionaryVariables
280
0
  1
2
  0
DICTIONARYVAR
  5
381
100
DictionaryVariables
280
0
  1
1
  0
DICTIONARY
  5
37F
100
AcDbDictionary
281
1
  3
ColorSettings/BackgroundColor
350
382
  3
ColorSettings/ColorMode
350
383
  3
Grid/DisplayGrid00
350
384
  3
Grid/DisplayGrid01
350
385
  3
Grid/DisplayGrid02
350
386
  3
Grid/DisplayGrid03
350
387
  3
Grid/GridSpacingX00
350
388
  3
Grid/GridSpacingX01
350
389
  3
Grid/GridSpacingX02
350
38A
  3
Grid/GridSpacingX03
350
38B
  3
Grid/GridSpacingY00
350
38C
  3
Grid/GridSpacingY01
350
38D
  3
Grid/GridSpacingY02
350
38E
  3
Grid/GridSpacingY03
350
38F
  3
Grid/IsometricGrid00
350
390
  3
Grid/IsometricGrid01
350
391
  3
Grid/IsometricGrid02
350
392
  3
Grid/IsometricGrid03
350
393
  3
Grid/IsometricProjection00
350
394
  3
Grid/IsometricProjection01
350
395
  3
Grid/IsometricProjection02
350
396
  3
Grid/IsometricProjection03
350
397
  3
Grid/MetaGridSpacingX00
350
398
  3
Grid/MetaGridSpacingX01
350
399
  3
Grid/MetaGridSpacingX02
350
39A
  3
Grid/MetaGridSpacingX03
350
39B
  3
Grid/MetaGridSpacingY00
350
39C
  3
Grid/MetaGridSpacingY01
350
39D
  3
Grid/MetaGridSpacingY02
350
39E
  3
Grid/MetaGridSpacingY03
350
39F
  3
MultiPageSettings/Columns
350
3A0
  3
MultiPageSettings/GlueMarginsBottom
350
3A1
  3
MultiPageSettings/GlueMarginsLeft
350
3A2
  3
MultiPageSettings/GlueMarginsRight
350
3A3
  3
MultiPageSettings/GlueMarginsTop
350
3A4
  3
MultiPageSettings/PrintCropMarks
350
3A5
  3
MultiPageSettings/Rows
350
3A6
  3
PageSettings/OffsetX
350
3A7
  3
PageSettings/OffsetY
350
3A8
  3
PageSettings/PageOrientation
350
3A9
  3
PageSettings/PaperHeight
350
3AA
  3
PageSettings/PaperWidth
350
3AB
  3
PageSettings/Scale
350
3AC
  3
PageSettings/ShowPaperBorders
350
3AD
  3
QCADVersion
350
3AE
  3
UnitSettings/PaperUnit
350
3AF
  3
ViewportCenter
350
3B0
  3
ViewportHeight
350
3B1
  3
ViewportWidth
350
3B2
  0
XRECORD
  5
382
330
37F
100
AcDbXrecord
280
1
1000
Blanc
  0
XRECORD
  5
383
330
37F
100
AcDbXrecord
280
1
1000
FullColor
  0
XRECORD
  5
384
330
37F
100
AcDbXrecord
280
1
290
1
  0
XRECORD
  5
385
330
37F
100
AcDbXrecord
280
1
290
1
  0
XRECORD
  5
386
330
37F
100
AcDbXrecord
280
1
290
1
  0
XRECORD
  5
387
330
37F
100
AcDbXrecord
280
1
290
1
  0
XRECORD
  5
388
330
37F
100
AcDbXrecord
280
1
1000
auto
  0
XRECORD
  5
389
330
37F
100
AcDbXrecord
280
1
1000
auto
  0
XRECORD
  5
38A
330
37F
100
AcDbXrecord
280
1
1000
auto
  0
XRECORD
  5
38B
330
37F
100
AcDbXrecord
280
1
1000
auto
  0
XRECORD
  5
38C
330
37F
100
AcDbXrecord
280
1
1000
auto
  0
XRECORD
  5
38D
330
37F
100
AcDbXrecord
280
1
1000
auto
  0
XRECORD
  5
38E
330
37F
100
AcDbXrecord
280
1
1000
auto
  0
XRECORD
  5
38F
330
37F
100
AcDbXrecord
280
1
1000
auto
  0
XRECORD
  5
390
330
37F
100
AcDbXrecord
280
1
290
0
  0
XRECORD
  5
391
330
37F
100
AcDbXrecord
280
1
290
0
  0
XRECORD
  5
392
330
37F
100
AcDbXrecord
280
1
290
0
  0
XRECORD
  5
393
330
37F
100
AcDbXrecord
280
1
290
0
  0
XRECORD
  5
394
330
37F
100
AcDbXrecord
280
1
 90
65537
  0
XRECORD
  5
395
330
37F
100
AcDbXrecord
280
1
 90
65537
  0
XRECORD
  5
396
330
37F
100
AcDbXrecord
280
1
 90
65537
  0
XRECORD
  5
397
330
37F
100
AcDbXrecord
280
1
 90
65537
  0
XRECORD
  5
398
330
37F
100
AcDbXrecord
280
1
1000
auto
  0
XRECORD
  5
399
330
37F
100
AcDbXrecord
280
1
1000
auto
  0
XRECORD
  5
39A
330
37F
100
AcDbXrecord
280
1
1000
auto
  0
XRECORD
  5
39B
330
37F
100
AcDbXrecord
280
1
1000
auto
  0
XRECORD
  5
39C
330
37F
100
AcDbXrecord
280
1
1000
auto
  0
XRECORD
  5
39D
330
37F
100
AcDbXrecord
280
1
1000
auto
  0
XRECORD
  5
39E
330
37F
100
AcDbXrecord
280
1
1000
auto
  0
XRECORD
  5
39F
330
37F
100
AcDbXrecord
280
1
1000
auto
  0
XRECORD
  5
3A0
330
37F
100
AcDbXrecord
280
1
 90
1
  0
XRECORD
  5
3A1
330
37F
100
AcDbXrecord
280
1
 40
10.0
  0
XRECORD
  5
3A2
330
37F
100
AcDbXrecord
280
1
 40
10.0
  0
XRECORD
  5
3A3
330
37F
100
AcDbXrecord
280
1
 40
10.0
  0
XRECORD
  5
3A4
330
37F
100
AcDbXrecord
280
1
 40
10.0
  0
XRECORD
  5
3A5
330
37F
100
AcDbXrecord
280
1
290
0
  0
XRECORD
  5
3A6
330
37F
100
AcDbXrecord
280
1
 90
1
  0
XRECORD
  5
3A7
330
37F
100
AcDbXrecord
280
1
 40
0.0
  0
XRECORD
  5
3A8
330
37F
100
AcDbXrecord
280
1
 40
0.0
  0
XRECORD
  5
3A9
330
37F
100
AcDbXrecord
280
1
1000
Landscape
  0
XRECORD
  5
3AA
330
37F
100
AcDbXrecord
280
1
 40
297.0
  0
XRECORD
  5
3AB
330
37F
100
AcDbXrecord
280
1
 40
210.0
  0
XRECORD
  5
3AC
330
37F
100
AcDbXrecord
280
1
1000
1:1
  0
XRECORD
  5
3AD
330
37F
100
AcDbXrecord
280
1
290
1
  0
XRECORD
  5
3AE
330
37F
100
AcDbXrecord
280
1
1000
3.19.2.2
  0
XRECORD
  5
3AF
330
37F
100
AcDbXrecord
280
1
 90
4
  0
XRECORD
  5
3B1
330
37F
100
AcDbXrecord
280
1
 40
121.7439837143680847
  0
XRECORD
  5
3B2
330
37F
100
AcDbXrecord
280
1
 40
145.6643558811207697
  0
ENDSEC
  0
EOF
