999
dxflib 3.17.0.0
  0
SECTION
  2
HEADER
  9
$ACADVER
  1
AC1015
  9
$HANDSEED
  5
FFFF
  9
$DIMADEC
 70
0
  9
$DIMASZ
 40
0.18
  9
$DIMAUNIT
 70
0
  9
$DIMAZIN
 70
0
  9
$DIMDEC
 70
4
  9
$DIMDSEP
 70
46
  9
$DIMEXE
 40
0.18
  9
$DIMEXO
 40
0.0625
  9
$DIMGAP
 40
0.09
  9
$DIMLUNIT
 70
2
  9
$DIMSCALE
 40
1.0
  9
$DIMTSZ
 40
0.0
  9
$DIMTXT
 40
0.18
  9
$DIMZIN
 70
0
  9
$DWGCODEPAGE
  3
ANSI_1252
  9
$EXTMAX
 10
750.0
 20
975.0
 30
0.0
  9
$EXTMIN
 10
0.0
 20
0.0
 30
0.0
  9
$INSUNITS
 70
0
  9
$LTSCALE
 40
1.0
  9
$MAXACTVP
 70
64
  9
$MEASUREMENT
 70
1
  9
$PDMODE
 70
0
  9
$PDSIZE
 40
0.0
  0
ENDSEC
  0
SECTION
  2
TABLES
  0
TABLE
  2
VPORT
  5
8
100
AcDbSymbolTable
 70
1
  0
VPORT
  5
30
100
AcDbSymbolTableRecord
100
AcDbViewportTableRecord
  2
*Active
 70
0
 10
0.0
 20
0.0
 11
1.0
 21
1.0
 12
286.3055555555554861
 22
148.5
 13
0.0
 23
0.0
 14
10.0
 24
10.0
 15
10.0
 25
10.0
 16
0.0
 26
0.0
 36
1.0
 17
0.0
 27
0.0
 37
0.0
 40
297.0
 41
1.92798353909465
 42
50.0
 43
0.0
 44
0.0
 50
0.0
 51
0.0
 71
0
 72
100
 73
1
 74
3
 75
1
 76
1
 77
0
 78
0
281
0
 65
1
110
0.0
120
0.0
130
0.0
111
1.0
121
0.0
131
0.0
112
0.0
122
1.0
132
0.0
 79
0
146
0.0
  0
ENDTAB
  0
TABLE
  2
LTYPE
  5
5
100
AcDbSymbolTable
 70
41
  0
LTYPE
  5
16
100
AcDbSymbolTableRecord
100
AcDbLinetypeTableRecord
  2
Continuous
 70
0
  3
Solid line
 72
65
 73
0
 40
0.0
  0
LTYPE
  5
31
100
AcDbSymbolTableRecord
100
AcDbLinetypeTableRecord
  2
ACAD_ISO15W100
 70
0
  3
ISO double-dash triple-dot __ __ . . . __ __ . .
 72
65
 73
10
 40
39.0
 49
12.0
 74
0
 49
-3.0
 74
0
 49
12.0
 74
0
 49
-3.0
 74
0
 49
0.0
 74
0
 49
-3.0
 74
0
 49
0.0
 74
0
 49
-3.0
 74
0
 49
0.0
 74
0
 49
-3.0
 74
0
  0
LTYPE
  5
32
100
AcDbSymbolTableRecord
100
AcDbLinetypeTableRecord
  2
DIVIDE
 70
0
  3
Divide ____ . . ____ . . ____ . . ____ . . ____
 72
65
 73
6
 40
31.75
 49
12.6999999999999993
 74
0
 49
-6.3499999999999996
 74
0
 49
0.0
 74
0
 49
-6.3499999999999996
 74
0
 49
0.0
 74
0
 49
-6.3499999999999996
 74
0
  0
LTYPE
  5
33
100
AcDbSymbolTableRecord
100
AcDbLinetypeTableRecord
  2
ACAD_ISO10W100
 70
0
  3
ISO dash dot __ . __ . __ . __ . __ . __ . __ . 
 72
65
 73
4
 40
18.0
 49
12.0
 74
0
 49
-3.0
 74
0
 49
0.0
 74
0
 49
-3.0
 74
0
  0
LTYPE
  5
34
100
AcDbSymbolTableRecord
100
AcDbLinetypeTableRecord
  2
ACAD_ISO04W100
 70
0
  3
ISO long-dash dot ____ . ____ . ____ . ____ . _
 72
65
 73
4
 40
30.0
 49
24.0
 74
0
 49
-3.0
 74
0
 49
0.0
 74
0
 49
-3.0
 74
0
  0
LTYPE
  5
35
100
AcDbSymbolTableRecord
100
AcDbLinetypeTableRecord
  2
CENTER2
 70
0
  3
Center (.5x) ___ _ ___ _ ___ _ ___ _ ___ _ ___
 72
65
 73
4
 40
28.5750000000000028
 49
19.0500000000000007
 74
0
 49
-3.1749999999999998
 74
0
 49
3.1749999999999998
 74
0
 49
-3.1749999999999998
 74
0
  0
LTYPE
  5
36
100
AcDbSymbolTableRecord
100
AcDbLinetypeTableRecord
  2
ACAD_ISO11W100
 70
0
  3
ISO double-dash dot __ __ . __ __ . __ __ . __ _
 72
65
 73
6
 40
33.0
 49
12.0
 74
0
 49
-3.0
 74
0
 49
12.0
 74
0
 49
-3.0
 74
0
 49
0.0
 74
0
 49
-3.0
 74
0
  0
LTYPE
  5
37
100
AcDbSymbolTableRecord
100
AcDbLinetypeTableRecord
  2
HIDDEN2
 70
0
  3
Hidden (.5x) _ _ _ _ _ _ _ _ _ _ _ _ _ _ _ _ _ 
 72
65
 73
2
 40
4.7624999999999993
 49
3.1749999999999998
 74
0
 49
-1.5874999999999999
 74
0
  0
LTYPE
  5
38
100
AcDbSymbolTableRecord
100
AcDbLinetypeTableRecord
  2
BORDERX2
 70
0
  3
Border (2x) ____  ____  .  ____  ____  .  ___
 72
65
 73
6
 40
88.8999999999999915
 49
25.3999999999999986
 74
0
 49
-12.6999999999999993
 74
0
 49
25.3999999999999986
 74
0
 49
-12.6999999999999993
 74
0
 49
0.0
 74
0
 49
-12.6999999999999993
 74
0
  0
LTYPE
  5
39
100
AcDbSymbolTableRecord
100
AcDbLinetypeTableRecord
  2
ACAD_ISO05W100
 70
0
  3
ISO long-dash double-dot ____ .. ____ .. ____ . 
 72
65
 73
6
 40
33.0
 49
24.0
 74
0
 49
-3.0
 74
0
 49
0.0
 74
0
 49
-3.0
 74
0
 49
0.0
 74
0
 49
-3.0
 74
0
  0
LTYPE
  5
3A
100
AcDbSymbolTableRecord
100
AcDbLinetypeTableRecord
  2
DASHDOTX2
 70
0
  3
Dash dot (2x) ____  .  ____  .  ____  .  ___
 72
65
 73
4
 40
50.7999999999999972
 49
25.3999999999999986
 74
0
 49
-12.6999999999999993
 74
0
 49
0.0
 74
0
 49
-12.6999999999999993
 74
0
  0
LTYPE
  5
3B
100
AcDbSymbolTableRecord
100
AcDbLinetypeTableRecord
  2
HIDDENX2
 70
0
  3
Hidden (2x) ____ ____ ____ ____ ____ ____ ____ 
 72
65
 73
2
 40
19.0499999999999972
 49
12.6999999999999993
 74
0
 49
-6.3499999999999996
 74
0
  0
LTYPE
  5
3C
100
AcDbSymbolTableRecord
100
AcDbLinetypeTableRecord
  2
CENTERX2
 70
0
  3
Center (2x) ________  __  ________  __  _____
 72
65
 73
4
 40
101.6000000000000085
 49
63.5
 74
0
 49
-12.6999999999999993
 74
0
 49
12.6999999999999993
 74
0
 49
-12.6999999999999993
 74
0
  0
LTYPE
  5
3D
100
AcDbSymbolTableRecord
100
AcDbLinetypeTableRecord
  2
BORDER2
 70
0
  3
Border (.5x) __.__.__.__.__.__.__.__.__.__.__.
 72
65
 73
6
 40
22.2249999999999979
 49
6.3499999999999996
 74
0
 49
-3.1749999999999998
 74
0
 49
6.3499999999999996
 74
0
 49
-3.1749999999999998
 74
0
 49
0.0
 74
0
 49
-3.1749999999999998
 74
0
  0
LTYPE
  5
3E
100
AcDbSymbolTableRecord
100
AcDbLinetypeTableRecord
  2
DASHDOT2
 70
0
  3
Dash dot (.5x) _._._._._._._._._._._._._._._.
 72
65
 73
4
 40
12.6999999999999993
 49
6.3499999999999996
 74
0
 49
-3.1749999999999998
 74
0
 49
0.0
 74
0
 49
-3.1749999999999998
 74
0
  0
LTYPE
  5
3F
100
AcDbSymbolTableRecord
100
AcDbLinetypeTableRecord
  2
ACAD_ISO12W100
 70
0
  3
ISO dash double-dot __ . . __ . . __ . . __ . . 
 72
65
 73
6
 40
21.0
 49
12.0
 74
0
 49
-3.0
 74
0
 49
0.0
 74
0
 49
-3.0
 74
0
 49
0.0
 74
0
 49
-3.0
 74
0
  0
LTYPE
  5
40
100
AcDbSymbolTableRecord
100
AcDbLinetypeTableRecord
  2
ACAD_ISO07W100
 70
0
  3
ISO dot . . . . . . . . . . . . . . . . . . . . 
 72
65
 73
2
 40
3.0
 49
0.0
 74
0
 49
-3.0
 74
0
  0
LTYPE
  5
41
100
AcDbSymbolTableRecord
100
AcDbLinetypeTableRecord
  2
HIDDEN
 70
0
  3
Hidden __ __ __ __ __ __ __ __ __ __ __ __ __ __
 72
65
 73
2
 40
9.5249999999999986
 49
6.3499999999999996
 74
0
 49
-3.1749999999999998
 74
0
  0
LTYPE
  5
42
100
AcDbSymbolTableRecord
100
AcDbLinetypeTableRecord
  2
ACAD_ISO06W100
 70
0
  3
ISO long-dash triple-dot ____ ... ____ ... ____
 72
65
 73
8
 40
36.0
 49
24.0
 74
0
 49
-3.0
 74
0
 49
0.0
 74
0
 49
-3.0
 74
0
 49
0.0
 74
0
 49
-3.0
 74
0
 49
0.0
 74
0
 49
-3.0
 74
0
  0
LTYPE
  5
43
100
AcDbSymbolTableRecord
100
AcDbLinetypeTableRecord
  2
CENTER
 70
0
  3
Center ____ _ ____ _ ____ _ ____ _ ____ _ ____
 72
65
 73
4
 40
50.8000000000000043
 49
31.75
 74
0
 49
-6.3499999999999996
 74
0
 49
6.3499999999999996
 74
0
 49
-6.3499999999999996
 74
0
  0
LTYPE
  5
44
100
AcDbSymbolTableRecord
100
AcDbLinetypeTableRecord
  2
DOTX2
 70
0
  3
Dot (2x) .  .  .  .  .  .  .  .  .  .  .  .  .  .
 72
65
 73
2
 40
12.6999999999999993
 49
0.0
 74
0
 49
-12.6999999999999993
 74
0
  0
LTYPE
  5
45
100
AcDbSymbolTableRecord
100
AcDbLinetypeTableRecord
  2
PHANTOM
 70
0
  3
Phantom ______  __  __  ______  __  __  ______ 
 72
65
 73
6
 40
63.5000000000000071
 49
31.75
 74
0
 49
-6.3499999999999996
 74
0
 49
6.3499999999999996
 74
0
 49
-6.3499999999999996
 74
0
 49
6.3499999999999996
 74
0
 49
-6.3499999999999996
 74
0
  0
LTYPE
  5
46
100
AcDbSymbolTableRecord
100
AcDbLinetypeTableRecord
  2
ACAD_ISO08W100
 70
0
  3
ISO long-dash short-dash ____ __ ____ __ ____ _
 72
65
 73
4
 40
36.0
 49
24.0
 74
0
 49
-3.0
 74
0
 49
6.0
 74
0
 49
-3.0
 74
0
  0
LTYPE
  5
47
100
AcDbSymbolTableRecord
100
AcDbLinetypeTableRecord
  2
DASHEDX2
 70
0
  3
Dashed (2x) ____  ____  ____  ____  ____  ___
 72
65
 73
2
 40
38.0999999999999943
 49
25.3999999999999986
 74
0
 49
-12.6999999999999993
 74
0
  0
LTYPE
  5
48
100
AcDbSymbolTableRecord
100
AcDbLinetypeTableRecord
  2
ACAD_ISO02W100
 70
0
  3
ISO dash __ __ __ __ __ __ __ __ __ __ __ __ __
 72
65
 73
2
 40
15.0
 49
12.0
 74
0
 49
-3.0
 74
0
  0
LTYPE
  5
49
100
AcDbSymbolTableRecord
100
AcDbLinetypeTableRecord
  2
PHANTOM2
 70
0
  3
Phantom (.5x) ___ _ _ ___ _ _ ___ _ _ ___ _ _
 72
65
 73
6
 40
31.7500000000000036
 49
15.875
 74
0
 49
-3.1749999999999998
 74
0
 49
3.1749999999999998
 74
0
 49
-3.1749999999999998
 74
0
 49
3.1749999999999998
 74
0
 49
-3.1749999999999998
 74
0
  0
LTYPE
  5
4A
100
AcDbSymbolTableRecord
100
AcDbLinetypeTableRecord
  2
DASHED2
 70
0
  3
Dashed (.5x) _ _ _ _ _ _ _ _ _ _ _ _ _ _ _ _ _ 
 72
65
 73
2
 40
9.5249999999999986
 49
6.3499999999999996
 74
0
 49
-3.1749999999999998
 74
0
  0
LTYPE
  5
4B
100
AcDbSymbolTableRecord
100
AcDbLinetypeTableRecord
  2
ACAD_ISO09W100
 70
0
  3
ISO long-dash double-short-dash ____ __ __ ____
 72
65
 73
6
 40
45.0
 49
24.0
 74
0
 49
-3.0
 74
0
 49
6.0
 74
0
 49
-3.0
 74
0
 49
6.0
 74
0
 49
-3.0
 74
0
  0
LTYPE
  5
4C
100
AcDbSymbolTableRecord
100
AcDbLinetypeTableRecord
  2
ACAD_ISO13W100
 70
0
  3
ISO double-dash double-dot __ __ . . __ __ . . _
 72
65
 73
8
 40
36.0
 49
12.0
 74
0
 49
-3.0
 74
0
 49
12.0
 74
0
 49
-3.0
 74
0
 49
0.0
 74
0
 49
-3.0
 74
0
 49
0.0
 74
0
 49
-3.0
 74
0
  0
LTYPE
  5
4D
100
AcDbSymbolTableRecord
100
AcDbLinetypeTableRecord
  2
DOT2
 70
0
  3
Dot (.5x) ........................................
 72
65
 73
2
 40
3.1749999999999998
 49
0.0
 74
0
 49
-3.1749999999999998
 74
0
  0
LTYPE
  5
4E
100
AcDbSymbolTableRecord
100
AcDbLinetypeTableRecord
  2
DASHED
 70
0
  3
Dashed __ __ __ __ __ __ __ __ __ __ __ __ __ _
 72
65
 73
2
 40
19.0499999999999972
 49
12.6999999999999993
 74
0
 49
-6.3499999999999996
 74
0
  0
LTYPE
  5
4F
100
AcDbSymbolTableRecord
100
AcDbLinetypeTableRecord
  2
ACAD_ISO14W100
 70
0
  3
ISO dash triple-dot __ . . . __ . . . __ . . . _
 72
65
 73
8
 40
24.0
 49
12.0
 74
0
 49
-3.0
 74
0
 49
0.0
 74
0
 49
-3.0
 74
0
 49
0.0
 74
0
 49
-3.0
 74
0
 49
0.0
 74
0
 49
-3.0
 74
0
  0
LTYPE
  5
15
100
AcDbSymbolTableRecord
100
AcDbLinetypeTableRecord
  2
BYLAYER
 70
0
  3

 72
65
 73
0
 40
0.0
  0
LTYPE
  5
50
100
AcDbSymbolTableRecord
100
AcDbLinetypeTableRecord
  2
PHANTOMX2
 70
0
  3
Phantom (2x) ____________    ____    ____   _
 72
65
 73
6
 40
127.0000000000000142
 49
63.5
 74
0
 49
-12.6999999999999993
 74
0
 49
12.6999999999999993
 74
0
 49
-12.6999999999999993
 74
0
 49
12.6999999999999993
 74
0
 49
-12.6999999999999993
 74
0
  0
LTYPE
  5
14
100
AcDbSymbolTableRecord
100
AcDbLinetypeTableRecord
  2
BYBLOCK
 70
0
  3

 72
65
 73
0
 40
0.0
  0
LTYPE
  5
51
100
AcDbSymbolTableRecord
100
AcDbLinetypeTableRecord
  2
DIVIDEX2
 70
0
  3
Divide (2x) ________  .  .  ________  .  .  _
 72
65
 73
6
 40
63.5
 49
25.3999999999999986
 74
0
 49
-12.6999999999999993
 74
0
 49
0.0
 74
0
 49
-12.6999999999999993
 74
0
 49
0.0
 74
0
 49
-12.6999999999999993
 74
0
  0
LTYPE
  5
52
100
AcDbSymbolTableRecord
100
AcDbLinetypeTableRecord
  2
BORDER
 70
0
  3
Border __ __ . __ __ . __ __ . __ __ . __ __ .
 72
65
 73
6
 40
44.4499999999999957
 49
12.6999999999999993
 74
0
 49
-6.3499999999999996
 74
0
 49
12.6999999999999993
 74
0
 49
-6.3499999999999996
 74
0
 49
0.0
 74
0
 49
-6.3499999999999996
 74
0
  0
LTYPE
  5
53
100
AcDbSymbolTableRecord
100
AcDbLinetypeTableRecord
  2
DIVIDE2
 70
0
  3
Divide (.5x) __..__..__..__..__..__..__..__.._
 72
65
 73
6
 40
15.875
 49
6.3499999999999996
 74
0
 49
-3.1749999999999998
 74
0
 49
0.0
 74
0
 49
-3.1749999999999998
 74
0
 49
0.0
 74
0
 49
-3.1749999999999998
 74
0
  0
LTYPE
  5
54
100
AcDbSymbolTableRecord
100
AcDbLinetypeTableRecord
  2
DOT
 70
0
  3
Dot . . . . . . . . . . . . . . . . . . . . . . . .
 72
65
 73
2
 40
6.3499999999999996
 49
0.0
 74
0
 49
-6.3499999999999996
 74
0
  0
LTYPE
  5
55
100
AcDbSymbolTableRecord
100
AcDbLinetypeTableRecord
  2
DASHDOT
 70
0
  3
Dash dot __ . __ . __ . __ . __ . __ . __ . __
 72
65
 73
4
 40
25.3999999999999986
 49
12.6999999999999993
 74
0
 49
-6.3499999999999996
 74
0
 49
0.0
 74
0
 49
-6.3499999999999996
 74
0
  0
LTYPE
  5
56
100
AcDbSymbolTableRecord
100
AcDbLinetypeTableRecord
  2
ACAD_ISO03W100
 70
0
  3
ISO dash space __    __    __    __    __    __
 72
65
 73
2
 40
30.0
 49
12.0
 74
0
 49
-18.0
 74
0
  0
ENDTAB
  0
TABLE
  2
LAYER
  5
2
100
AcDbSymbolTable
 70
4
  0
LAYER
  5
57
100
AcDbSymbolTableRecord
100
AcDbLayerTableRecord
  2
3
 70
0
 62
7
420
0
  6
Continuous
370
25
390
F
  0
LAYER
  5
10
100
AcDbSymbolTableRecord
100
AcDbLayerTableRecord
  2
0
 70
0
 62
7
420
16777215
  6
Continuous
370
25
390
F
  0
LAYER
  5
58
100
AcDbSymbolTableRecord
100
AcDbLayerTableRecord
  2
1
 70
0
 62
7
  6
BYLAYER
370
5
390
F
  0
LAYER
  5
59
100
AcDbSymbolTableRecord
100
AcDbLayerTableRecord
  2
2
 70
0
 62
7
420
0
  6
Continuous
370
25
390
F
  0
ENDTAB
  0
TABLE
  2
STYLE
  5
3
100
AcDbSymbolTable
 70
1
  0
STYLE
  5
5A
100
AcDbSymbolTableRecord
100
AcDbTextStyleTableRecord
  2
Standard
 70
0
 40
0.0
 41
1.0
 50
0.0
 71
0
 42
2.5
  3

  4

1001
ACAD
1000
txt
1071
0
  0
ENDTAB
  0
TABLE
  2
VIEW
  5
6
100
AcDbSymbolTable
 70
0
  0
ENDTAB
  0
TABLE
  2
UCS
  5
7
100
AcDbSymbolTable
 70
0
  0
ENDTAB
  0
TABLE
  2
APPID
  5
9
100
AcDbSymbolTable
 70
1
  0
APPID
  5
12
100
AcDbSymbolTableRecord
100
AcDbRegAppTableRecord
  2
ACAD
 70
0
  0
APPID
  5
5B
100
AcDbSymbolTableRecord
100
AcDbRegAppTableRecord
  2
QCAD
 70
0
  0
ENDTAB
  0
TABLE
  2
DIMSTYLE
  5
A
100
AcDbSymbolTable
 70
1
100
AcDbDimStyleTable
 71
0
  0
DIMSTYLE
105
27
100
AcDbSymbolTableRecord
100
AcDbDimStyleTableRecord
  2
Standard
 41
0.18
 42
0.0625
 43
3.75
 44
0.18
 70
0
 73
0
 74
0
 77
1
 78
8
140
0.18
141
2.5
143
0.03937007874016
147
0.09
171
3
172
1
271
2
272
2
274
3
278
44
283
0
284
8
340
5A
  0
ENDTAB
  0
TABLE
  2
BLOCK_RECORD
  5
1
100
AcDbSymbolTable
 70
1
  0
BLOCK_RECORD
  5
1F
100
AcDbSymbolTableRecord
100
AcDbBlockTableRecord
  2
*Model_Space
340
22
  0
BLOCK_RECORD
  5
1B
100
AcDbSymbolTableRecord
100
AcDbBlockTableRecord
  2
*Paper_Space
340
1E
  0
BLOCK_RECORD
  5
23
100
AcDbSymbolTableRecord
100
AcDbBlockTableRecord
  2
*Paper_Space0
340
26
  0
ENDTAB
  0
ENDSEC
  0
SECTION
  2
BLOCKS
  0
BLOCK
  5
20
100
AcDbEntity
  8
0
100
AcDbBlockBegin
  2
*Model_Space
 70
0
 10
0.0
 20
0.0
 30
0.0
  3
*Model_Space
  1

  0
ENDBLK
  5
21
100
AcDbEntity
  8
0
100
AcDbBlockEnd
  0
BLOCK
  5
1C
100
AcDbEntity
 67
1
  8
0
100
AcDbBlockBegin
  2
*Paper_Space
 70
0
 10
0.0
 20
0.0
 30
0.0
  3
*Paper_Space
  1

  0
ENDBLK
  5
1D
100
AcDbEntity
 67
1
  8
0
100
AcDbBlockEnd
  0
BLOCK
  5
24
100
AcDbEntity
  8
0
100
AcDbBlockBegin
  2
*Paper_Space0
 70
0
 10
0.0
 20
0.0
 30
0.0
  3
*Paper_Space0
  1

  0
ENDBLK
  5
25
100
AcDbEntity
  8
0
100
AcDbBlockEnd
  0
ENDSEC
  0
SECTION
  2
ENTITIES
  0
LWPOLYLINE
  5
5C
100
AcDbEntity
  8
1
 62
256
370
-1
 48
1.0
  6
BYLAYER
100
AcDbPolyline
 90
125
 70
0
 10
46.0
 20
46.0
 10
49.0
 20
46.0
 10
49.0
 20
43.0
 10
55.0
 20
43.0
 10
55.0
 20
46.0
 10
61.0
 20
46.0
 10
61.0
 20
43.0
 10
67.0
 20
43.0
 10
67.0
 20
46.0
 10
73.0
 20
46.0
 10
73.0
 20
43.0
 10
79.0
 20
43.0
 10
79.0
 20
46.0
 10
85.0
 20
46.0
 10
85.0
 20
43.0
 10
91.0
 20
43.0
 10
91.0
 20
46.0
 10
97.0
 20
46.0
 10
97.0
 20
43.0
 10
103.0
 20
43.0
 10
103.0
 20
46.0
 10
109.0
 20
46.0
 10
109.0
 20
43.0
 10
115.0
 20
43.0
 10
115.0
 20
46.0
 10
121.0
 20
46.0
 10
121.0
 20
43.0
 10
127.0
 20
43.0
 10
127.0
 20
46.0
 10
133.0
 20
46.0
 10
133.0
 20
43.0
 10
139.0
 20
43.0
 10
139.0
 20
46.0
 10
145.0
 20
46.0
 10
145.0
 20
43.0
 10
151.0
 20
43.0
 10
151.0
 20
46.0
 10
157.0
 20
46.0
 10
157.0
 20
43.0
 10
163.0
 20
43.0
 10
163.0
 20
46.0
 10
169.0
 20
46.0
 10
169.0
 20
43.0
 10
175.0
 20
43.0
 10
175.0
 20
46.0
 10
181.0
 20
46.0
 10
181.0
 20
43.0
 10
187.0
 20
43.0
 10
187.0
 20
46.0
 10
190.0
 20
46.0
 10
190.0
 20
52.2899999999999991
 10
193.0
 20
52.2899999999999991
 10
193.0
 20
58.5700000000000003
 10
190.0
 20
58.5700000000000003
 10
190.0
 20
64.8599999999999994
 10
193.0
 20
64.8599999999999994
 10
193.0
 20
71.1400000000000006
 10
190.0
 20
71.1400000000000006
 10
190.0
 20
77.4300000000000068
 10
193.0
 20
77.4300000000000068
 10
193.0
 20
83.7099999999999937
 10
190.0
 20
83.7099999999999937
 10
190.0
 20
90.0
 10
187.0
 20
90.0
 10
187.0
 20
93.0
 10
181.0
 20
93.0
 10
181.0
 20
90.0
 10
175.0
 20
90.0
 10
175.0
 20
93.0
 10
169.0
 20
93.0
 10
169.0
 20
90.0
 10
163.0
 20
90.0
 10
163.0
 20
93.0
 10
157.0
 20
93.0
 10
157.0
 20
90.0
 10
151.0
 20
90.0
 10
151.0
 20
93.0
 10
145.0
 20
93.0
 10
145.0
 20
90.0
 10
139.0
 20
90.0
 10
139.0
 20
93.0
 10
133.0
 20
93.0
 10
133.0
 20
90.0
 10
127.0
 20
90.0
 10
127.0
 20
93.0
 10
121.0
 20
93.0
 10
121.0
 20
90.0
 10
115.0
 20
90.0
 10
115.0
 20
93.0
 10
109.0
 20
93.0
 10
109.0
 20
90.0
 10
103.0
 20
90.0
 10
103.0
 20
93.0
 10
97.0
 20
93.0
 10
97.0
 20
90.0
 10
91.0
 20
90.0
 10
91.0
 20
93.0
 10
85.0
 20
93.0
 10
85.0
 20
90.0
 10
79.0
 20
90.0
 10
79.0
 20
93.0
 10
73.0
 20
93.0
 10
73.0
 20
90.0
 10
67.0
 20
90.0
 10
67.0
 20
93.0
 10
61.0
 20
93.0
 10
61.0
 20
90.0
 10
55.0
 20
90.0
 10
55.0
 20
93.0
 10
49.0
 20
93.0
 10
49.0
 20
90.0
 10
46.0
 20
90.0
 10
46.0
 20
83.7099999999999937
 10
43.0
 20
83.7099999999999937
 10
43.0
 20
77.4300000000000068
 10
46.0
 20
77.4300000000000068
 10
46.0
 20
71.1400000000000006
 10
43.0
 20
71.1400000000000006
 10
43.0
 20
64.8599999999999994
 10
46.0
 20
64.8599999999999994
 10
46.0
 20
58.5700000000000003
 10
43.0
 20
58.5700000000000003
 10
43.0
 20
52.2899999999999991
 10
46.0
 20
52.2899999999999991
 10
46.0
 20
46.0
  0
LWPOLYLINE
  5
5D
100
AcDbEntity
  8
1
 62
256
370
-1
 48
1.0
  6
BYLAYER
100
AcDbPolyline
 90
5
 70
0
 10
55.0
 20
66.5
 10
61.0
 20
66.5
 10
61.0
 20
69.5
 10
55.0
 20
69.5
 10
55.0
 20
66.5
  0
LWPOLYLINE
  5
5E
100
AcDbEntity
  8
1
 62
256
370
-1
 48
1.0
  6
BYLAYER
100
AcDbPolyline
 90
5
 70
0
 10
67.0
 20
66.5
 10
73.0
 20
66.5
 10
73.0
 20
69.5
 10
67.0
 20
69.5
 10
67.0
 20
66.5
  0
LWPOLYLINE
  5
5F
100
AcDbEntity
  8
1
 62
256
370
-1
 48
1.0
  6
BYLAYER
100
AcDbPolyline
 90
5
 70
0
 10
79.0
 20
66.5
 10
85.0
 20
66.5
 10
85.0
 20
69.5
 10
79.0
 20
69.5
 10
79.0
 20
66.5
  0
LWPOLYLINE
  5
60
100
AcDbEntity
  8
1
 62
256
370
-1
 48
1.0
  6
BYLAYER
100
AcDbPolyline
 90
5
 70
0
 10
91.0
 20
66.5
 10
97.0
 20
66.5
 10
97.0
 20
69.5
 10
91.0
 20
69.5
 10
91.0
 20
66.5
  0
LWPOLYLINE
  5
61
100
AcDbEntity
  8
1
 62
256
370
-1
 48
1.0
  6
BYLAYER
100
AcDbPolyline
 90
5
 70
0
 10
103.0
 20
66.5
 10
109.0
 20
66.5
 10
109.0
 20
69.5
 10
103.0
 20
69.5
 10
103.0
 20
66.5
  0
LWPOLYLINE
  5
62
100
AcDbEntity
  8
1
 62
256
370
-1
 48
1.0
  6
BYLAYER
100
AcDbPolyline
 90
5
 70
0
 10
115.0
 20
66.5
 10
121.0
 20
66.5
 10
121.0
 20
69.5
 10
115.0
 20
69.5
 10
115.0
 20
66.5
  0
LWPOLYLINE
  5
63
100
AcDbEntity
  8
1
 62
256
370
-1
 48
1.0
  6
BYLAYER
100
AcDbPolyline
 90
5
 70
0
 10
127.0
 20
66.5
 10
133.0
 20
66.5
 10
133.0
 20
69.5
 10
127.0
 20
69.5
 10
127.0
 20
66.5
  0
LWPOLYLINE
  5
64
100
AcDbEntity
  8
1
 62
256
370
-1
 48
1.0
  6
BYLAYER
100
AcDbPolyline
 90
5
 70
0
 10
139.0
 20
66.5
 10
145.0
 20
66.5
 10
145.0
 20
69.5
 10
139.0
 20
69.5
 10
139.0
 20
66.5
  0
LWPOLYLINE
  5
65
100
AcDbEntity
  8
1
 62
256
370
-1
 48
1.0
  6
BYLAYER
100
AcDbPolyline
 90
5
 70
0
 10
151.0
 20
66.5
 10
157.0
 20
66.5
 10
157.0
 20
69.5
 10
151.0
 20
69.5
 10
151.0
 20
66.5
  0
LWPOLYLINE
  5
66
100
AcDbEntity
  8
1
 62
256
370
-1
 48
1.0
  6
BYLAYER
100
AcDbPolyline
 90
5
 70
0
 10
163.0
 20
66.5
 10
169.0
 20
66.5
 10
169.0
 20
69.5
 10
163.0
 20
69.5
 10
163.0
 20
66.5
  0
LWPOLYLINE
  5
67
100
AcDbEntity
  8
1
 62
256
370
-1
 48
1.0
  6
BYLAYER
100
AcDbPolyline
 90
5
 70
0
 10
175.0
 20
66.5
 10
181.0
 20
66.5
 10
181.0
 20
69.5
 10
175.0
 20
69.5
 10
175.0
 20
66.5
  0
LWPOLYLINE
  5
68
100
AcDbEntity
  8
1
 62
256
370
-1
 48
1.0
  6
BYLAYER
100
AcDbPolyline
 90
123
 70
0
 10
46.0
 20
0.0
 10
52.259999999999998
 20
0.0
 10
52.259999999999998
 20
3.0
 10
58.5200000000000031
 20
3.0
 10
58.5200000000000031
 20
0.0
 10
64.7800000000000011
 20
0.0
 10
64.7800000000000011
 20
3.0
 10
71.0400000000000063
 20
3.0
 10
71.0400000000000063
 20
0.0
 10
77.2999999999999972
 20
0.0
 10
77.2999999999999972
 20
3.0
 10
83.5600000000000023
 20
3.0
 10
83.5600000000000023
 20
0.0
 10
89.8299999999999983
 20
0.0
 10
89.8299999999999983
 20
3.0
 10
96.0900000000000034
 20
3.0
 10
96.0900000000000034
 20
0.0
 10
102.3499999999999943
 20
0.0
 10
102.3499999999999943
 20
3.0
 10
108.6099999999999994
 20
3.0
 10
108.6099999999999994
 20
0.0
 10
114.8700000000000045
 20
0.0
 10
114.8700000000000045
 20
3.0
 10
121.1299999999999955
 20
3.0
 10
121.1299999999999955
 20
0.0
 10
127.3900000000000006
 20
0.0
 10
127.3900000000000006
 20
3.0
 10
133.6500000000000057
 20
3.0
 10
133.6500000000000057
 20
0.0
 10
139.9099999999999966
 20
0.0
 10
139.9099999999999966
 20
3.0
 10
146.1699999999999875
 20
3.0
 10
146.1699999999999875
 20
0.0
 10
152.4399999999999977
 20
0.0
 10
152.4399999999999977
 20
3.0
 10
158.6999999999999886
 20
3.0
 10
158.6999999999999886
 20
0.0
 10
164.960000000000008
 20
0.0
 10
164.960000000000008
 20
3.0
 10
171.2199999999999989
 20
3.0
 10
171.2199999999999989
 20
0.0
 10
177.4799999999999898
 20
0.0
 10
177.4799999999999898
 20
3.0
 10
183.7400000000000091
 20
3.0
 10
183.7400000000000091
 20
0.0
 10
190.0
 20
0.0
 10
193.0
 20
0.0
 10
193.0
 20
5.71
 10
190.0
 20
5.71
 10
190.0
 20
11.4299999999999997
 10
193.0
 20
11.4299999999999997
 10
193.0
 20
17.1400000000000006
 10
190.0
 20
17.1400000000000006
 10
190.0
 20
22.8599999999999994
 10
193.0
 20
22.8599999999999994
 10
193.0
 20
28.5700000000000003
 10
190.0
 20
28.5700000000000003
 10
190.0
 20
34.2899999999999991
 10
193.0
 20
34.2899999999999991
 10
193.0
 20
40.0
 10
187.0
 20
40.0
 10
187.0
 20
37.0
 10
181.0
 20
37.0
 10
181.0
 20
40.0
 10
175.0
 20
40.0
 10
175.0
 20
37.0
 10
169.0
 20
37.0
 10
169.0
 20
40.0
 10
163.0
 20
40.0
 10
163.0
 20
37.0
 10
157.0
 20
37.0
 10
157.0
 20
40.0
 10
151.0
 20
40.0
 10
151.0
 20
37.0
 10
145.0
 20
37.0
 10
145.0
 20
40.0
 10
139.0
 20
40.0
 10
139.0
 20
37.0
 10
133.0
 20
37.0
 10
133.0
 20
40.0
 10
127.0
 20
40.0
 10
127.0
 20
37.0
 10
121.0
 20
37.0
 10
121.0
 20
40.0
 10
115.0
 20
40.0
 10
115.0
 20
37.0
 10
109.0
 20
37.0
 10
109.0
 20
40.0
 10
103.0
 20
40.0
 10
103.0
 20
37.0
 10
97.0
 20
37.0
 10
97.0
 20
40.0
 10
91.0
 20
40.0
 10
91.0
 20
37.0
 10
85.0
 20
37.0
 10
85.0
 20
40.0
 10
79.0
 20
40.0
 10
79.0
 20
37.0
 10
73.0
 20
37.0
 10
73.0
 20
40.0
 10
67.0
 20
40.0
 10
67.0
 20
37.0
 10
61.0
 20
37.0
 10
61.0
 20
40.0
 10
55.0
 20
40.0
 10
55.0
 20
37.0
 10
49.0
 20
37.0
 10
49.0
 20
40.0
 10
43.0
 20
40.0
 10
43.0
 20
34.2899999999999991
 10
46.0
 20
34.2899999999999991
 10
46.0
 20
28.5700000000000003
 10
43.0
 20
28.5700000000000003
 10
43.0
 20
22.8599999999999994
 10
46.0
 20
22.8599999999999994
 10
46.0
 20
17.1400000000000006
 10
43.0
 20
17.1400000000000006
 10
43.0
 20
11.4299999999999997
 10
46.0
 20
11.4299999999999997
 10
46.0
 20
5.71
 10
43.0
 20
5.71
 10
43.0
 20
0.0
 10
46.0
 20
0.0
  0
LWPOLYLINE
  5
69
100
AcDbEntity
  8
1
 62
256
370
-1
 48
1.0
  6
BYLAYER
100
AcDbPolyline
 90
123
 70
0
 10
46.0
 20
136.0
 10
52.259999999999998
 20
136.0
 10
52.259999999999998
 20
133.0
 10
58.5200000000000031
 20
133.0
 10
58.5200000000000031
 20
136.0
 10
64.7800000000000011
 20
136.0
 10
64.7800000000000011
 20
133.0
 10
71.0400000000000063
 20
133.0
 10
71.0400000000000063
 20
136.0
 10
77.2999999999999972
 20
136.0
 10
77.2999999999999972
 20
133.0
 10
83.5600000000000023
 20
133.0
 10
83.5600000000000023
 20
136.0
 10
89.8299999999999983
 20
136.0
 10
89.8299999999999983
 20
133.0
 10
96.0900000000000034
 20
133.0
 10
96.0900000000000034
 20
136.0
 10
102.3499999999999943
 20
136.0
 10
102.3499999999999943
 20
133.0
 10
108.6099999999999994
 20
133.0
 10
108.6099999999999994
 20
136.0
 10
114.8700000000000045
 20
136.0
 10
114.8700000000000045
 20
133.0
 10
121.1299999999999955
 20
133.0
 10
121.1299999999999955
 20
136.0
 10
127.3900000000000006
 20
136.0
 10
127.3900000000000006
 20
133.0
 10
133.6500000000000057
 20
133.0
 10
133.6500000000000057
 20
136.0
 10
139.9099999999999966
 20
136.0
 10
139.9099999999999966
 20
133.0
 10
146.1699999999999875
 20
133.0
 10
146.1699999999999875
 20
136.0
 10
152.4399999999999977
 20
136.0
 10
152.4399999999999977
 20
133.0
 10
158.6999999999999886
 20
133.0
 10
158.6999999999999886
 20
136.0
 10
164.960000000000008
 20
136.0
 10
164.960000000000008
 20
133.0
 10
171.2199999999999989
 20
133.0
 10
171.2199999999999989
 20
136.0
 10
177.4799999999999898
 20
136.0
 10
177.4799999999999898
 20
133.0
 10
183.7400000000000091
 20
133.0
 10
183.7400000000000091
 20
136.0
 10
190.0
 20
136.0
 10
193.0
 20
136.0
 10
193.0
 20
130.289999999999992
 10
190.0
 20
130.289999999999992
 10
190.0
 20
124.5699999999999932
 10
193.0
 20
124.5699999999999932
 10
193.0
 20
118.8599999999999994
 10
190.0
 20
118.8599999999999994
 10
190.0
 20
113.1400000000000006
 10
193.0
 20
113.1400000000000006
 10
193.0
 20
107.4300000000000068
 10
190.0
 20
107.4300000000000068
 10
190.0
 20
101.7099999999999937
 10
193.0
 20
101.7099999999999937
 10
193.0
 20
96.0
 10
187.0
 20
96.0
 10
187.0
 20
99.0
 10
181.0
 20
99.0
 10
181.0
 20
96.0
 10
175.0
 20
96.0
 10
175.0
 20
99.0
 10
169.0
 20
99.0
 10
169.0
 20
96.0
 10
163.0
 20
96.0
 10
163.0
 20
99.0
 10
157.0
 20
99.0
 10
157.0
 20
96.0
 10
151.0
 20
96.0
 10
151.0
 20
99.0
 10
145.0
 20
99.0
 10
145.0
 20
96.0
 10
139.0
 20
96.0
 10
139.0
 20
99.0
 10
133.0
 20
99.0
 10
133.0
 20
96.0
 10
127.0
 20
96.0
 10
127.0
 20
99.0
 10
121.0
 20
99.0
 10
121.0
 20
96.0
 10
115.0
 20
96.0
 10
115.0
 20
99.0
 10
109.0
 20
99.0
 10
109.0
 20
96.0
 10
103.0
 20
96.0
 10
103.0
 20
99.0
 10
97.0
 20
99.0
 10
97.0
 20
96.0
 10
91.0
 20
96.0
 10
91.0
 20
99.0
 10
85.0
 20
99.0
 10
85.0
 20
96.0
 10
79.0
 20
96.0
 10
79.0
 20
99.0
 10
73.0
 20
99.0
 10
73.0
 20
96.0
 10
67.0
 20
96.0
 10
67.0
 20
99.0
 10
61.0
 20
99.0
 10
61.0
 20
96.0
 10
55.0
 20
96.0
 10
55.0
 20
99.0
 10
49.0
 20
99.0
 10
49.0
 20
96.0
 10
43.0
 20
96.0
 10
43.0
 20
101.7099999999999937
 10
46.0
 20
101.7099999999999937
 10
46.0
 20
107.4300000000000068
 10
43.0
 20
107.4300000000000068
 10
43.0
 20
113.1400000000000006
 10
46.0
 20
113.1400000000000006
 10
46.0
 20
118.8599999999999994
 10
43.0
 20
118.8599999999999994
 10
43.0
 20
124.5699999999999932
 10
46.0
 20
124.5699999999999932
 10
46.0
 20
130.289999999999992
 10
43.0
 20
130.289999999999992
 10
43.0
 20
136.0
 10
46.0
 20
136.0
  0
LWPOLYLINE
  5
6A
100
AcDbEntity
  8
1
 62
256
370
-1
 48
1.0
  6
BYLAYER
100
AcDbPolyline
 90
53
 70
0
 10
0.0
 20
46.0
 10
0.0
 20
52.2899999999999991
 10
3.0
 20
52.2899999999999991
 10
3.0
 20
58.5700000000000003
 10
0.0
 20
58.5700000000000003
 10
0.0
 20
64.8599999999999994
 10
3.0
 20
64.8599999999999994
 10
3.0
 20
71.1400000000000006
 10
0.0
 20
71.1400000000000006
 10
0.0
 20
77.4300000000000068
 10
3.0
 20
77.4300000000000068
 10
3.0
 20
83.7099999999999937
 10
0.0
 20
83.7099999999999937
 10
0.0
 20
90.0
 10
5.71
 20
90.0
 10
5.71
 20
93.0
 10
11.4299999999999997
 20
93.0
 10
11.4299999999999997
 20
90.0
 10
17.1400000000000006
 20
90.0
 10
17.1400000000000006
 20
93.0
 10
22.8599999999999994
 20
93.0
 10
22.8599999999999994
 20
90.0
 10
28.5700000000000003
 20
90.0
 10
28.5700000000000003
 20
93.0
 10
34.2899999999999991
 20
93.0
 10
34.2899999999999991
 20
90.0
 10
40.0
 20
90.0
 10
40.0
 20
83.7099999999999937
 10
37.0
 20
83.7099999999999937
 10
37.0
 20
77.4300000000000068
 10
40.0
 20
77.4300000000000068
 10
40.0
 20
71.1400000000000006
 10
37.0
 20
71.1400000000000006
 10
37.0
 20
64.8599999999999994
 10
40.0
 20
64.8599999999999994
 10
40.0
 20
58.5700000000000003
 10
37.0
 20
58.5700000000000003
 10
37.0
 20
52.2899999999999991
 10
40.0
 20
52.2899999999999991
 10
40.0
 20
46.0
 10
34.2899999999999991
 20
46.0
 10
34.2899999999999991
 20
43.0
 10
28.5700000000000003
 20
43.0
 10
28.5700000000000003
 20
46.0
 10
22.8599999999999994
 20
46.0
 10
22.8599999999999994
 20
43.0
 10
17.1400000000000006
 20
43.0
 10
17.1400000000000006
 20
46.0
 10
11.4299999999999997
 20
46.0
 10
11.4299999999999997
 20
43.0
 10
5.71
 20
43.0
 10
5.71
 20
46.0
 10
0.0
 20
46.0
  0
LWPOLYLINE
  5
6B
100
AcDbEntity
  8
1
 62
256
370
-1
 48
1.0
  6
BYLAYER
100
AcDbPolyline
 90
5
 70
0
 10
11.4299999999999997
 20
66.5
 10
17.1400000000000006
 20
66.5
 10
17.1400000000000006
 20
69.5
 10
11.4299999999999997
 20
69.5
 10
11.4299999999999997
 20
66.5
  0
LWPOLYLINE
  5
6C
100
AcDbEntity
  8
1
 62
256
370
-1
 48
1.0
  6
BYLAYER
100
AcDbPolyline
 90
5
 70
0
 10
22.8599999999999994
 20
66.5
 10
28.5700000000000003
 20
66.5
 10
28.5700000000000003
 20
69.5
 10
22.8599999999999994
 20
69.5
 10
22.8599999999999994
 20
66.5
  0
LWPOLYLINE
  5
6D
100
AcDbEntity
  8
1
 62
256
370
-1
 48
1.0
  6
BYLAYER
100
AcDbPolyline
 90
53
 70
0
 10
236.0
 20
46.0
 10
236.0
 20
52.2899999999999991
 10
233.0
 20
52.2899999999999991
 10
233.0
 20
58.5700000000000003
 10
236.0
 20
58.5700000000000003
 10
236.0
 20
64.8599999999999994
 10
233.0
 20
64.8599999999999994
 10
233.0
 20
71.1400000000000006
 10
236.0
 20
71.1400000000000006
 10
236.0
 20
77.4300000000000068
 10
233.0
 20
77.4300000000000068
 10
233.0
 20
83.7099999999999937
 10
236.0
 20
83.7099999999999937
 10
236.0
 20
90.0
 10
230.289999999999992
 20
90.0
 10
230.289999999999992
 20
93.0
 10
224.5699999999999932
 20
93.0
 10
224.5699999999999932
 20
90.0
 10
218.8600000000000136
 20
90.0
 10
218.8600000000000136
 20
93.0
 10
213.1399999999999864
 20
93.0
 10
213.1399999999999864
 20
90.0
 10
207.4300000000000068
 20
90.0
 10
207.4300000000000068
 20
93.0
 10
201.710000000000008
 20
93.0
 10
201.710000000000008
 20
90.0
 10
196.0
 20
90.0
 10
196.0
 20
83.7099999999999937
 10
199.0
 20
83.7099999999999937
 10
199.0
 20
77.4300000000000068
 10
196.0
 20
77.4300000000000068
 10
196.0
 20
71.1400000000000006
 10
199.0
 20
71.1400000000000006
 10
199.0
 20
64.8599999999999994
 10
196.0
 20
64.8599999999999994
 10
196.0
 20
58.5700000000000003
 10
199.0
 20
58.5700000000000003
 10
199.0
 20
52.2899999999999991
 10
196.0
 20
52.2899999999999991
 10
196.0
 20
46.0
 10
201.710000000000008
 20
46.0
 10
201.710000000000008
 20
43.0
 10
207.4300000000000068
 20
43.0
 10
207.4300000000000068
 20
46.0
 10
213.1399999999999864
 20
46.0
 10
213.1399999999999864
 20
43.0
 10
218.8600000000000136
 20
43.0
 10
218.8600000000000136
 20
46.0
 10
224.5699999999999932
 20
46.0
 10
224.5699999999999932
 20
43.0
 10
230.289999999999992
 20
43.0
 10
230.289999999999992
 20
46.0
 10
236.0
 20
46.0
  0
LWPOLYLINE
  5
6E
100
AcDbEntity
  8
1
 62
256
370
-1
 48
1.0
  6
BYLAYER
100
AcDbPolyline
 90
5
 70
0
 10
224.5699999999999932
 20
66.5
 10
218.8600000000000136
 20
66.5
 10
218.8600000000000136
 20
69.5
 10
224.5699999999999932
 20
69.5
 10
224.5699999999999932
 20
66.5
  0
LWPOLYLINE
  5
6F
100
AcDbEntity
  8
1
 62
256
370
-1
 48
1.0
  6
BYLAYER
100
AcDbPolyline
 90
5
 70
0
 10
213.1399999999999864
 20
66.5
 10
207.4300000000000068
 20
66.5
 10
207.4300000000000068
 20
69.5
 10
213.1399999999999864
 20
69.5
 10
213.1399999999999864
 20
66.5
  0
LWPOLYLINE
  5
70
100
AcDbEntity
  8
1
 62
256
370
-1
 48
1.0
  6
BYLAYER
100
AcDbPolyline
 90
117
 70
0
 10
46.0
 20
142.0
 10
52.259999999999998
 20
142.0
 10
52.259999999999998
 20
139.0
 10
58.5200000000000031
 20
139.0
 10
58.5200000000000031
 20
142.0
 10
64.7800000000000011
 20
142.0
 10
64.7800000000000011
 20
139.0
 10
71.0400000000000063
 20
139.0
 10
71.0400000000000063
 20
142.0
 10
77.2999999999999972
 20
142.0
 10
77.2999999999999972
 20
139.0
 10
83.5600000000000023
 20
139.0
 10
83.5600000000000023
 20
142.0
 10
89.8299999999999983
 20
142.0
 10
89.8299999999999983
 20
139.0
 10
96.0900000000000034
 20
139.0
 10
96.0900000000000034
 20
142.0
 10
102.3499999999999943
 20
142.0
 10
102.3499999999999943
 20
139.0
 10
108.6099999999999994
 20
139.0
 10
108.6099999999999994
 20
142.0
 10
114.8700000000000045
 20
142.0
 10
114.8700000000000045
 20
139.0
 10
121.1299999999999955
 20
139.0
 10
121.1299999999999955
 20
142.0
 10
127.3900000000000006
 20
142.0
 10
127.3900000000000006
 20
139.0
 10
133.6500000000000057
 20
139.0
 10
133.6500000000000057
 20
142.0
 10
139.9099999999999966
 20
142.0
 10
139.9099999999999966
 20
139.0
 10
146.1699999999999875
 20
139.0
 10
146.1699999999999875
 20
142.0
 10
152.4399999999999977
 20
142.0
 10
152.4399999999999977
 20
139.0
 10
158.6999999999999886
 20
139.0
 10
158.6999999999999886
 20
142.0
 10
164.960000000000008
 20
142.0
 10
164.960000000000008
 20
139.0
 10
171.2199999999999989
 20
139.0
 10
171.2199999999999989
 20
142.0
 10
177.4799999999999898
 20
142.0
 10
177.4799999999999898
 20
139.0
 10
183.7400000000000091
 20
139.0
 10
183.7400000000000091
 20
142.0
 10
190.0
 20
142.0
 10
190.0
 20
148.289999999999992
 10
193.0
 20
148.289999999999992
 10
193.0
 20
154.5699999999999932
 10
190.0
 20
154.5699999999999932
 10
190.0
 20
160.8600000000000136
 10
193.0
 20
160.8600000000000136
 10
193.0
 20
167.1399999999999864
 10
190.0
 20
167.1399999999999864
 10
190.0
 20
173.4300000000000068
 10
193.0
 20
173.4300000000000068
 10
193.0
 20
179.710000000000008
 10
190.0
 20
179.710000000000008
 10
190.0
 20
186.0
 10
183.7400000000000091
 20
186.0
 10
183.7400000000000091
 20
189.0
 10
177.4799999999999898
 20
189.0
 10
177.4799999999999898
 20
186.0
 10
171.2199999999999989
 20
186.0
 10
171.2199999999999989
 20
189.0
 10
164.960000000000008
 20
189.0
 10
164.960000000000008
 20
186.0
 10
158.6999999999999886
 20
186.0
 10
158.6999999999999886
 20
189.0
 10
152.4399999999999977
 20
189.0
 10
152.4399999999999977
 20
186.0
 10
146.1699999999999875
 20
186.0
 10
146.1699999999999875
 20
189.0
 10
139.9099999999999966
 20
189.0
 10
139.9099999999999966
 20
186.0
 10
133.6500000000000057
 20
186.0
 10
133.6500000000000057
 20
189.0
 10
127.3900000000000006
 20
189.0
 10
127.3900000000000006
 20
186.0
 10
121.1299999999999955
 20
186.0
 10
121.1299999999999955
 20
189.0
 10
114.8700000000000045
 20
189.0
 10
114.8700000000000045
 20
186.0
 10
108.6099999999999994
 20
186.0
 10
108.6099999999999994
 20
189.0
 10
102.3499999999999943
 20
189.0
 10
102.3499999999999943
 20
186.0
 10
96.0900000000000034
 20
186.0
 10
96.0900000000000034
 20
189.0
 10
89.8299999999999983
 20
189.0
 10
89.8299999999999983
 20
186.0
 10
83.5600000000000023
 20
186.0
 10
83.5600000000000023
 20
189.0
 10
77.2999999999999972
 20
189.0
 10
77.2999999999999972
 20
186.0
 10
71.0400000000000063
 20
186.0
 10
71.0400000000000063
 20
189.0
 10
64.7800000000000011
 20
189.0
 10
64.7800000000000011
 20
186.0
 10
58.5200000000000031
 20
186.0
 10
58.5200000000000031
 20
189.0
 10
52.259999999999998
 20
189.0
 10
52.259999999999998
 20
186.0
 10
46.0
 20
186.0
 10
46.0
 20
179.710000000000008
 10
43.0
 20
179.710000000000008
 10
43.0
 20
173.4300000000000068
 10
46.0
 20
173.4300000000000068
 10
46.0
 20
167.1399999999999864
 10
43.0
 20
167.1399999999999864
 10
43.0
 20
160.8600000000000136
 10
46.0
 20
160.8600000000000136
 10
46.0
 20
154.5699999999999932
 10
43.0
 20
154.5699999999999932
 10
43.0
 20
148.289999999999992
 10
46.0
 20
148.289999999999992
 10
46.0
 20
142.0
  0
LWPOLYLINE
  5
71
100
AcDbEntity
  8
1
 62
256
370
-1
 48
1.0
  6
BYLAYER
100
AcDbPolyline
 90
5
 70
0
 10
55.0
 20
162.5
 10
61.0
 20
162.5
 10
61.0
 20
165.5
 10
55.0
 20
165.5
 10
55.0
 20
162.5
  0
LWPOLYLINE
  5
72
100
AcDbEntity
  8
1
 62
256
370
-1
 48
1.0
  6
BYLAYER
100
AcDbPolyline
 90
5
 70
0
 10
67.0
 20
162.5
 10
73.0
 20
162.5
 10
73.0
 20
165.5
 10
67.0
 20
165.5
 10
67.0
 20
162.5
  0
LWPOLYLINE
  5
73
100
AcDbEntity
  8
1
 62
256
370
-1
 48
1.0
  6
BYLAYER
100
AcDbPolyline
 90
5
 70
0
 10
79.0
 20
162.5
 10
85.0
 20
162.5
 10
85.0
 20
165.5
 10
79.0
 20
165.5
 10
79.0
 20
162.5
  0
LWPOLYLINE
  5
74
100
AcDbEntity
  8
1
 62
256
370
-1
 48
1.0
  6
BYLAYER
100
AcDbPolyline
 90
5
 70
0
 10
91.0
 20
162.5
 10
97.0
 20
162.5
 10
97.0
 20
165.5
 10
91.0
 20
165.5
 10
91.0
 20
162.5
  0
LWPOLYLINE
  5
75
100
AcDbEntity
  8
1
 62
256
370
-1
 48
1.0
  6
BYLAYER
100
AcDbPolyline
 90
5
 70
0
 10
103.0
 20
162.5
 10
109.0
 20
162.5
 10
109.0
 20
165.5
 10
103.0
 20
165.5
 10
103.0
 20
162.5
  0
LWPOLYLINE
  5
76
100
AcDbEntity
  8
1
 62
256
370
-1
 48
1.0
  6
BYLAYER
100
AcDbPolyline
 90
5
 70
0
 10
115.0
 20
162.5
 10
121.0
 20
162.5
 10
121.0
 20
165.5
 10
115.0
 20
165.5
 10
115.0
 20
162.5
  0
LWPOLYLINE
  5
77
100
AcDbEntity
  8
1
 62
256
370
-1
 48
1.0
  6
BYLAYER
100
AcDbPolyline
 90
5
 70
0
 10
127.0
 20
162.5
 10
133.0
 20
162.5
 10
133.0
 20
165.5
 10
127.0
 20
165.5
 10
127.0
 20
162.5
  0
LWPOLYLINE
  5
78
100
AcDbEntity
  8
1
 62
256
370
-1
 48
1.0
  6
BYLAYER
100
AcDbPolyline
 90
5
 70
0
 10
139.0
 20
162.5
 10
145.0
 20
162.5
 10
145.0
 20
165.5
 10
139.0
 20
165.5
 10
139.0
 20
162.5
  0
LWPOLYLINE
  5
79
100
AcDbEntity
  8
1
 62
256
370
-1
 48
1.0
  6
BYLAYER
100
AcDbPolyline
 90
5
 70
0
 10
151.0
 20
162.5
 10
157.0
 20
162.5
 10
157.0
 20
165.5
 10
151.0
 20
165.5
 10
151.0
 20
162.5
  0
LWPOLYLINE
  5
7A
100
AcDbEntity
  8
1
 62
256
370
-1
 48
1.0
  6
BYLAYER
100
AcDbPolyline
 90
5
 70
0
 10
163.0
 20
162.5
 10
169.0
 20
162.5
 10
169.0
 20
165.5
 10
163.0
 20
165.5
 10
163.0
 20
162.5
  0
LWPOLYLINE
  5
7B
100
AcDbEntity
  8
1
 62
256
370
-1
 48
1.0
  6
BYLAYER
100
AcDbPolyline
 90
5
 70
0
 10
175.0
 20
162.5
 10
181.0
 20
162.5
 10
181.0
 20
165.5
 10
175.0
 20
165.5
 10
175.0
 20
162.5
  0
LWPOLYLINE
  5
7C
100
AcDbEntity
  8
1
 62
256
370
-1
 48
1.0
  6
BYLAYER
100
AcDbPolyline
 90
117
 70
0
 10
242.0
 20
3.0
 10
245.0
 20
3.0
 10
251.0
 20
3.0
 10
251.0
 20
0.0
 10
257.0
 20
0.0
 10
257.0
 20
3.0
 10
263.0
 20
3.0
 10
263.0
 20
0.0
 10
269.0
 20
0.0
 10
269.0
 20
3.0
 10
275.0
 20
3.0
 10
275.0
 20
0.0
 10
281.0
 20
0.0
 10
281.0
 20
3.0
 10
287.0
 20
3.0
 10
287.0
 20
0.0
 10
293.0
 20
0.0
 10
293.0
 20
3.0
 10
299.0
 20
3.0
 10
299.0
 20
0.0
 10
305.0
 20
0.0
 10
305.0
 20
3.0
 10
311.0
 20
3.0
 10
311.0
 20
0.0
 10
317.0
 20
0.0
 10
317.0
 20
3.0
 10
323.0
 20
3.0
 10
323.0
 20
0.0
 10
329.0
 20
0.0
 10
329.0
 20
3.0
 10
335.0
 20
3.0
 10
335.0
 20
0.0
 10
341.0
 20
0.0
 10
341.0
 20
3.0
 10
347.0
 20
3.0
 10
347.0
 20
0.0
 10
353.0
 20
0.0
 10
353.0
 20
3.0
 10
359.0
 20
3.0
 10
359.0
 20
0.0
 10
365.0
 20
0.0
 10
365.0
 20
3.0
 10
371.0
 20
3.0
 10
371.0
 20
0.0
 10
377.0
 20
0.0
 10
377.0
 20
3.0
 10
383.0
 20
3.0
 10
386.0
 20
3.0
 10
386.0
 20
5.71
 10
386.0
 20
11.4299999999999997
 10
389.0
 20
11.4299999999999997
 10
389.0
 20
17.1400000000000006
 10
386.0
 20
17.1400000000000006
 10
386.0
 20
22.8599999999999994
 10
389.0
 20
22.8599999999999994
 10
389.0
 20
28.5700000000000003
 10
386.0
 20
28.5700000000000003
 10
386.0
 20
34.2899999999999991
 10
386.0
 20
37.0
 10
383.0
 20
37.0
 10
377.0
 20
37.0
 10
377.0
 20
40.0
 10
371.0
 20
40.0
 10
371.0
 20
37.0
 10
365.0
 20
37.0
 10
365.0
 20
40.0
 10
359.0
 20
40.0
 10
359.0
 20
37.0
 10
353.0
 20
37.0
 10
353.0
 20
40.0
 10
347.0
 20
40.0
 10
347.0
 20
37.0
 10
341.0
 20
37.0
 10
341.0
 20
40.0
 10
335.0
 20
40.0
 10
335.0
 20
37.0
 10
329.0
 20
37.0
 10
329.0
 20
40.0
 10
323.0
 20
40.0
 10
323.0
 20
37.0
 10
317.0
 20
37.0
 10
317.0
 20
40.0
 10
311.0
 20
40.0
 10
311.0
 20
37.0
 10
305.0
 20
37.0
 10
305.0
 20
40.0
 10
299.0
 20
40.0
 10
299.0
 20
37.0
 10
293.0
 20
37.0
 10
293.0
 20
40.0
 10
287.0
 20
40.0
 10
287.0
 20
37.0
 10
281.0
 20
37.0
 10
281.0
 20
40.0
 10
275.0
 20
40.0
 10
275.0
 20
37.0
 10
269.0
 20
37.0
 10
269.0
 20
40.0
 10
263.0
 20
40.0
 10
263.0
 20
37.0
 10
257.0
 20
37.0
 10
257.0
 20
40.0
 10
251.0
 20
40.0
 10
251.0
 20
37.0
 10
245.0
 20
37.0
 10
242.0
 20
37.0
 10
242.0
 20
34.2899999999999991
 10
242.0
 20
28.5700000000000003
 10
239.0
 20
28.5700000000000003
 10
239.0
 20
22.8599999999999994
 10
242.0
 20
22.8599999999999994
 10
242.0
 20
17.1400000000000006
 10
239.0
 20
17.1400000000000006
 10
239.0
 20
11.4299999999999997
 10
242.0
 20
11.4299999999999997
 10
242.0
 20
5.71
 10
242.0
 20
3.0
  0
LINE
  5
7D
100
AcDbEntity
  8
2
 62
256
370
-1
 48
1.0
  6
BYLAYER
100
AcDbLine
 10
53.5
 20
52.0
 30
0.0
 11
182.5
 21
52.0
 31
0.0
  0
LINE
  5
7E
100
AcDbEntity
  8
3
 62
256
370
-1
 48
1.0
  6
BYLAYER
100
AcDbLine
 10
245.5
 20
114.0
 30
0.0
 11
374.5
 21
114.0
 31
0.0
  0
LINE
  5
7F
100
AcDbEntity
  8
2
 62
256
370
-1
 48
1.0
  6
BYLAYER
100
AcDbLine
 10
182.5
 20
52.0
 30
0.0
 11
182.5
 21
84.0
 31
0.0
  0
LINE
  5
80
100
AcDbEntity
  8
3
 62
256
370
-1
 48
1.0
  6
BYLAYER
100
AcDbLine
 10
374.5
 20
114.0
 30
0.0
 11
374.5
 21
146.0
 31
0.0
  0
LINE
  5
81
100
AcDbEntity
  8
2
 62
256
370
-1
 48
1.0
  6
BYLAYER
100
AcDbLine
 10
182.5
 20
84.0
 30
0.0
 11
53.5
 21
84.0
 31
0.0
  0
LINE
  5
82
100
AcDbEntity
  8
3
 62
256
370
-1
 48
1.0
  6
BYLAYER
100
AcDbLine
 10
374.5
 20
146.0
 30
0.0
 11
245.5
 21
146.0
 31
0.0
  0
LINE
  5
83
100
AcDbEntity
  8
2
 62
256
370
-1
 48
1.0
  6
BYLAYER
100
AcDbLine
 10
53.5
 20
84.0
 30
0.0
 11
53.5
 21
52.0
 31
0.0
  0
LINE
  5
84
100
AcDbEntity
  8
3
 62
256
370
-1
 48
1.0
  6
BYLAYER
100
AcDbLine
 10
245.5
 20
146.0
 30
0.0
 11
245.5
 21
114.0
 31
0.0
  0
LINE
  5
85
100
AcDbEntity
  8
3
 62
256
370
-1
 48
1.0
  6
BYLAYER
100
AcDbLine
 10
235.0
 20
155.0
 30
0.0
 11
385.0
 21
155.0
 31
0.0
  0
LINE
  5
86
100
AcDbEntity
  8
3
 62
256
370
-1
 48
1.0
  6
BYLAYER
100
AcDbLine
 10
385.0
 20
155.0
 30
0.0
 11
385.0
 21
105.0
 31
0.0
  0
LINE
  5
87
100
AcDbEntity
  8
3
 62
256
370
-1
 48
1.0
  6
BYLAYER
100
AcDbLine
 10
385.0
 20
105.0
 30
0.0
 11
235.0
 21
105.0
 31
0.0
  0
LINE
  5
88
100
AcDbEntity
  8
3
 62
256
370
-1
 48
1.0
  6
BYLAYER
100
AcDbLine
 10
235.0
 20
105.0
 30
0.0
 11
235.0
 21
155.0
 31
0.0
  0
ENDSEC
  0
SECTION
  2
OBJECTS
  0
DICTIONARY
  5
C
100
AcDbDictionary
280
0
281
1
  3
ACAD_GROUP
350
D
  3
ACAD_LAYOUT
350
1A
  3
ACAD_MLINESTYLE
350
17
  3
ACAD_PLOTSETTINGS
350
19
  3
ACAD_PLOTSTYLENAME
350
E
  3
AcDbVariableDictionary
350
89
  3
QCAD_OBJECTS
350
8A
  0
DICTIONARY
  5
D
100
AcDbDictionary
280
0
281
1
  0
ACDBDICTIONARYWDFLT
  5
E
100
AcDbDictionary
281
1
  3
Normal
350
F
100
AcDbDictionaryWithDefault
340
F
  0
ACDBPLACEHOLDER
  5
F
  0
DICTIONARY
  5
17
100
AcDbDictionary
280
0
281
1
  3
Standard
350
18
  0
MLINESTYLE
  5
18
100
AcDbMlineStyle
  2
STANDARD
 70
0
  3

 62
256
 51
90.0
 52
90.0
 71
2
 49
0.5
 62
256
  6
BYLAYER
 49
-0.5
 62
256
  6
BYLAYER
  0
DICTIONARY
  5
19
100
AcDbDictionary
280
0
281
1
  0
DICTIONARY
  5
1A
100
AcDbDictionary
281
1
  3
Layout1
350
1E
  3
Layout2
350
26
  3
Model
350
22
  0
LAYOUT
  5
1E
100
AcDbPlotSettings
  1

  2
none_device
  4

  6

 40
0.0
 41
0.0
 42
0.0
 43
0.0
 44
0.0
 45
0.0
 46
0.0
 47
0.0
 48
0.0
 49
0.0
140
0.0
141
0.0
142
1.0
143
1.0
 70
688
 72
0
 73
0
 74
5
  7

 75
16
147
1.0
148
0.0
149
0.0
100
AcDbLayout
  1
Layout1
 70
1
 71
1
 10
0.0
 20
0.0
 11
420.0
 21
297.0
 12
0.0
 22
0.0
 32
0.0
 14
100000000000000000000.0
 24
100000000000000000000.0
 34
100000000000000000000.0
 15
-100000000000000000000.0
 25
-100000000000000000000.0
 35
-100000000000000000000.0
146
0.0
 13
0.0
 23
0.0
 33
0.0
 16
1.0
 26
0.0
 36
0.0
 17
0.0
 27
1.0
 37
0.0
 76
0
330
1B
  0
LAYOUT
  5
22
100
AcDbPlotSettings
  1

  2
none_device
  4

  6

 40
0.0
 41
0.0
 42
0.0
 43
0.0
 44
0.0
 45
0.0
 46
0.0
 47
0.0
 48
0.0
 49
0.0
140
0.0
141
0.0
142
1.0
143
1.0
 70
1712
 72
0
 73
0
 74
0
  7

 75
0
147
1.0
148
0.0
149
0.0
100
AcDbLayout
  1
Model
 70
1
 71
0
 10
0.0
 20
0.0
 11
12.0
 21
9.0
 12
0.0
 22
0.0
 32
0.0
 14
0.0
 24
0.0
 34
0.0
 15
0.0
 25
0.0
 35
0.0
146
0.0
 13
0.0
 23
0.0
 33
0.0
 16
1.0
 26
0.0
 36
0.0
 17
0.0
 27
1.0
 37
0.0
 76
0
330
1F
  0
LAYOUT
  5
26
100
AcDbPlotSettings
  1

  2
none_device
  4

  6

 40
0.0
 41
0.0
 42
0.0
 43
0.0
 44
0.0
 45
0.0
 46
0.0
 47
0.0
 48
0.0
 49
0.0
140
0.0
141
0.0
142
1.0
143
1.0
 70
688
 72
0
 73
0
 74
5
  7

 75
16
147
1.0
148
0.0
149
0.0
100
AcDbLayout
  1
Layout2
 70
1
 71
2
 10
0.0
 20
0.0
 11
12.0
 21
9.0
 12
0.0
 22
0.0
 32
0.0
 14
0.0
 24
0.0
 34
0.0
 15
0.0
 25
0.0
 35
0.0
146
0.0
 13
0.0
 23
0.0
 33
0.0
 16
1.0
 26
0.0
 36
0.0
 17
0.0
 27
1.0
 37
0.0
 76
0
330
23
  0
DICTIONARY
  5
89
100
AcDbDictionary
281
1
  3
DIMASSOC
350
8C
  3
HIDETEXT
350
8B
  0
DICTIONARYVAR
  5
8B
100
DictionaryVariables
280
0
  1
2
  0
DICTIONARYVAR
  5
8C
100
DictionaryVariables
280
0
  1
1
  0
DICTIONARY
  5
8A
100
AcDbDictionary
281
1
  3
ColorSettings/BackgroundColor
350
8D
  3
ColorSettings/ColorMode
350
8E
  3
Grid/DisplayGrid00
350
8F
  3
Grid/DisplayGrid01
350
90
  3
Grid/DisplayGrid02
350
91
  3
Grid/DisplayGrid03
350
92
  3
Grid/GridSpacingX00
350
93
  3
Grid/GridSpacingX01
350
94
  3
Grid/GridSpacingX02
350
95
  3
Grid/GridSpacingX03
350
96
  3
Grid/GridSpacingY00
350
97
  3
Grid/GridSpacingY01
350
98
  3
Grid/GridSpacingY02
350
99
  3
Grid/GridSpacingY03
350
9A
  3
Grid/IsometricGrid00
350
9B
  3
Grid/IsometricGrid01
350
9C
  3
Grid/IsometricGrid02
350
9D
  3
Grid/IsometricGrid03
350
9E
  3
Grid/IsometricProjection00
350
9F
  3
Grid/IsometricProjection01
350
A0
  3
Grid/IsometricProjection02
350
A1
  3
Grid/IsometricProjection03
350
A2
  3
Grid/MetaGridSpacingX00
350
A3
  3
Grid/MetaGridSpacingX01
350
A4
  3
Grid/MetaGridSpacingX02
350
A5
  3
Grid/MetaGridSpacingX03
350
A6
  3
Grid/MetaGridSpacingY00
350
A7
  3
Grid/MetaGridSpacingY01
350
A8
  3
Grid/MetaGridSpacingY02
350
A9
  3
Grid/MetaGridSpacingY03
350
AA
  3
MultiPageSettings/Columns
350
AB
  3
MultiPageSettings/GlueMarginsBottom
350
AC
  3
MultiPageSettings/GlueMarginsLeft
350
AD
  3
MultiPageSettings/GlueMarginsRight
350
AE
  3
MultiPageSettings/GlueMarginsTop
350
AF
  3
MultiPageSettings/PrintCropMarks
350
B0
  3
MultiPageSettings/Rows
350
B1
  3
PageSettings/OffsetX
350
B2
  3
PageSettings/OffsetY
350
B3
  3
PageSettings/PageOrientation
350
B4
  3
PageSettings/PaperHeight
350
B5
  3
PageSettings/PaperWidth
350
B6
  3
PageSettings/Scale
350
B7
  3
PageSettings/ShowPaperBorders
350
B8
  3
QCADVersion
350
B9
  3
UnitSettings/PaperUnit
350
BA
  3
ViewportCenter
350
BB
  3
ViewportHeight
350
BC
  3
ViewportWidth
350
BD
  0
XRECORD
  5
8D
330
8A
100
AcDbXrecord
280
1
1000
Blanc
  0
XRECORD
  5
8E
330
8A
100
AcDbXrecord
280
1
1000
FullColor
  0
XRECORD
  5
8F
330
8A
100
AcDbXrecord
280
1
290
1
  0
XRECORD
  5
90
330
8A
100
AcDbXrecord
280
1
290
1
  0
XRECORD
  5
91
330
8A
100
AcDbXrecord
280
1
290
1
  0
XRECORD
  5
92
330
8A
100
AcDbXrecord
280
1
290
1
  0
XRECORD
  5
93
330
8A
100
AcDbXrecord
280
1
1000
auto
  0
XRECORD
  5
94
330
8A
100
AcDbXrecord
280
1
1000
auto
  0
XRECORD
  5
95
330
8A
100
AcDbXrecord
280
1
1000
auto
  0
XRECORD
  5
96
330
8A
100
AcDbXrecord
280
1
1000
auto
  0
XRECORD
  5
97
330
8A
100
AcDbXrecord
280
1
1000
auto
  0
XRECORD
  5
98
330
8A
100
AcDbXrecord
280
1
1000
auto
  0
XRECORD
  5
99
330
8A
100
AcDbXrecord
280
1
1000
auto
  0
XRECORD
  5
9A
330
8A
100
AcDbXrecord
280
1
1000
auto
  0
XRECORD
  5
9B
330
8A
100
AcDbXrecord
280
1
290
0
  0
XRECORD
  5
9C
330
8A
100
AcDbXrecord
280
1
290
0
  0
XRECORD
  5
9D
330
8A
100
AcDbXrecord
280
1
290
0
  0
XRECORD
  5
9E
330
8A
100
AcDbXrecord
280
1
290
0
  0
XRECORD
  5
9F
330
8A
100
AcDbXrecord
280
1
 90
65537
  0
XRECORD
  5
A0
330
8A
100
AcDbXrecord
280
1
 90
65537
  0
XRECORD
  5
A1
330
8A
100
AcDbXrecord
280
1
 90
65537
  0
XRECORD
  5
A2
330
8A
100
AcDbXrecord
280
1
 90
65537
  0
XRECORD
  5
A3
330
8A
100
AcDbXrecord
280
1
1000
auto
  0
XRECORD
  5
A4
330
8A
100
AcDbXrecord
280
1
1000
auto
  0
XRECORD
  5
A5
330
8A
100
AcDbXrecord
280
1
1000
auto
  0
XRECORD
  5
A6
330
8A
100
AcDbXrecord
280
1
1000
auto
  0
XRECORD
  5
A7
330
8A
100
AcDbXrecord
280
1
1000
auto
  0
XRECORD
  5
A8
330
8A
100
AcDbXrecord
280
1
1000
auto
  0
XRECORD
  5
A9
330
8A
100
AcDbXrecord
280
1
1000
auto
  0
XRECORD
  5
AA
330
8A
100
AcDbXrecord
280
1
1000
auto
  0
XRECORD
  5
AB
330
8A
100
AcDbXrecord
280
1
 90
1
  0
XRECORD
  5
AC
330
8A
100
AcDbXrecord
280
1
 40
10.0
  0
XRECORD
  5
AD
330
8A
100
AcDbXrecord
280
1
 40
10.0
  0
XRECORD
  5
AE
330
8A
100
AcDbXrecord
280
1
 40
10.0
  0
XRECORD
  5
AF
330
8A
100
AcDbXrecord
280
1
 40
10.0
  0
XRECORD
  5
B0
330
8A
100
AcDbXrecord
280
1
290
0
  0
XRECORD
  5
B1
330
8A
100
AcDbXrecord
280
1
 90
1
  0
XRECORD
  5
B2
330
8A
100
AcDbXrecord
280
1
 40
0.0
  0
XRECORD
  5
B3
330
8A
100
AcDbXrecord
280
1
 40
0.0
  0
XRECORD
  5
B4
330
8A
100
AcDbXrecord
280
1
1000
Landscape
  0
XRECORD
  5
B5
330
8A
100
AcDbXrecord
280
1
 40
297.0
  0
XRECORD
  5
B6
330
8A
100
AcDbXrecord
280
1
 40
210.0
  0
XRECORD
  5
B7
330
8A
100
AcDbXrecord
280
1
1000
1:1
  0
XRECORD
  5
B8
330
8A
100
AcDbXrecord
280
1
290
1
  0
XRECORD
  5
B9
330
8A
100
AcDbXrecord
280
1
1000
3.19.0
  0
XRECORD
  5
BA
330
8A
100
AcDbXrecord
280
1
 90
4
  0
XRECORD
  5
BC
330
8A
100
AcDbXrecord
280
1
 40
278.1483908045977387
  0
XRECORD
  5
BD
330
8A
100
AcDbXrecord
280
1
 40
489.219195402298908
  0
ENDSEC
  0
EOF
