999
dxflib 3.17.0.0
  0
SECTION
  2
HEADER
  9
$ACADVER
  1
AC1015
  9
$HANDSEED
  5
FFFF
  9
$DIMADEC
 70
0
  9
$DIMASZ
 40
0.18
  9
$DIMAUNIT
 70
0
  9
$DIMAZIN
 70
0
  9
$DIMDEC
 70
4
  9
$DIMDLI
 40
0.36
  9
$DIMDSEP
 70
46
  9
$DIMEXE
 40
0.18
  9
$DIMEXO
 40
0.0625
  9
$DIMGAP
 40
0.09
  9
$DIMLUNIT
 70
2
  9
$DIMSCALE
 40
1.0
  9
$DIMTSZ
 40
0.0
  9
$DIMTXT
 40
0.18
  9
$DIMZIN
 70
0
  9
$DWGCODEPAGE
  3
ANSI_1252
  9
$EXTMAX
 10
750.0
 20
975.0
 30
0.0
  9
$EXTMIN
 10
0.0
 20
0.0
 30
0.0
  9
$INSUNITS
 70
0
  9
$LTSCALE
 40
1.0
  9
$MAXACTVP
 70
64
  9
$MEASUREMENT
 70
1
  9
$PDMODE
 70
0
  9
$PDSIZE
 40
0.0
  0
ENDSEC
  0
SECTION
  2
TABLES
  0
TABLE
  2
VPORT
  5
8
100
AcDbSymbolTable
 70
1
  0
VPORT
  5
30
100
AcDbSymbolTableRecord
100
AcDbViewportTableRecord
  2
*Active
 70
0
 10
0.0
 20
0.0
 11
1.0
 21
1.0
 12
286.3055555555554861
 22
148.5
 13
0.0
 23
0.0
 14
10.0
 24
10.0
 15
10.0
 25
10.0
 16
0.0
 26
0.0
 36
1.0
 17
0.0
 27
0.0
 37
0.0
 40
297.0
 41
1.92798353909465
 42
50.0
 43
0.0
 44
0.0
 50
0.0
 51
0.0
 71
0
 72
100
 73
1
 74
3
 75
1
 76
1
 77
0
 78
0
281
0
 65
1
110
0.0
120
0.0
130
0.0
111
1.0
121
0.0
131
0.0
112
0.0
122
1.0
132
0.0
 79
0
146
0.0
  0
ENDTAB
  0
TABLE
  2
LTYPE
  5
5
100
AcDbSymbolTable
 70
41
  0
LTYPE
  5
16
100
AcDbSymbolTableRecord
100
AcDbLinetypeTableRecord
  2
Continuous
 70
0
  3
Solid line
 72
65
 73
0
 40
0.0
  0
LTYPE
  5
31
100
AcDbSymbolTableRecord
100
AcDbLinetypeTableRecord
  2
ACAD_ISO15W100
 70
0
  3
ISO double-dash triple-dot __ __ . . . __ __ . .
 72
65
 73
10
 40
39.0000000000000071
 49
12.0
 74
0
 49
-3.0
 74
0
 49
12.0
 74
0
 49
-2.9500000000000002
 74
0
 49
0.1
 74
0
 49
-2.9000000000000004
 74
0
 49
0.1
 74
0
 49
-2.9000000000000004
 74
0
 49
0.1
 74
0
 49
-2.9500000000000002
 74
0
  0
LTYPE
  5
32
100
AcDbSymbolTableRecord
100
AcDbLinetypeTableRecord
  2
DIVIDE
 70
0
  3
Divide ____ . . ____ . . ____ . . ____ . . ____
 72
65
 73
6
 40
31.7500000000000036
 49
12.6999999999999993
 74
0
 49
-6.2999999999999998
 74
0
 49
0.1
 74
0
 49
-6.25
 74
0
 49
0.1
 74
0
 49
-6.2999999999999998
 74
0
  0
LTYPE
  5
33
100
AcDbSymbolTableRecord
100
AcDbLinetypeTableRecord
  2
ACAD_ISO10W100
 70
0
  3
ISO dash dot __ . __ . __ . __ . __ . __ . __ . 
 72
65
 73
4
 40
18.0
 49
12.0
 74
0
 49
-2.9500000000000002
 74
0
 49
0.1
 74
0
 49
-2.9500000000000002
 74
0
  0
LTYPE
  5
34
100
AcDbSymbolTableRecord
100
AcDbLinetypeTableRecord
  2
ACAD_ISO04W100
 70
0
  3
ISO long-dash dot ____ . ____ . ____ . ____ . _
 72
65
 73
4
 40
30.0
 49
24.0
 74
0
 49
-2.9500000000000002
 74
0
 49
0.1
 74
0
 49
-2.9500000000000002
 74
0
  0
LTYPE
  5
35
100
AcDbSymbolTableRecord
100
AcDbLinetypeTableRecord
  2
CENTER2
 70
0
  3
Center (.5x) ___ _ ___ _ ___ _ ___ _ ___ _ ___
 72
65
 73
4
 40
28.5750000000000028
 49
19.0500000000000007
 74
0
 49
-3.1749999999999998
 74
0
 49
3.1749999999999998
 74
0
 49
-3.1749999999999998
 74
0
  0
LTYPE
  5
36
100
AcDbSymbolTableRecord
100
AcDbLinetypeTableRecord
  2
ACAD_ISO11W100
 70
0
  3
ISO double-dash dot __ __ . __ __ . __ __ . __ _
 72
65
 73
6
 40
33.0
 49
12.0
 74
0
 49
-3.0
 74
0
 49
12.0
 74
0
 49
-2.9500000000000002
 74
0
 49
0.1
 74
0
 49
-2.9500000000000002
 74
0
  0
LTYPE
  5
37
100
AcDbSymbolTableRecord
100
AcDbLinetypeTableRecord
  2
HIDDEN2
 70
0
  3
Hidden (.5x) _ _ _ _ _ _ _ _ _ _ _ _ _ _ _ _ _ 
 72
65
 73
2
 40
4.7624999999999993
 49
3.1749999999999998
 74
0
 49
-1.5874999999999999
 74
0
  0
LTYPE
  5
38
100
AcDbSymbolTableRecord
100
AcDbLinetypeTableRecord
  2
BORDERX2
 70
0
  3
Border (2x) ____  ____  .  ____  ____  .  ___
 72
65
 73
6
 40
88.8999999999999773
 49
25.3999999999999986
 74
0
 49
-12.6999999999999993
 74
0
 49
25.3999999999999986
 74
0
 49
-12.6499999999999986
 74
0
 49
0.1
 74
0
 49
-12.6499999999999986
 74
0
  0
LTYPE
  5
39
100
AcDbSymbolTableRecord
100
AcDbLinetypeTableRecord
  2
ACAD_ISO05W100
 70
0
  3
ISO long-dash double-dot ____ .. ____ .. ____ . 
 72
65
 73
6
 40
33.0000000000000071
 49
24.0
 74
0
 49
-2.9500000000000002
 74
0
 49
0.1
 74
0
 49
-2.9000000000000004
 74
0
 49
0.1
 74
0
 49
-2.9500000000000002
 74
0
  0
LTYPE
  5
3A
100
AcDbSymbolTableRecord
100
AcDbLinetypeTableRecord
  2
DASHDOTX2
 70
0
  3
Dash dot (2x) ____  .  ____  .  ____  .  ___
 72
65
 73
4
 40
50.7999999999999972
 49
25.3999999999999986
 74
0
 49
-12.6499999999999986
 74
0
 49
0.1
 74
0
 49
-12.6499999999999986
 74
0
  0
LTYPE
  5
3B
100
AcDbSymbolTableRecord
100
AcDbLinetypeTableRecord
  2
HIDDENX2
 70
0
  3
Hidden (2x) ____ ____ ____ ____ ____ ____ ____ 
 72
65
 73
2
 40
19.0499999999999972
 49
12.6999999999999993
 74
0
 49
-6.3499999999999996
 74
0
  0
LTYPE
  5
3C
100
AcDbSymbolTableRecord
100
AcDbLinetypeTableRecord
  2
CENTERX2
 70
0
  3
Center (2x) ________  __  ________  __  _____
 72
65
 73
4
 40
101.6000000000000085
 49
63.5
 74
0
 49
-12.6999999999999993
 74
0
 49
12.6999999999999993
 74
0
 49
-12.6999999999999993
 74
0
  0
LTYPE
  5
3D
100
AcDbSymbolTableRecord
100
AcDbLinetypeTableRecord
  2
BORDER2
 70
0
  3
Border (.5x) __.__.__.__.__.__.__.__.__.__.__.
 72
65
 73
6
 40
22.2250000000000014
 49
6.3499999999999996
 74
0
 49
-3.1749999999999998
 74
0
 49
6.3499999999999996
 74
0
 49
-3.125
 74
0
 49
0.1
 74
0
 49
-3.125
 74
0
  0
LTYPE
  5
3E
100
AcDbSymbolTableRecord
100
AcDbLinetypeTableRecord
  2
DASHDOT2
 70
0
  3
Dash dot (.5x) _._._._._._._._._._._._._._._.
 72
65
 73
4
 40
12.6999999999999993
 49
6.3499999999999996
 74
0
 49
-3.125
 74
0
 49
0.1
 74
0
 49
-3.125
 74
0
  0
LTYPE
  5
3F
100
AcDbSymbolTableRecord
100
AcDbLinetypeTableRecord
  2
ACAD_ISO12W100
 70
0
  3
ISO dash double-dot __ . . __ . . __ . . __ . . 
 72
65
 73
6
 40
21.0
 49
12.0
 74
0
 49
-2.9500000000000002
 74
0
 49
0.1
 74
0
 49
-2.9000000000000004
 74
0
 49
0.1
 74
0
 49
-2.9500000000000002
 74
0
  0
LTYPE
  5
40
100
AcDbSymbolTableRecord
100
AcDbLinetypeTableRecord
  2
ACAD_ISO07W100
 70
0
  3
ISO dot . . . . . . . . . . . . . . . . . . . . 
 72
65
 73
2
 40
3.0
 49
0.1
 74
0
 49
-2.8999999999999999
 74
0
  0
LTYPE
  5
41
100
AcDbSymbolTableRecord
100
AcDbLinetypeTableRecord
  2
HIDDEN
 70
0
  3
Hidden __ __ __ __ __ __ __ __ __ __ __ __ __ __
 72
65
 73
2
 40
9.5249999999999986
 49
6.3499999999999996
 74
0
 49
-3.1749999999999998
 74
0
  0
LTYPE
  5
42
100
AcDbSymbolTableRecord
100
AcDbLinetypeTableRecord
  2
ACAD_ISO06W100
 70
0
  3
ISO long-dash triple-dot ____ ... ____ ... ____
 72
65
 73
8
 40
36.0000000000000071
 49
24.0
 74
0
 49
-2.9500000000000002
 74
0
 49
0.1
 74
0
 49
-2.9000000000000004
 74
0
 49
0.1
 74
0
 49
-2.9000000000000004
 74
0
 49
0.1
 74
0
 49
-2.9500000000000002
 74
0
  0
LTYPE
  5
43
100
AcDbSymbolTableRecord
100
AcDbLinetypeTableRecord
  2
CENTER
 70
0
  3
Center ____ _ ____ _ ____ _ ____ _ ____ _ ____
 72
65
 73
4
 40
50.8000000000000043
 49
31.75
 74
0
 49
-6.3499999999999996
 74
0
 49
6.3499999999999996
 74
0
 49
-6.3499999999999996
 74
0
  0
LTYPE
  5
44
100
AcDbSymbolTableRecord
100
AcDbLinetypeTableRecord
  2
DOTX2
 70
0
  3
Dot (2x) .  .  .  .  .  .  .  .  .  .  .  .  .  .
 72
65
 73
2
 40
12.6999999999999993
 49
0.1
 74
0
 49
-12.5999999999999996
 74
0
  0
LTYPE
  5
45
100
AcDbSymbolTableRecord
100
AcDbLinetypeTableRecord
  2
PHANTOM
 70
0
  3
Phantom ______  __  __  ______  __  __  ______ 
 72
65
 73
6
 40
63.5000000000000071
 49
31.75
 74
0
 49
-6.3499999999999996
 74
0
 49
6.3499999999999996
 74
0
 49
-6.3499999999999996
 74
0
 49
6.3499999999999996
 74
0
 49
-6.3499999999999996
 74
0
  0
LTYPE
  5
46
100
AcDbSymbolTableRecord
100
AcDbLinetypeTableRecord
  2
ACAD_ISO08W100
 70
0
  3
ISO long-dash short-dash ____ __ ____ __ ____ _
 72
65
 73
4
 40
36.0
 49
24.0
 74
0
 49
-3.0
 74
0
 49
6.0
 74
0
 49
-3.0
 74
0
  0
LTYPE
  5
47
100
AcDbSymbolTableRecord
100
AcDbLinetypeTableRecord
  2
DASHEDX2
 70
0
  3
Dashed (2x) ____  ____  ____  ____  ____  ___
 72
65
 73
2
 40
38.0999999999999943
 49
25.3999999999999986
 74
0
 49
-12.6999999999999993
 74
0
  0
LTYPE
  5
48
100
AcDbSymbolTableRecord
100
AcDbLinetypeTableRecord
  2
ACAD_ISO02W100
 70
0
  3
ISO dash __ __ __ __ __ __ __ __ __ __ __ __ __
 72
65
 73
2
 40
15.0
 49
12.0
 74
0
 49
-3.0
 74
0
  0
LTYPE
  5
49
100
AcDbSymbolTableRecord
100
AcDbLinetypeTableRecord
  2
PHANTOM2
 70
0
  3
Phantom (.5x) ___ _ _ ___ _ _ ___ _ _ ___ _ _
 72
65
 73
6
 40
31.7500000000000036
 49
15.875
 74
0
 49
-3.1749999999999998
 74
0
 49
3.1749999999999998
 74
0
 49
-3.1749999999999998
 74
0
 49
3.1749999999999998
 74
0
 49
-3.1749999999999998
 74
0
  0
LTYPE
  5
4A
100
AcDbSymbolTableRecord
100
AcDbLinetypeTableRecord
  2
DASHED2
 70
0
  3
Dashed (.5x) _ _ _ _ _ _ _ _ _ _ _ _ _ _ _ _ _ 
 72
65
 73
2
 40
9.5249999999999986
 49
6.3499999999999996
 74
0
 49
-3.1749999999999998
 74
0
  0
LTYPE
  5
4B
100
AcDbSymbolTableRecord
100
AcDbLinetypeTableRecord
  2
ACAD_ISO09W100
 70
0
  3
ISO long-dash double-short-dash ____ __ __ ____
 72
65
 73
6
 40
45.0
 49
24.0
 74
0
 49
-3.0
 74
0
 49
6.0
 74
0
 49
-3.0
 74
0
 49
6.0
 74
0
 49
-3.0
 74
0
  0
LTYPE
  5
4C
100
AcDbSymbolTableRecord
100
AcDbLinetypeTableRecord
  2
ACAD_ISO13W100
 70
0
  3
ISO double-dash double-dot __ __ . . __ __ . . _
 72
65
 73
8
 40
36.0000000000000071
 49
12.0
 74
0
 49
-3.0
 74
0
 49
12.0
 74
0
 49
-2.9500000000000002
 74
0
 49
0.1
 74
0
 49
-2.9000000000000004
 74
0
 49
0.1
 74
0
 49
-2.9500000000000002
 74
0
  0
LTYPE
  5
4D
100
AcDbSymbolTableRecord
100
AcDbLinetypeTableRecord
  2
DOT2
 70
0
  3
Dot (.5x) ........................................
 72
65
 73
2
 40
3.1749999999999998
 49
0.1
 74
0
 49
-3.0749999999999997
 74
0
  0
LTYPE
  5
4E
100
AcDbSymbolTableRecord
100
AcDbLinetypeTableRecord
  2
DASHED
 70
0
  3
Dashed __ __ __ __ __ __ __ __ __ __ __ __ __ _
 72
65
 73
2
 40
19.0499999999999972
 49
12.6999999999999993
 74
0
 49
-6.3499999999999996
 74
0
  0
LTYPE
  5
4F
100
AcDbSymbolTableRecord
100
AcDbLinetypeTableRecord
  2
ACAD_ISO14W100
 70
0
  3
ISO dash triple-dot __ . . . __ . . . __ . . . _
 72
65
 73
8
 40
24.0000000000000036
 49
12.0
 74
0
 49
-2.9500000000000002
 74
0
 49
0.1
 74
0
 49
-2.9000000000000004
 74
0
 49
0.1
 74
0
 49
-2.9000000000000004
 74
0
 49
0.1
 74
0
 49
-2.9500000000000002
 74
0
  0
LTYPE
  5
15
100
AcDbSymbolTableRecord
100
AcDbLinetypeTableRecord
  2
BYLAYER
 70
0
  3

 72
65
 73
0
 40
0.0
  0
LTYPE
  5
50
100
AcDbSymbolTableRecord
100
AcDbLinetypeTableRecord
  2
PHANTOMX2
 70
0
  3
Phantom (2x) ____________    ____    ____   _
 72
65
 73
6
 40
127.0000000000000142
 49
63.5
 74
0
 49
-12.6999999999999993
 74
0
 49
12.6999999999999993
 74
0
 49
-12.6999999999999993
 74
0
 49
12.6999999999999993
 74
0
 49
-12.6999999999999993
 74
0
  0
LTYPE
  5
14
100
AcDbSymbolTableRecord
100
AcDbLinetypeTableRecord
  2
BYBLOCK
 70
0
  3

 72
65
 73
0
 40
0.0
  0
LTYPE
  5
51
100
AcDbSymbolTableRecord
100
AcDbLinetypeTableRecord
  2
DIVIDEX2
 70
0
  3
Divide (2x) ________  .  .  ________  .  .  _
 72
65
 73
6
 40
63.5
 49
25.3999999999999986
 74
0
 49
-12.6499999999999986
 74
0
 49
0.1
 74
0
 49
-12.5999999999999979
 74
0
 49
0.1
 74
0
 49
-12.6499999999999986
 74
0
  0
LTYPE
  5
52
100
AcDbSymbolTableRecord
100
AcDbLinetypeTableRecord
  2
BORDER
 70
0
  3
Border __ __ . __ __ . __ __ . __ __ . __ __ .
 72
65
 73
6
 40
44.4499999999999957
 49
12.6999999999999993
 74
0
 49
-6.3499999999999996
 74
0
 49
12.6999999999999993
 74
0
 49
-6.2999999999999998
 74
0
 49
0.1
 74
0
 49
-6.2999999999999998
 74
0
  0
LTYPE
  5
53
100
AcDbSymbolTableRecord
100
AcDbLinetypeTableRecord
  2
DIVIDE2
 70
0
  3
Divide (.5x) __..__..__..__..__..__..__..__.._
 72
65
 73
6
 40
15.8749999999999982
 49
6.3499999999999996
 74
0
 49
-3.125
 74
0
 49
0.1
 74
0
 49
-3.0750000000000002
 74
0
 49
0.1
 74
0
 49
-3.125
 74
0
  0
LTYPE
  5
54
100
AcDbSymbolTableRecord
100
AcDbLinetypeTableRecord
  2
DOT
 70
0
  3
Dot . . . . . . . . . . . . . . . . . . . . . . . .
 72
65
 73
2
 40
6.3499999999999996
 49
0.1
 74
0
 49
-6.25
 74
0
  0
LTYPE
  5
55
100
AcDbSymbolTableRecord
100
AcDbLinetypeTableRecord
  2
DASHDOT
 70
0
  3
Dash dot __ . __ . __ . __ . __ . __ . __ . __
 72
65
 73
4
 40
25.4000000000000021
 49
12.6999999999999993
 74
0
 49
-6.2999999999999998
 74
0
 49
0.1
 74
0
 49
-6.2999999999999998
 74
0
  0
LTYPE
  5
56
100
AcDbSymbolTableRecord
100
AcDbLinetypeTableRecord
  2
ACAD_ISO03W100
 70
0
  3
ISO dash space __    __    __    __    __    __
 72
65
 73
2
 40
30.0
 49
12.0
 74
0
 49
-18.0
 74
0
  0
ENDTAB
  0
TABLE
  2
LAYER
  5
2
100
AcDbSymbolTable
 70
3
  0
LAYER
  5
57
100
AcDbSymbolTableRecord
100
AcDbLayerTableRecord
  2
layer 1
 70
0
 62
1
420
16711680
  6
Continuous
370
25
390
F
  0
LAYER
  5
10
100
AcDbSymbolTableRecord
100
AcDbLayerTableRecord
  2
0
 70
0
 62
7
420
16777215
  6
Continuous
370
25
390
F
  0
LAYER
  5
58
100
AcDbSymbolTableRecord
100
AcDbLayerTableRecord
  2
1
 70
0
 62
7
420
16777215
  6
BYLAYER
370
5
390
F
  0
ENDTAB
  0
TABLE
  2
STYLE
  5
3
100
AcDbSymbolTable
 70
1
  0
STYLE
  5
59
100
AcDbSymbolTableRecord
100
AcDbTextStyleTableRecord
  2
Standard
 70
0
 40
0.0
 41
1.0
 50
0.0
 71
0
 42
2.5
  3

  4

1001
ACAD
1000
txt
1071
0
  0
ENDTAB
  0
TABLE
  2
VIEW
  5
6
100
AcDbSymbolTable
 70
0
  0
ENDTAB
  0
TABLE
  2
UCS
  5
7
100
AcDbSymbolTable
 70
0
  0
ENDTAB
  0
TABLE
  2
APPID
  5
9
100
AcDbSymbolTable
 70
1
  0
APPID
  5
12
100
AcDbSymbolTableRecord
100
AcDbRegAppTableRecord
  2
ACAD
 70
0
  0
APPID
  5
5A
100
AcDbSymbolTableRecord
100
AcDbRegAppTableRecord
  2
QCAD
 70
0
  0
ENDTAB
  0
TABLE
  2
DIMSTYLE
  5
A
100
AcDbSymbolTable
 70
1
100
AcDbDimStyleTable
 71
0
  0
DIMSTYLE
105
27
100
AcDbSymbolTableRecord
100
AcDbDimStyleTableRecord
  2
Standard
 41
0.18
 42
0.0625
 43
3.75
 44
0.18
 70
0
 73
0
 74
0
 77
1
 78
8
140
0.18
141
2.5
143
0.03937007874016
147
0.09
171
3
172
1
271
2
272
2
274
3
278
44
283
0
284
8
340
59
  0
ENDTAB
  0
TABLE
  2
BLOCK_RECORD
  5
1
100
AcDbSymbolTable
 70
1
  0
BLOCK_RECORD
  5
1F
100
AcDbSymbolTableRecord
100
AcDbBlockTableRecord
  2
*Model_Space
340
22
  0
BLOCK_RECORD
  5
1B
100
AcDbSymbolTableRecord
100
AcDbBlockTableRecord
  2
*Paper_Space
340
1E
  0
BLOCK_RECORD
  5
23
100
AcDbSymbolTableRecord
100
AcDbBlockTableRecord
  2
*Paper_Space0
340
26
  0
ENDTAB
  0
ENDSEC
  0
SECTION
  2
BLOCKS
  0
BLOCK
  5
20
100
AcDbEntity
  8
0
100
AcDbBlockBegin
  2
*Model_Space
 70
0
 10
0.0
 20
0.0
 30
0.0
  3
*Model_Space
  1

  0
ENDBLK
  5
21
100
AcDbEntity
  8
0
100
AcDbBlockEnd
  0
BLOCK
  5
1C
100
AcDbEntity
 67
1
  8
0
100
AcDbBlockBegin
  2
*Paper_Space
 70
0
 10
0.0
 20
0.0
 30
0.0
  3
*Paper_Space
  1

  0
ENDBLK
  5
1D
100
AcDbEntity
 67
1
  8
0
100
AcDbBlockEnd
  0
BLOCK
  5
24
100
AcDbEntity
  8
0
100
AcDbBlockBegin
  2
*Paper_Space0
 70
0
 10
0.0
 20
0.0
 30
0.0
  3
*Paper_Space0
  1

  0
ENDBLK
  5
25
100
AcDbEntity
  8
0
100
AcDbBlockEnd
  0
ENDSEC
  0
SECTION
  2
ENTITIES
  0
LWPOLYLINE
  5
5B
100
AcDbEntity
  8
1
 62
256
370
-1
 48
1.0
  6
BYLAYER
100
AcDbPolyline
 90
133
 70
0
 10
49.0
 20
49.0
 10
52.2800000000000011
 20
49.0
 10
52.2800000000000011
 20
46.0
 10
58.5600000000000023
 20
46.0
 10
58.5600000000000023
 20
49.0
 10
64.8400000000000034
 20
49.0
 10
64.8400000000000034
 20
46.0
 10
71.1200000000000045
 20
46.0
 10
71.1200000000000045
 20
49.0
 10
77.4000000000000057
 20
49.0
 10
77.4000000000000057
 20
46.0
 10
83.6800000000000068
 20
46.0
 10
83.6800000000000068
 20
49.0
 10
89.9599999999999937
 20
49.0
 10
89.9599999999999937
 20
46.0
 10
96.2399999999999949
 20
46.0
 10
96.2399999999999949
 20
49.0
 10
102.519999999999996
 20
49.0
 10
102.519999999999996
 20
46.0
 10
108.7999999999999972
 20
46.0
 10
108.7999999999999972
 20
49.0
 10
115.0799999999999983
 20
49.0
 10
115.0799999999999983
 20
46.0
 10
121.3599999999999994
 20
46.0
 10
121.3599999999999994
 20
49.0
 10
127.6400000000000006
 20
49.0
 10
127.6400000000000006
 20
46.0
 10
133.9199999999999875
 20
46.0
 10
133.9199999999999875
 20
49.0
 10
140.1999999999999886
 20
49.0
 10
140.1999999999999886
 20
46.0
 10
146.4799999999999898
 20
46.0
 10
146.4799999999999898
 20
49.0
 10
152.7599999999999909
 20
49.0
 10
152.7599999999999909
 20
46.0
 10
159.039999999999992
 20
46.0
 10
159.039999999999992
 20
49.0
 10
165.3199999999999932
 20
49.0
 10
165.3199999999999932
 20
46.0
 10
171.5999999999999943
 20
46.0
 10
171.5999999999999943
 20
49.0
 10
177.8799999999999955
 20
49.0
 10
177.8799999999999955
 20
46.0
 10
184.1599999999999966
 20
46.0
 10
184.1599999999999966
 20
49.0
 10
190.4399999999999977
 20
49.0
 10
190.4399999999999977
 20
46.0
 10
196.7199999999999989
 20
46.0
 10
196.7199999999999989
 20
49.0
 10
200.0
 20
49.0
 10
200.0
 20
54.6700000000000017
 10
203.0
 20
54.6700000000000017
 10
203.0
 20
60.3299999999999983
 10
200.0
 20
60.3299999999999983
 10
200.0
 20
66.0
 10
203.0
 20
66.0
 10
203.0
 20
71.6700000000000017
 10
200.0
 20
71.6700000000000017
 10
200.0
 20
77.3299999999999983
 10
203.0
 20
77.3299999999999983
 10
203.0
 20
83.0
 10
200.0
 20
83.0
 10
200.0
 20
88.6700000000000017
 10
203.0
 20
88.6700000000000017
 10
203.0
 20
94.3299999999999983
 10
200.0
 20
94.3299999999999983
 10
200.0
 20
100.0
 10
196.7199999999999989
 20
100.0
 10
196.7199999999999989
 20
103.0
 10
190.4399999999999977
 20
103.0
 10
190.4399999999999977
 20
100.0
 10
184.1599999999999966
 20
100.0
 10
184.1599999999999966
 20
103.0
 10
177.8799999999999955
 20
103.0
 10
177.8799999999999955
 20
100.0
 10
171.5999999999999943
 20
100.0
 10
171.5999999999999943
 20
103.0
 10
165.3199999999999932
 20
103.0
 10
165.3199999999999932
 20
100.0
 10
159.039999999999992
 20
100.0
 10
159.039999999999992
 20
103.0
 10
152.7599999999999909
 20
103.0
 10
152.7599999999999909
 20
100.0
 10
146.4799999999999898
 20
100.0
 10
146.4799999999999898
 20
103.0
 10
140.1999999999999886
 20
103.0
 10
140.1999999999999886
 20
100.0
 10
133.9199999999999875
 20
100.0
 10
133.9199999999999875
 20
103.0
 10
127.6400000000000006
 20
103.0
 10
127.6400000000000006
 20
100.0
 10
121.3599999999999994
 20
100.0
 10
121.3599999999999994
 20
103.0
 10
115.0799999999999983
 20
103.0
 10
115.0799999999999983
 20
100.0
 10
108.7999999999999972
 20
100.0
 10
108.7999999999999972
 20
103.0
 10
102.519999999999996
 20
103.0
 10
102.519999999999996
 20
100.0
 10
96.2399999999999949
 20
100.0
 10
96.2399999999999949
 20
103.0
 10
89.9599999999999937
 20
103.0
 10
89.9599999999999937
 20
100.0
 10
83.6800000000000068
 20
100.0
 10
83.6800000000000068
 20
103.0
 10
77.4000000000000057
 20
103.0
 10
77.4000000000000057
 20
100.0
 10
71.1200000000000045
 20
100.0
 10
71.1200000000000045
 20
103.0
 10
64.8400000000000034
 20
103.0
 10
64.8400000000000034
 20
100.0
 10
58.5600000000000023
 20
100.0
 10
58.5600000000000023
 20
103.0
 10
52.2800000000000011
 20
103.0
 10
52.2800000000000011
 20
100.0
 10
49.0
 20
100.0
 10
49.0
 20
94.3299999999999983
 10
46.0
 20
94.3299999999999983
 10
46.0
 20
88.6700000000000017
 10
49.0
 20
88.6700000000000017
 10
49.0
 20
83.0
 10
46.0
 20
83.0
 10
46.0
 20
77.3299999999999983
 10
49.0
 20
77.3299999999999983
 10
49.0
 20
71.6700000000000017
 10
46.0
 20
71.6700000000000017
 10
46.0
 20
66.0
 10
49.0
 20
66.0
 10
49.0
 20
60.3299999999999983
 10
46.0
 20
60.3299999999999983
 10
46.0
 20
54.6700000000000017
 10
49.0
 20
54.6700000000000017
 10
49.0
 20
49.0
  0
LWPOLYLINE
  5
5C
100
AcDbEntity
  8
1
 62
256
370
-1
 48
1.0
  6
BYLAYER
100
AcDbPolyline
 90
79
 70
0
 10
49.0
 20
0.0
 10
200.0
 20
0.0
 10
203.0
 20
0.0
 10
203.0
 20
6.1399999999999997
 10
200.0
 20
6.1399999999999997
 10
200.0
 20
12.2899999999999991
 10
203.0
 20
12.2899999999999991
 10
203.0
 20
18.4299999999999997
 10
200.0
 20
18.4299999999999997
 10
200.0
 20
24.5700000000000003
 10
203.0
 20
24.5700000000000003
 10
203.0
 20
30.7100000000000009
 10
200.0
 20
30.7100000000000009
 10
200.0
 20
36.8599999999999994
 10
203.0
 20
36.8599999999999994
 10
203.0
 20
43.0
 10
196.7199999999999989
 20
43.0
 10
196.7199999999999989
 20
40.0
 10
190.4399999999999977
 20
40.0
 10
190.4399999999999977
 20
43.0
 10
184.1599999999999966
 20
43.0
 10
184.1599999999999966
 20
40.0
 10
177.8799999999999955
 20
40.0
 10
177.8799999999999955
 20
43.0
 10
171.5999999999999943
 20
43.0
 10
171.5999999999999943
 20
40.0
 10
165.3199999999999932
 20
40.0
 10
165.3199999999999932
 20
43.0
 10
159.039999999999992
 20
43.0
 10
159.039999999999992
 20
40.0
 10
152.7599999999999909
 20
40.0
 10
152.7599999999999909
 20
43.0
 10
146.4799999999999898
 20
43.0
 10
146.4799999999999898
 20
40.0
 10
140.1999999999999886
 20
40.0
 10
140.1999999999999886
 20
43.0
 10
133.9199999999999875
 20
43.0
 10
133.9199999999999875
 20
40.0
 10
127.6400000000000006
 20
40.0
 10
127.6400000000000006
 20
43.0
 10
121.3599999999999994
 20
43.0
 10
121.3599999999999994
 20
40.0
 10
115.0799999999999983
 20
40.0
 10
115.0799999999999983
 20
43.0
 10
108.7999999999999972
 20
43.0
 10
108.7999999999999972
 20
40.0
 10
102.519999999999996
 20
40.0
 10
102.519999999999996
 20
43.0
 10
96.2399999999999949
 20
43.0
 10
96.2399999999999949
 20
40.0
 10
89.9599999999999937
 20
40.0
 10
89.9599999999999937
 20
43.0
 10
83.6800000000000068
 20
43.0
 10
83.6800000000000068
 20
40.0
 10
77.4000000000000057
 20
40.0
 10
77.4000000000000057
 20
43.0
 10
71.1200000000000045
 20
43.0
 10
71.1200000000000045
 20
40.0
 10
64.8400000000000034
 20
40.0
 10
64.8400000000000034
 20
43.0
 10
58.5600000000000023
 20
43.0
 10
58.5600000000000023
 20
40.0
 10
52.2800000000000011
 20
40.0
 10
52.2800000000000011
 20
43.0
 10
46.0
 20
43.0
 10
46.0
 20
36.8599999999999994
 10
49.0
 20
36.8599999999999994
 10
49.0
 20
30.7100000000000009
 10
46.0
 20
30.7100000000000009
 10
46.0
 20
24.5700000000000003
 10
49.0
 20
24.5700000000000003
 10
49.0
 20
18.4299999999999997
 10
46.0
 20
18.4299999999999997
 10
46.0
 20
12.2899999999999991
 10
49.0
 20
12.2899999999999991
 10
49.0
 20
6.1399999999999997
 10
46.0
 20
6.1399999999999997
 10
46.0
 20
0.0
 10
49.0
 20
0.0
  0
LWPOLYLINE
  5
5D
100
AcDbEntity
  8
1
 62
256
370
-1
 48
1.0
  6
BYLAYER
100
AcDbPolyline
 90
79
 70
0
 10
49.0
 20
149.0
 10
200.0
 20
149.0
 10
203.0
 20
149.0
 10
203.0
 20
142.8600000000000136
 10
200.0
 20
142.8600000000000136
 10
200.0
 20
136.710000000000008
 10
203.0
 20
136.710000000000008
 10
203.0
 20
130.5699999999999932
 10
200.0
 20
130.5699999999999932
 10
200.0
 20
124.4300000000000068
 10
203.0
 20
124.4300000000000068
 10
203.0
 20
118.2900000000000063
 10
200.0
 20
118.2900000000000063
 10
200.0
 20
112.1400000000000006
 10
203.0
 20
112.1400000000000006
 10
203.0
 20
106.0
 10
196.7199999999999989
 20
106.0
 10
196.7199999999999989
 20
109.0
 10
190.4399999999999977
 20
109.0
 10
190.4399999999999977
 20
106.0
 10
184.1599999999999966
 20
106.0
 10
184.1599999999999966
 20
109.0
 10
177.8799999999999955
 20
109.0
 10
177.8799999999999955
 20
106.0
 10
171.5999999999999943
 20
106.0
 10
171.5999999999999943
 20
109.0
 10
165.3199999999999932
 20
109.0
 10
165.3199999999999932
 20
106.0
 10
159.039999999999992
 20
106.0
 10
159.039999999999992
 20
109.0
 10
152.7599999999999909
 20
109.0
 10
152.7599999999999909
 20
106.0
 10
146.4799999999999898
 20
106.0
 10
146.4799999999999898
 20
109.0
 10
140.1999999999999886
 20
109.0
 10
140.1999999999999886
 20
106.0
 10
133.9199999999999875
 20
106.0
 10
133.9199999999999875
 20
109.0
 10
127.6400000000000006
 20
109.0
 10
127.6400000000000006
 20
106.0
 10
121.3599999999999994
 20
106.0
 10
121.3599999999999994
 20
109.0
 10
115.0799999999999983
 20
109.0
 10
115.0799999999999983
 20
106.0
 10
108.7999999999999972
 20
106.0
 10
108.7999999999999972
 20
109.0
 10
102.519999999999996
 20
109.0
 10
102.519999999999996
 20
106.0
 10
96.2399999999999949
 20
106.0
 10
96.2399999999999949
 20
109.0
 10
89.9599999999999937
 20
109.0
 10
89.9599999999999937
 20
106.0
 10
83.6800000000000068
 20
106.0
 10
83.6800000000000068
 20
109.0
 10
77.4000000000000057
 20
109.0
 10
77.4000000000000057
 20
106.0
 10
71.1200000000000045
 20
106.0
 10
71.1200000000000045
 20
109.0
 10
64.8400000000000034
 20
109.0
 10
64.8400000000000034
 20
106.0
 10
58.5600000000000023
 20
106.0
 10
58.5600000000000023
 20
109.0
 10
52.2800000000000011
 20
109.0
 10
52.2800000000000011
 20
106.0
 10
46.0
 20
106.0
 10
46.0
 20
112.1400000000000006
 10
49.0
 20
112.1400000000000006
 10
49.0
 20
118.2900000000000063
 10
46.0
 20
118.2900000000000063
 10
46.0
 20
124.4300000000000068
 10
49.0
 20
124.4300000000000068
 10
49.0
 20
130.5699999999999932
 10
46.0
 20
130.5699999999999932
 10
46.0
 20
136.710000000000008
 10
49.0
 20
136.710000000000008
 10
49.0
 20
142.8600000000000136
 10
46.0
 20
142.8600000000000136
 10
46.0
 20
149.0
 10
49.0
 20
149.0
  0
LINE
  5
5E
100
AcDbEntity
  8
1
 62
256
370
-1
 48
1.0
  6
BYLAYER
100
AcDbLine
 10
189.0
 20
91.5
 30
0.0
 11
60.0
 21
91.5
 31
0.0
  0
LINE
  5
5F
100
AcDbEntity
  8
1
 62
256
370
-1
 48
1.0
  6
BYLAYER
100
AcDbLine
 10
59.4999999999999858
 20
91.0
 30
0.0
 11
59.4999999999999858
 21
58.0
 31
0.0
  0
LINE
  5
60
100
AcDbEntity
  8
1
 62
256
370
-1
 48
1.0
  6
BYLAYER
100
AcDbLine
 10
59.9999999999999858
 20
57.5
 30
0.0
 11
189.0
 21
57.5
 31
0.0
  0
LINE
  5
61
100
AcDbEntity
  8
1
 62
256
370
-1
 48
1.0
  6
BYLAYER
100
AcDbLine
 10
189.5
 20
58.0
 30
0.0
 11
189.5
 21
91.0
 31
0.0
  0
ARC
  5
62
100
AcDbEntity
  8
1
 62
256
370
-1
 48
1.0
  6
BYLAYER
100
AcDbCircle
 10
59.9999999999999858
 20
91.0
 30
0.0
 40
0.5
100
AcDbArc
 50
89.9999999999983658
 51
180.0
  0
ARC
  5
63
100
AcDbEntity
  8
1
 62
256
370
-1
 48
1.0
  6
BYLAYER
100
AcDbCircle
 10
189.0
 20
91.0
 30
0.0
 40
0.5
100
AcDbArc
 50
0.0
 51
90.0
  0
ARC
  5
64
100
AcDbEntity
  8
1
 62
256
370
-1
 48
1.0
  6
BYLAYER
100
AcDbCircle
 10
189.0
 20
58.0
 30
0.0
 40
0.5
100
AcDbArc
 50
270.0
 51
0.0
  0
ARC
  5
65
100
AcDbEntity
  8
1
 62
256
370
-1
 48
1.0
  6
BYLAYER
100
AcDbCircle
 10
59.9999999999999858
 20
58.0
 30
0.0
 40
0.5
100
AcDbArc
 50
180.0
 51
270.0
  0
LINE
  5
66
100
AcDbEntity
  8
1
 62
256
370
-1
 48
1.0
  6
BYLAYER
100
AcDbLine
 10
12.2899999999999974
 20
46.0
 30
0.0
 11
18.4299999999999997
 21
46.0
 31
0.0
  0
LINE
  5
67
100
AcDbEntity
  8
1
 62
256
370
-1
 48
1.0
  6
BYLAYER
100
AcDbLine
 10
24.5700000000000038
 20
46.0
 30
0.0
 11
30.7099999999999937
 21
46.0
 31
0.0
  0
LINE
  5
68
100
AcDbEntity
  8
1
 62
256
370
-1
 48
1.0
  6
BYLAYER
100
AcDbLine
 10
36.8599999999999923
 20
46.0
 30
0.0
 11
43.0
 21
46.0
 31
0.0
  0
LINE
  5
69
100
AcDbEntity
  8
1
 62
256
370
-1
 48
1.0
  6
BYLAYER
100
AcDbLine
 10
236.7099999999999795
 20
46.0000000000000426
 30
0.0
 11
230.5699999999998795
 21
45.9999999999999858
 31
0.0
  0
LINE
  5
6A
100
AcDbEntity
  8
1
 62
256
370
-1
 48
1.0
  6
BYLAYER
100
AcDbLine
 10
224.4299999999998931
 20
45.9999999999999929
 30
0.0
 11
218.2900000000000205
 21
46.0000000000002132
 31
0.0
  0
LINE
  5
6B
100
AcDbEntity
  8
1
 62
256
370
-1
 48
1.0
  6
BYLAYER
100
AcDbLine
 10
212.1399999999999295
 20
45.9999999999999503
 30
0.0
 11
205.9999999999999432
 21
46.0000000000001492
 31
0.0
  0
LINE
  5
6C
100
AcDbEntity
  8
1
 62
256
370
-1
 48
1.0
  6
BYLAYER
100
AcDbLine
 10
0.0
 20
49.0
 30
0.0
 11
6.1399999999999997
 21
49.0
 31
0.0
  0
LINE
  5
6D
100
AcDbEntity
  8
1
 62
256
370
-1
 48
1.0
  6
BYLAYER
100
AcDbLine
 10
248.9999999999999432
 20
49.0000000000000213
 30
0.0
 11
242.8599999999999568
 21
49.0000000000000995
 31
0.0
  0
LINE
  5
6E
100
AcDbEntity
  8
1
 62
256
370
-1
 48
1.0
  6
BYLAYER
100
AcDbLine
 10
6.1399999999999997
 20
49.0
 30
0.0
 11
6.1399999999999997
 21
44.3547919584729442
 31
0.0
  0
LINE
  5
6F
100
AcDbEntity
  8
1
 62
256
370
-1
 48
1.0
  6
BYLAYER
100
AcDbLine
 10
242.8599999999999568
 20
49.0000000000000995
 30
0.0
 11
242.8599999999999568
 21
44.3547919584730508
 31
0.0
  0
LINE
  5
70
100
AcDbEntity
  8
1
 62
256
370
-1
 48
1.0
  6
BYLAYER
100
AcDbLine
 10
12.2899999999999991
 20
49.0
 30
0.0
 11
12.2899999999999991
 21
46.0
 31
0.0
  0
LINE
  5
71
100
AcDbEntity
  8
1
 62
256
370
-1
 48
1.0
  6
BYLAYER
100
AcDbLine
 10
236.7099999999999795
 20
49.0000000000000568
 30
0.0
 11
236.7099999999999795
 21
46.0000000000000426
 31
0.0
  0
LINE
  5
72
100
AcDbEntity
  8
1
 62
256
370
-1
 48
1.0
  6
BYLAYER
100
AcDbLine
 10
12.2899999999999991
 20
49.0
 30
0.0
 11
18.4299999999999997
 21
49.0
 31
0.0
  0
LINE
  5
73
100
AcDbEntity
  8
1
 62
256
370
-1
 48
1.0
  6
BYLAYER
100
AcDbLine
 10
236.7099999999999795
 20
49.0000000000000568
 30
0.0
 11
230.5699999999999932
 21
49.000000000000199
 31
0.0
  0
LINE
  5
74
100
AcDbEntity
  8
1
 62
256
370
-1
 48
1.0
  6
BYLAYER
100
AcDbLine
 10
18.4299999999999997
 20
49.0
 30
0.0
 11
18.4299999999999997
 21
46.0
 31
0.0
  0
LINE
  5
75
100
AcDbEntity
  8
1
 62
256
370
-1
 48
1.0
  6
BYLAYER
100
AcDbLine
 10
230.5699999999999932
 20
49.000000000000199
 30
0.0
 11
230.5699999999998795
 21
45.9999999999999858
 31
0.0
  0
LINE
  5
76
100
AcDbEntity
  8
1
 62
256
370
-1
 48
1.0
  6
BYLAYER
100
AcDbLine
 10
24.5700000000000003
 20
46.0
 30
0.0
 11
24.5700000000000003
 21
49.0
 31
0.0
  0
LINE
  5
77
100
AcDbEntity
  8
1
 62
256
370
-1
 48
1.0
  6
BYLAYER
100
AcDbLine
 10
224.4299999999998931
 20
45.9999999999999929
 30
0.0
 11
224.42999999999995
 21
49.0000000000000355
 31
0.0
  0
LINE
  5
78
100
AcDbEntity
  8
1
 62
256
370
-1
 48
1.0
  6
BYLAYER
100
AcDbLine
 10
24.5700000000000003
 20
49.0
 30
0.0
 11
30.7100000000000009
 21
49.0
 31
0.0
  0
LINE
  5
79
100
AcDbEntity
  8
1
 62
256
370
-1
 48
1.0
  6
BYLAYER
100
AcDbLine
 10
224.42999999999995
 20
49.0000000000000355
 30
0.0
 11
218.2899999999999068
 21
49.0000000000000995
 31
0.0
  0
LINE
  5
7A
100
AcDbEntity
  8
1
 62
256
370
-1
 48
1.0
  6
BYLAYER
100
AcDbLine
 10
30.7100000000000009
 20
49.0
 30
0.0
 11
30.7099999999999973
 21
46.0
 31
0.0
  0
LINE
  5
7B
100
AcDbEntity
  8
1
 62
256
370
-1
 48
1.0
  6
BYLAYER
100
AcDbLine
 10
218.2899999999999068
 20
49.0000000000000995
 30
0.0
 11
218.2899999999999636
 21
46.0000000000002203
 31
0.0
  0
LINE
  5
7C
100
AcDbEntity
  8
1
 62
256
370
-1
 48
1.0
  6
BYLAYER
100
AcDbLine
 10
36.8599999999999994
 20
46.0
 30
0.0
 11
36.8599999999999994
 21
49.0
 31
0.0
  0
LINE
  5
7D
100
AcDbEntity
  8
1
 62
256
370
-1
 48
1.0
  6
BYLAYER
100
AcDbLine
 10
212.1399999999999295
 20
45.9999999999999574
 30
0.0
 11
212.1399999999999295
 21
49.0000000000000213
 31
0.0
  0
LINE
  5
7E
100
AcDbEntity
  8
1
 62
256
370
-1
 48
1.0
  6
BYLAYER
100
AcDbLine
 10
36.8599999999999994
 20
49.0
 30
0.0
 11
43.0
 21
49.0
 31
0.0
  0
LINE
  5
7F
100
AcDbEntity
  8
1
 62
256
370
-1
 48
1.0
  6
BYLAYER
100
AcDbLine
 10
212.1399999999999295
 20
49.0000000000000213
 30
0.0
 11
205.9999999999999432
 21
48.9999999999999432
 31
0.0
  0
LINE
  5
80
100
AcDbEntity
  8
1
 62
256
370
-1
 48
1.0
  6
BYLAYER
100
AcDbLine
 10
-0.0
 20
48.9999999999999929
 30
0.0
 11
0.0
 21
100.0
 31
0.0
  0
LINE
  5
81
100
AcDbEntity
  8
1
 62
256
370
-1
 48
1.0
  6
BYLAYER
100
AcDbLine
 10
248.9999999999999432
 20
49.0000000000000213
 30
0.0
 11
249.0000000000000568
 21
100.0000000000000711
 31
0.0
  0
LINE
  5
82
100
AcDbEntity
  8
1
 62
256
370
-1
 48
1.0
  6
BYLAYER
100
AcDbLine
 10
0.0
 20
100.0
 30
0.0
 11
6.1399999999999997
 21
100.0
 31
0.0
  0
LINE
  5
83
100
AcDbEntity
  8
1
 62
256
370
-1
 48
1.0
  6
BYLAYER
100
AcDbLine
 10
249.0000000000000568
 20
100.0000000000000711
 30
0.0
 11
242.8600000000000705
 21
99.9999999999990052
 31
0.0
  0
LINE
  5
84
100
AcDbEntity
  8
1
 62
256
370
-1
 48
1.0
  6
BYLAYER
100
AcDbLine
 10
6.1399999999999997
 20
100.0
 30
0.0
 11
6.1399999999999997
 21
103.0
 31
0.0
  0
LINE
  5
85
100
AcDbEntity
  8
1
 62
256
370
-1
 48
1.0
  6
BYLAYER
100
AcDbLine
 10
242.8600000000000705
 20
99.9999999999990052
 30
0.0
 11
242.8600000000000705
 21
103.0000000000000142
 31
0.0
  0
LINE
  5
86
100
AcDbEntity
  8
1
 62
256
370
-1
 48
1.0
  6
BYLAYER
100
AcDbLine
 10
6.1399999999999997
 20
103.0
 30
0.0
 11
12.2899999999999991
 21
103.0
 31
0.0
  0
LINE
  5
87
100
AcDbEntity
  8
1
 62
256
370
-1
 48
1.0
  6
BYLAYER
100
AcDbLine
 10
242.8600000000000705
 20
103.0000000000000142
 30
0.0
 11
236.7100000000000932
 21
103.0000000000000284
 31
0.0
  0
LINE
  5
88
100
AcDbEntity
  8
1
 62
256
370
-1
 48
1.0
  6
BYLAYER
100
AcDbLine
 10
12.2899999999999991
 20
103.0
 30
0.0
 11
12.2899999999999991
 21
100.0
 31
0.0
  0
LINE
  5
89
100
AcDbEntity
  8
1
 62
256
370
-1
 48
1.0
  6
BYLAYER
100
AcDbLine
 10
236.7100000000000932
 20
103.0000000000000284
 30
0.0
 11
236.7100000000000932
 21
99.999999999999801
 31
0.0
  0
LINE
  5
8A
100
AcDbEntity
  8
1
 62
256
370
-1
 48
1.0
  6
BYLAYER
100
AcDbLine
 10
12.2899999999999991
 20
100.0
 30
0.0
 11
18.4299999999999997
 21
100.0
 31
0.0
  0
LINE
  5
8B
100
AcDbEntity
  8
1
 62
256
370
-1
 48
1.0
  6
BYLAYER
100
AcDbLine
 10
236.7100000000000932
 20
99.999999999999801
 30
0.0
 11
230.57000000000005
 21
100.0000000000015064
 31
0.0
  0
LINE
  5
8C
100
AcDbEntity
  8
1
 62
256
370
-1
 48
1.0
  6
BYLAYER
100
AcDbLine
 10
18.4299999999999997
 20
100.0
 30
0.0
 11
18.4299999999999997
 21
103.0
 31
0.0
  0
LINE
  5
8D
100
AcDbEntity
  8
1
 62
256
370
-1
 48
1.0
  6
BYLAYER
100
AcDbLine
 10
230.57000000000005
 20
100.0000000000015064
 30
0.0
 11
230.57000000000005
 21
103.0000000000000426
 31
0.0
  0
LINE
  5
8E
100
AcDbEntity
  8
1
 62
256
370
-1
 48
1.0
  6
BYLAYER
100
AcDbLine
 10
18.4299999999999997
 20
103.0
 30
0.0
 11
24.5700000000000003
 21
103.0
 31
0.0
  0
LINE
  5
8F
100
AcDbEntity
  8
1
 62
256
370
-1
 48
1.0
  6
BYLAYER
100
AcDbLine
 10
230.57000000000005
 20
103.0000000000000426
 30
0.0
 11
224.4300000000000637
 21
103.0000000000000568
 31
0.0
  0
LINE
  5
90
100
AcDbEntity
  8
1
 62
256
370
-1
 48
1.0
  6
BYLAYER
100
AcDbLine
 10
24.5700000000000003
 20
103.0
 30
0.0
 11
24.5700000000000003
 21
100.0
 31
0.0
  0
LINE
  5
91
100
AcDbEntity
  8
1
 62
256
370
-1
 48
1.0
  6
BYLAYER
100
AcDbLine
 10
224.4300000000000637
 20
103.0000000000000568
 30
0.0
 11
224.4300000000000637
 21
99.9999999999999716
 31
0.0
  0
LINE
  5
92
100
AcDbEntity
  8
1
 62
256
370
-1
 48
1.0
  6
BYLAYER
100
AcDbLine
 10
24.5700000000000003
 20
100.0
 30
0.0
 11
30.7100000000000009
 21
100.0
 31
0.0
  0
LINE
  5
93
100
AcDbEntity
  8
1
 62
256
370
-1
 48
1.0
  6
BYLAYER
100
AcDbLine
 10
224.4300000000000637
 20
99.9999999999999716
 30
0.0
 11
218.2900000000000205
 21
100.0000000000010232
 31
0.0
  0
LINE
  5
94
100
AcDbEntity
  8
1
 62
256
370
-1
 48
1.0
  6
BYLAYER
100
AcDbLine
 10
30.7100000000000009
 20
100.0
 30
0.0
 11
30.7100000000000009
 21
103.0
 31
0.0
  0
LINE
  5
95
100
AcDbEntity
  8
1
 62
256
370
-1
 48
1.0
  6
BYLAYER
100
AcDbLine
 10
218.2900000000000205
 20
100.0000000000010232
 30
0.0
 11
218.2900000000000205
 21
103.0000000000000711
 31
0.0
  0
LINE
  5
96
100
AcDbEntity
  8
1
 62
256
370
-1
 48
1.0
  6
BYLAYER
100
AcDbLine
 10
30.7100000000000009
 20
103.0
 30
0.0
 11
36.8599999999999994
 21
103.0
 31
0.0
  0
LINE
  5
97
100
AcDbEntity
  8
1
 62
256
370
-1
 48
1.0
  6
BYLAYER
100
AcDbLine
 10
218.2900000000000205
 20
103.0000000000000711
 30
0.0
 11
212.1400000000000432
 21
103.0000000000000853
 31
0.0
  0
LINE
  5
98
100
AcDbEntity
  8
1
 62
256
370
-1
 48
1.0
  6
BYLAYER
100
AcDbLine
 10
36.8599999999999994
 20
103.0
 30
0.0
 11
36.8599999999999994
 21
100.0
 31
0.0
  0
LINE
  5
99
100
AcDbEntity
  8
1
 62
256
370
-1
 48
1.0
  6
BYLAYER
100
AcDbLine
 10
212.1400000000000432
 20
103.0000000000000853
 30
0.0
 11
212.1400000000000432
 21
100.0000000000014495
 31
0.0
  0
LINE
  5
9A
100
AcDbEntity
  8
1
 62
256
370
-1
 48
1.0
  6
BYLAYER
100
AcDbLine
 10
36.8599999999999994
 20
100.0
 30
0.0
 11
43.0
 21
100.0
 31
0.0
  0
LINE
  5
9B
100
AcDbEntity
  8
1
 62
256
370
-1
 48
1.0
  6
BYLAYER
100
AcDbLine
 10
212.1400000000000432
 20
100.0000000000014495
 30
0.0
 11
206.0000000000000568
 21
100.0000000000010942
 31
0.0
  0
LINE
  5
9C
100
AcDbEntity
  8
1
 62
256
370
-1
 48
1.0
  6
BYLAYER
100
AcDbLine
 10
43.0
 20
100.0
 30
0.0
 11
43.0
 21
94.3299999999999983
 31
0.0
  0
LINE
  5
9D
100
AcDbEntity
  8
1
 62
256
370
-1
 48
1.0
  6
BYLAYER
100
AcDbLine
 10
206.0000000000000568
 20
100.0000000000010942
 30
0.0
 11
206.0000000000000568
 21
94.3299999999998278
 31
0.0
  0
LINE
  5
9E
100
AcDbEntity
  8
1
 62
256
370
-1
 48
1.0
  6
BYLAYER
100
AcDbLine
 10
43.0
 20
94.3299999999999983
 30
0.0
 11
40.0
 21
94.3299999999999983
 31
0.0
  0
LINE
  5
9F
100
AcDbEntity
  8
1
 62
256
370
-1
 48
1.0
  6
BYLAYER
100
AcDbLine
 10
206.0000000000000568
 20
94.3299999999998278
 30
0.0
 11
209.0000000000000568
 21
94.3300000000005667
 31
0.0
  0
LINE
  5
A0
100
AcDbEntity
  8
1
 62
256
370
-1
 48
1.0
  6
BYLAYER
100
AcDbLine
 10
40.0
 20
94.3299999999999983
 30
0.0
 11
40.0
 21
88.6700000000000017
 31
0.0
  0
LINE
  5
A1
100
AcDbEntity
  8
1
 62
256
370
-1
 48
1.0
  6
BYLAYER
100
AcDbLine
 10
209.0000000000000568
 20
94.3300000000005667
 30
0.0
 11
209.0000000000000568
 21
88.6700000000006412
 31
0.0
  0
LINE
  5
A2
100
AcDbEntity
  8
1
 62
256
370
-1
 48
1.0
  6
BYLAYER
100
AcDbLine
 10
40.0
 20
88.6700000000000017
 30
0.0
 11
43.0
 21
88.6700000000000017
 31
0.0
  0
LINE
  5
A3
100
AcDbEntity
  8
1
 62
256
370
-1
 48
1.0
  6
BYLAYER
100
AcDbLine
 10
209.0000000000000568
 20
88.6700000000006412
 30
0.0
 11
206.0000000000000568
 21
88.6700000000001012
 31
0.0
  0
LINE
  5
A4
100
AcDbEntity
  8
1
 62
256
370
-1
 48
1.0
  6
BYLAYER
100
AcDbLine
 10
43.0
 20
88.6700000000000017
 30
0.0
 11
43.0
 21
83.0
 31
0.0
  0
LINE
  5
A5
100
AcDbEntity
  8
1
 62
256
370
-1
 48
1.0
  6
BYLAYER
100
AcDbLine
 10
206.0000000000000568
 20
88.6700000000001012
 30
0.0
 11
206.0000000000000568
 21
83.0000000000003126
 31
0.0
  0
LINE
  5
A6
100
AcDbEntity
  8
1
 62
256
370
-1
 48
1.0
  6
BYLAYER
100
AcDbLine
 10
43.0
 20
83.0
 30
0.0
 11
40.0
 21
83.0
 31
0.0
  0
LINE
  5
A7
100
AcDbEntity
  8
1
 62
256
370
-1
 48
1.0
  6
BYLAYER
100
AcDbLine
 10
206.0000000000000568
 20
83.0000000000003126
 30
0.0
 11
209.0000000000000568
 21
83.0000000000000711
 31
0.0
  0
LINE
  5
A8
100
AcDbEntity
  8
1
 62
256
370
-1
 48
1.0
  6
BYLAYER
100
AcDbLine
 10
40.0
 20
83.0
 30
0.0
 11
40.0
 21
77.3299999999999983
 31
0.0
  0
LINE
  5
A9
100
AcDbEntity
  8
1
 62
256
370
-1
 48
1.0
  6
BYLAYER
100
AcDbLine
 10
209.0000000000000568
 20
83.0000000000000711
 30
0.0
 11
209.0000000000000568
 21
77.330000000000183
 31
0.0
  0
LINE
  5
AA
100
AcDbEntity
  8
1
 62
256
370
-1
 48
1.0
  6
BYLAYER
100
AcDbLine
 10
40.0
 20
77.3299999999999983
 30
0.0
 11
43.0
 21
77.3299999999999983
 31
0.0
  0
LINE
  5
AB
100
AcDbEntity
  8
1
 62
256
370
-1
 48
1.0
  6
BYLAYER
100
AcDbLine
 10
209.0000000000000568
 20
77.330000000000183
 30
0.0
 11
206.0000000000000568
 21
77.3300000000001546
 31
0.0
  0
LINE
  5
AC
100
AcDbEntity
  8
1
 62
256
370
-1
 48
1.0
  6
BYLAYER
100
AcDbLine
 10
43.0
 20
77.3299999999999983
 30
0.0
 11
43.0
 21
71.6700000000000017
 31
0.0
  0
LINE
  5
AD
100
AcDbEntity
  8
1
 62
256
370
-1
 48
1.0
  6
BYLAYER
100
AcDbLine
 10
206.0000000000000568
 20
77.3300000000001546
 30
0.0
 11
206.0000000000000568
 21
71.670000000000158
 31
0.0
  0
LINE
  5
AE
100
AcDbEntity
  8
1
 62
256
370
-1
 48
1.0
  6
BYLAYER
100
AcDbLine
 10
43.0
 20
71.6700000000000017
 30
0.0
 11
40.0
 21
71.6700000000000017
 31
0.0
  0
LINE
  5
AF
100
AcDbEntity
  8
1
 62
256
370
-1
 48
1.0
  6
BYLAYER
100
AcDbLine
 10
206.0000000000000568
 20
71.670000000000158
 30
0.0
 11
209.0
 21
71.6700000000000443
 31
0.0
  0
LINE
  5
B0
100
AcDbEntity
  8
1
 62
256
370
-1
 48
1.0
  6
BYLAYER
100
AcDbLine
 10
40.0
 20
71.6700000000000017
 30
0.0
 11
40.0
 21
66.0
 31
0.0
  0
LINE
  5
B1
100
AcDbEntity
  8
1
 62
256
370
-1
 48
1.0
  6
BYLAYER
100
AcDbLine
 10
209.0
 20
71.6700000000000443
 30
0.0
 11
208.9999999999999432
 21
65.9999999999998863
 31
0.0
  0
LINE
  5
B2
100
AcDbEntity
  8
1
 62
256
370
-1
 48
1.0
  6
BYLAYER
100
AcDbLine
 10
40.0
 20
66.0
 30
0.0
 11
43.0
 21
66.0
 31
0.0
  0
LINE
  5
B3
100
AcDbEntity
  8
1
 62
256
370
-1
 48
1.0
  6
BYLAYER
100
AcDbLine
 10
208.9999999999999432
 20
65.9999999999998863
 30
0.0
 11
206.0
 21
66.0000000000002416
 31
0.0
  0
LINE
  5
B4
100
AcDbEntity
  8
1
 62
256
370
-1
 48
1.0
  6
BYLAYER
100
AcDbLine
 10
43.0
 20
66.0
 30
0.0
 11
43.0
 21
60.3299999999999983
 31
0.0
  0
LINE
  5
B5
100
AcDbEntity
  8
1
 62
256
370
-1
 48
1.0
  6
BYLAYER
100
AcDbLine
 10
206.0
 20
66.0000000000002416
 30
0.0
 11
206.0000000000000568
 21
60.3300000000002683
 31
0.0
  0
LINE
  5
B6
100
AcDbEntity
  8
1
 62
256
370
-1
 48
1.0
  6
BYLAYER
100
AcDbLine
 10
43.0
 20
60.3299999999999983
 30
0.0
 11
40.0
 21
60.3299999999999983
 31
0.0
  0
LINE
  5
B7
100
AcDbEntity
  8
1
 62
256
370
-1
 48
1.0
  6
BYLAYER
100
AcDbLine
 10
206.0000000000000568
 20
60.3300000000002683
 30
0.0
 11
209.0
 21
60.3300000000000409
 31
0.0
  0
LINE
  5
B8
100
AcDbEntity
  8
1
 62
256
370
-1
 48
1.0
  6
BYLAYER
100
AcDbLine
 10
40.0
 20
60.3299999999999983
 30
0.0
 11
40.0
 21
54.6700000000000017
 31
0.0
  0
LINE
  5
B9
100
AcDbEntity
  8
1
 62
256
370
-1
 48
1.0
  6
BYLAYER
100
AcDbLine
 10
209.0
 20
60.3300000000000409
 30
0.0
 11
208.9999999999999432
 21
54.6700000000001509
 31
0.0
  0
LINE
  5
BA
100
AcDbEntity
  8
1
 62
256
370
-1
 48
1.0
  6
BYLAYER
100
AcDbLine
 10
40.0
 20
54.6700000000000017
 30
0.0
 11
43.0
 21
54.6700000000000017
 31
0.0
  0
LINE
  5
BB
100
AcDbEntity
  8
1
 62
256
370
-1
 48
1.0
  6
BYLAYER
100
AcDbLine
 10
208.9999999999999432
 20
54.6700000000001509
 30
0.0
 11
205.9999999999999432
 21
54.6700000000001367
 31
0.0
  0
LINE
  5
BC
100
AcDbEntity
  8
1
 62
256
370
-1
 48
1.0
  6
BYLAYER
100
AcDbLine
 10
43.0
 20
54.6700000000000017
 30
0.0
 11
43.0
 21
49.0
 31
0.0
  0
LINE
  5
BD
100
AcDbEntity
  8
1
 62
256
370
-1
 48
1.0
  6
BYLAYER
100
AcDbLine
 10
205.9999999999999432
 20
54.6700000000001367
 30
0.0
 11
205.9999999999999432
 21
48.9999999999999432
 31
0.0
  0
LINE
  5
BE
100
AcDbEntity
  8
1
 62
256
370
-1
 48
1.0
  6
BYLAYER
100
AcDbLine
 10
6.1399999999999979
 20
44.3547919584729442
 30
0.0
 11
43.0000000000000071
 21
34.4781847254617588
 31
0.0
  0
LINE
  5
BF
100
AcDbEntity
  8
1
 62
256
370
-1
 48
1.0
  6
BYLAYER
100
AcDbLine
 10
242.8599999999999568
 20
44.3547919584730366
 30
0.0
 11
205.9999999999999432
 21
34.4781847254620288
 31
0.0
  0
LINE
  5
C0
100
AcDbEntity
  8
1
 62
256
370
-1
 48
1.0
  6
BYLAYER
100
AcDbLine
 10
43.0
 20
46.0
 30
0.0
 11
43.0000000000000071
 21
34.4781847254617588
 31
0.0
  0
LINE
  5
C1
100
AcDbEntity
  8
1
 62
256
370
-1
 48
1.0
  6
BYLAYER
100
AcDbLine
 10
205.9999999999999432
 20
46.0000000000001492
 30
0.0
 11
205.9999999999999432
 21
34.4781847254620288
 31
0.0
  0
ENDSEC
  0
SECTION
  2
OBJECTS
  0
DICTIONARY
  5
C
100
AcDbDictionary
280
0
281
1
  3
ACAD_GROUP
350
D
  3
ACAD_LAYOUT
350
1A
  3
ACAD_MLINESTYLE
350
17
  3
ACAD_PLOTSETTINGS
350
19
  3
ACAD_PLOTSTYLENAME
350
E
  3
AcDbVariableDictionary
350
C2
  3
QCAD_OBJECTS
350
C3
  0
DICTIONARY
  5
D
100
AcDbDictionary
280
0
281
1
  0
ACDBDICTIONARYWDFLT
  5
E
100
AcDbDictionary
281
1
  3
Normal
350
F
100
AcDbDictionaryWithDefault
340
F
  0
ACDBPLACEHOLDER
  5
F
  0
DICTIONARY
  5
17
100
AcDbDictionary
280
0
281
1
  3
Standard
350
18
  0
MLINESTYLE
  5
18
100
AcDbMlineStyle
  2
STANDARD
 70
0
  3

 62
256
 51
90.0
 52
90.0
 71
2
 49
0.5
 62
256
  6
BYLAYER
 49
-0.5
 62
256
  6
BYLAYER
  0
DICTIONARY
  5
19
100
AcDbDictionary
280
0
281
1
  0
DICTIONARY
  5
1A
100
AcDbDictionary
281
1
  3
Layout1
350
1E
  3
Layout2
350
26
  3
Model
350
22
  0
LAYOUT
  5
1E
100
AcDbPlotSettings
  1

  2
none_device
  4

  6

 40
0.0
 41
0.0
 42
0.0
 43
0.0
 44
0.0
 45
0.0
 46
0.0
 47
0.0
 48
0.0
 49
0.0
140
0.0
141
0.0
142
1.0
143
1.0
 70
688
 72
0
 73
0
 74
5
  7

 75
16
147
1.0
148
0.0
149
0.0
100
AcDbLayout
  1
Layout1
 70
1
 71
1
 10
0.0
 20
0.0
 11
420.0
 21
297.0
 12
0.0
 22
0.0
 32
0.0
 14
100000000000000000000.0
 24
100000000000000000000.0
 34
100000000000000000000.0
 15
-100000000000000000000.0
 25
-100000000000000000000.0
 35
-100000000000000000000.0
146
0.0
 13
0.0
 23
0.0
 33
0.0
 16
1.0
 26
0.0
 36
0.0
 17
0.0
 27
1.0
 37
0.0
 76
0
330
1B
  0
LAYOUT
  5
22
100
AcDbPlotSettings
  1

  2
none_device
  4

  6

 40
0.0
 41
0.0
 42
0.0
 43
0.0
 44
0.0
 45
0.0
 46
0.0
 47
0.0
 48
0.0
 49
0.0
140
0.0
141
0.0
142
1.0
143
1.0
 70
1712
 72
0
 73
0
 74
0
  7

 75
0
147
1.0
148
0.0
149
0.0
100
AcDbLayout
  1
Model
 70
1
 71
0
 10
0.0
 20
0.0
 11
12.0
 21
9.0
 12
0.0
 22
0.0
 32
0.0
 14
0.0
 24
0.0
 34
0.0
 15
0.0
 25
0.0
 35
0.0
146
0.0
 13
0.0
 23
0.0
 33
0.0
 16
1.0
 26
0.0
 36
0.0
 17
0.0
 27
1.0
 37
0.0
 76
0
330
1F
  0
LAYOUT
  5
26
100
AcDbPlotSettings
  1

  2
none_device
  4

  6

 40
0.0
 41
0.0
 42
0.0
 43
0.0
 44
0.0
 45
0.0
 46
0.0
 47
0.0
 48
0.0
 49
0.0
140
0.0
141
0.0
142
1.0
143
1.0
 70
688
 72
0
 73
0
 74
5
  7

 75
16
147
1.0
148
0.0
149
0.0
100
AcDbLayout
  1
Layout2
 70
1
 71
2
 10
0.0
 20
0.0
 11
12.0
 21
9.0
 12
0.0
 22
0.0
 32
0.0
 14
0.0
 24
0.0
 34
0.0
 15
0.0
 25
0.0
 35
0.0
146
0.0
 13
0.0
 23
0.0
 33
0.0
 16
1.0
 26
0.0
 36
0.0
 17
0.0
 27
1.0
 37
0.0
 76
0
330
23
  0
DICTIONARY
  5
C2
100
AcDbDictionary
281
1
  3
DIMASSOC
350
C5
  3
HIDETEXT
350
C4
  0
DICTIONARYVAR
  5
C4
100
DictionaryVariables
280
0
  1
2
  0
DICTIONARYVAR
  5
C5
100
DictionaryVariables
280
0
  1
1
  0
DICTIONARY
  5
C3
100
AcDbDictionary
281
1
  3
ColorSettings/BackgroundColor
350
C6
  3
ColorSettings/ColorMode
350
C7
  3
Grid/DisplayGrid00
350
C8
  3
Grid/DisplayGrid01
350
C9
  3
Grid/DisplayGrid02
350
CA
  3
Grid/DisplayGrid03
350
CB
  3
Grid/GridSpacingX00
350
CC
  3
Grid/GridSpacingX01
350
CD
  3
Grid/GridSpacingX02
350
CE
  3
Grid/GridSpacingX03
350
CF
  3
Grid/GridSpacingY00
350
D0
  3
Grid/GridSpacingY01
350
D1
  3
Grid/GridSpacingY02
350
D2
  3
Grid/GridSpacingY03
350
D3
  3
Grid/IsometricGrid00
350
D4
  3
Grid/IsometricGrid01
350
D5
  3
Grid/IsometricGrid02
350
D6
  3
Grid/IsometricGrid03
350
D7
  3
Grid/IsometricProjection00
350
D8
  3
Grid/IsometricProjection01
350
D9
  3
Grid/IsometricProjection02
350
DA
  3
Grid/IsometricProjection03
350
DB
  3
Grid/MetaGridSpacingX00
350
DC
  3
Grid/MetaGridSpacingX01
350
DD
  3
Grid/MetaGridSpacingX02
350
DE
  3
Grid/MetaGridSpacingX03
350
DF
  3
Grid/MetaGridSpacingY00
350
E0
  3
Grid/MetaGridSpacingY01
350
E1
  3
Grid/MetaGridSpacingY02
350
E2
  3
Grid/MetaGridSpacingY03
350
E3
  3
MultiPageSettings/Columns
350
E4
  3
MultiPageSettings/GlueMarginsBottom
350
E5
  3
MultiPageSettings/GlueMarginsLeft
350
E6
  3
MultiPageSettings/GlueMarginsRight
350
E7
  3
MultiPageSettings/GlueMarginsTop
350
E8
  3
MultiPageSettings/PrintCropMarks
350
E9
  3
MultiPageSettings/Rows
350
EA
  3
PageSettings/OffsetX
350
EB
  3
PageSettings/OffsetY
350
EC
  3
PageSettings/PageOrientation
350
ED
  3
PageSettings/PaperHeight
350
EE
  3
PageSettings/PaperWidth
350
EF
  3
PageSettings/Scale
350
F0
  3
PageSettings/ShowPaperBorders
350
F1
  3
QCADVersion
350
F2
  3
UnitSettings/PaperUnit
350
F3
  3
ViewportCenter
350
F4
  3
ViewportHeight
350
F5
  3
ViewportWidth
350
F6
  0
XRECORD
  5
C6
330
C3
100
AcDbXrecord
280
1
1000
Blanc
  0
XRECORD
  5
C7
330
C3
100
AcDbXrecord
280
1
1000
FullColor
  0
XRECORD
  5
C8
330
C3
100
AcDbXrecord
280
1
290
1
  0
XRECORD
  5
C9
330
C3
100
AcDbXrecord
280
1
290
1
  0
XRECORD
  5
CA
330
C3
100
AcDbXrecord
280
1
290
1
  0
XRECORD
  5
CB
330
C3
100
AcDbXrecord
280
1
290
1
  0
XRECORD
  5
CC
330
C3
100
AcDbXrecord
280
1
1000
auto
  0
XRECORD
  5
CD
330
C3
100
AcDbXrecord
280
1
1000
auto
  0
XRECORD
  5
CE
330
C3
100
AcDbXrecord
280
1
1000
auto
  0
XRECORD
  5
CF
330
C3
100
AcDbXrecord
280
1
1000
auto
  0
XRECORD
  5
D0
330
C3
100
AcDbXrecord
280
1
1000
auto
  0
XRECORD
  5
D1
330
C3
100
AcDbXrecord
280
1
1000
auto
  0
XRECORD
  5
D2
330
C3
100
AcDbXrecord
280
1
1000
auto
  0
XRECORD
  5
D3
330
C3
100
AcDbXrecord
280
1
1000
auto
  0
XRECORD
  5
D4
330
C3
100
AcDbXrecord
280
1
290
0
  0
XRECORD
  5
D5
330
C3
100
AcDbXrecord
280
1
290
0
  0
XRECORD
  5
D6
330
C3
100
AcDbXrecord
280
1
290
0
  0
XRECORD
  5
D7
330
C3
100
AcDbXrecord
280
1
290
0
  0
XRECORD
  5
D8
330
C3
100
AcDbXrecord
280
1
 90
65537
  0
XRECORD
  5
D9
330
C3
100
AcDbXrecord
280
1
 90
65537
  0
XRECORD
  5
DA
330
C3
100
AcDbXrecord
280
1
 90
65537
  0
XRECORD
  5
DB
330
C3
100
AcDbXrecord
280
1
 90
65537
  0
XRECORD
  5
DC
330
C3
100
AcDbXrecord
280
1
1000
auto
  0
XRECORD
  5
DD
330
C3
100
AcDbXrecord
280
1
1000
auto
  0
XRECORD
  5
DE
330
C3
100
AcDbXrecord
280
1
1000
auto
  0
XRECORD
  5
DF
330
C3
100
AcDbXrecord
280
1
1000
auto
  0
XRECORD
  5
E0
330
C3
100
AcDbXrecord
280
1
1000
auto
  0
XRECORD
  5
E1
330
C3
100
AcDbXrecord
280
1
1000
auto
  0
XRECORD
  5
E2
330
C3
100
AcDbXrecord
280
1
1000
auto
  0
XRECORD
  5
E3
330
C3
100
AcDbXrecord
280
1
1000
auto
  0
XRECORD
  5
E4
330
C3
100
AcDbXrecord
280
1
 90
1
  0
XRECORD
  5
E5
330
C3
100
AcDbXrecord
280
1
 40
10.0
  0
XRECORD
  5
E6
330
C3
100
AcDbXrecord
280
1
 40
10.0
  0
XRECORD
  5
E7
330
C3
100
AcDbXrecord
280
1
 40
10.0
  0
XRECORD
  5
E8
330
C3
100
AcDbXrecord
280
1
 40
10.0
  0
XRECORD
  5
E9
330
C3
100
AcDbXrecord
280
1
290
0
  0
XRECORD
  5
EA
330
C3
100
AcDbXrecord
280
1
 90
1
  0
XRECORD
  5
EB
330
C3
100
AcDbXrecord
280
1
 40
0.0
  0
XRECORD
  5
EC
330
C3
100
AcDbXrecord
280
1
 40
0.0
  0
XRECORD
  5
ED
330
C3
100
AcDbXrecord
280
1
1000
Landscape
  0
XRECORD
  5
EE
330
C3
100
AcDbXrecord
280
1
 40
297.0
  0
XRECORD
  5
EF
330
C3
100
AcDbXrecord
280
1
 40
210.0
  0
XRECORD
  5
F0
330
C3
100
AcDbXrecord
280
1
1000
1:1
  0
XRECORD
  5
F1
330
C3
100
AcDbXrecord
280
1
290
1
  0
XRECORD
  5
F2
330
C3
100
AcDbXrecord
280
1
1000
3.21.3.17
  0
XRECORD
  5
F3
330
C3
100
AcDbXrecord
280
1
 90
4
  0
XRECORD
  5
F5
330
C3
100
AcDbXrecord
280
1
 40
159.531715893108327
  0
XRECORD
  5
F6
330
C3
100
AcDbXrecord
280
1
 40
369.5853023909986632
  0
ENDSEC
  0
EOF
