999
dxflib 3.17.0.0
  0
SECTION
  2
HEADER
  9
$ACADVER
  1
AC1015
  9
$HANDSEED
  5
FFFF
  9
$DIMADEC
 70
0
  9
$DIMASZ
 40
0.18
  9
$DIMAUNIT
 70
0
  9
$DIMAZIN
 70
0
  9
$DIMDEC
 70
4
  9
$DIMDSEP
 70
46
  9
$DIMEXE
 40
0.18
  9
$DIMEXO
 40
0.0625
  9
$DIMGAP
 40
0.09
  9
$DIMLUNIT
 70
2
  9
$DIMSCALE
 40
1.0
  9
$DIMTSZ
 40
0.0
  9
$DIMTXT
 40
0.18
  9
$DIMZIN
 70
0
  9
$DWGCODEPAGE
  3
ANSI_1252
  9
$EXTMAX
 10
750.0
 20
975.0
 30
0.0
  9
$EXTMIN
 10
0.0
 20
0.0
 30
0.0
  9
$INSUNITS
 70
0
  9
$LTSCALE
 40
1.0
  9
$MAXACTVP
 70
64
  9
$MEASUREMENT
 70
1
  9
$PDMODE
 70
0
  9
$PDSIZE
 40
0.0
  0
ENDSEC
  0
SECTION
  2
TABLES
  0
TABLE
  2
VPORT
  5
8
100
AcDbSymbolTable
 70
1
  0
VPORT
  5
30
100
AcDbSymbolTableRecord
100
AcDbViewportTableRecord
  2
*Active
 70
0
 10
0.0
 20
0.0
 11
1.0
 21
1.0
 12
286.3055555555554861
 22
148.5
 13
0.0
 23
0.0
 14
10.0
 24
10.0
 15
10.0
 25
10.0
 16
0.0
 26
0.0
 36
1.0
 17
0.0
 27
0.0
 37
0.0
 40
297.0
 41
1.92798353909465
 42
50.0
 43
0.0
 44
0.0
 50
0.0
 51
0.0
 71
0
 72
100
 73
1
 74
3
 75
1
 76
1
 77
0
 78
0
281
0
 65
1
110
0.0
120
0.0
130
0.0
111
1.0
121
0.0
131
0.0
112
0.0
122
1.0
132
0.0
 79
0
146
0.0
  0
ENDTAB
  0
TABLE
  2
LTYPE
  5
5
100
AcDbSymbolTable
 70
41
  0
LTYPE
  5
16
100
AcDbSymbolTableRecord
100
AcDbLinetypeTableRecord
  2
Continuous
 70
0
  3
Solid line
 72
65
 73
0
 40
0.0
  0
LTYPE
  5
31
100
AcDbSymbolTableRecord
100
AcDbLinetypeTableRecord
  2
ACAD_ISO15W100
 70
0
  3
ISO double-dash triple-dot __ __ . . . __ __ . .
 72
65
 73
10
 40
39.0000000000000071
 49
12.0
 74
0
 49
-3.0
 74
0
 49
12.0
 74
0
 49
-2.9500000000000002
 74
0
 49
0.1
 74
0
 49
-2.9000000000000004
 74
0
 49
0.1
 74
0
 49
-2.9000000000000004
 74
0
 49
0.1
 74
0
 49
-2.9500000000000002
 74
0
  0
LTYPE
  5
32
100
AcDbSymbolTableRecord
100
AcDbLinetypeTableRecord
  2
DIVIDE
 70
0
  3
Divide ____ . . ____ . . ____ . . ____ . . ____
 72
65
 73
6
 40
31.7500000000000036
 49
12.6999999999999993
 74
0
 49
-6.2999999999999998
 74
0
 49
0.1
 74
0
 49
-6.25
 74
0
 49
0.1
 74
0
 49
-6.2999999999999998
 74
0
  0
LTYPE
  5
33
100
AcDbSymbolTableRecord
100
AcDbLinetypeTableRecord
  2
ACAD_ISO10W100
 70
0
  3
ISO dash dot __ . __ . __ . __ . __ . __ . __ . 
 72
65
 73
4
 40
18.0
 49
12.0
 74
0
 49
-2.9500000000000002
 74
0
 49
0.1
 74
0
 49
-2.9500000000000002
 74
0
  0
LTYPE
  5
34
100
AcDbSymbolTableRecord
100
AcDbLinetypeTableRecord
  2
ACAD_ISO04W100
 70
0
  3
ISO long-dash dot ____ . ____ . ____ . ____ . _
 72
65
 73
4
 40
30.0
 49
24.0
 74
0
 49
-2.9500000000000002
 74
0
 49
0.1
 74
0
 49
-2.9500000000000002
 74
0
  0
LTYPE
  5
35
100
AcDbSymbolTableRecord
100
AcDbLinetypeTableRecord
  2
CENTER2
 70
0
  3
Center (.5x) ___ _ ___ _ ___ _ ___ _ ___ _ ___
 72
65
 73
4
 40
28.5750000000000028
 49
19.0500000000000007
 74
0
 49
-3.1749999999999998
 74
0
 49
3.1749999999999998
 74
0
 49
-3.1749999999999998
 74
0
  0
LTYPE
  5
36
100
AcDbSymbolTableRecord
100
AcDbLinetypeTableRecord
  2
ACAD_ISO11W100
 70
0
  3
ISO double-dash dot __ __ . __ __ . __ __ . __ _
 72
65
 73
6
 40
33.0
 49
12.0
 74
0
 49
-3.0
 74
0
 49
12.0
 74
0
 49
-2.9500000000000002
 74
0
 49
0.1
 74
0
 49
-2.9500000000000002
 74
0
  0
LTYPE
  5
37
100
AcDbSymbolTableRecord
100
AcDbLinetypeTableRecord
  2
HIDDEN2
 70
0
  3
Hidden (.5x) _ _ _ _ _ _ _ _ _ _ _ _ _ _ _ _ _ 
 72
65
 73
2
 40
4.7624999999999993
 49
3.1749999999999998
 74
0
 49
-1.5874999999999999
 74
0
  0
LTYPE
  5
38
100
AcDbSymbolTableRecord
100
AcDbLinetypeTableRecord
  2
BORDERX2
 70
0
  3
Border (2x) ____  ____  .  ____  ____  .  ___
 72
65
 73
6
 40
88.8999999999999773
 49
25.3999999999999986
 74
0
 49
-12.6999999999999993
 74
0
 49
25.3999999999999986
 74
0
 49
-12.6499999999999986
 74
0
 49
0.1
 74
0
 49
-12.6499999999999986
 74
0
  0
LTYPE
  5
39
100
AcDbSymbolTableRecord
100
AcDbLinetypeTableRecord
  2
ACAD_ISO05W100
 70
0
  3
ISO long-dash double-dot ____ .. ____ .. ____ . 
 72
65
 73
6
 40
33.0000000000000071
 49
24.0
 74
0
 49
-2.9500000000000002
 74
0
 49
0.1
 74
0
 49
-2.9000000000000004
 74
0
 49
0.1
 74
0
 49
-2.9500000000000002
 74
0
  0
LTYPE
  5
3A
100
AcDbSymbolTableRecord
100
AcDbLinetypeTableRecord
  2
DASHDOTX2
 70
0
  3
Dash dot (2x) ____  .  ____  .  ____  .  ___
 72
65
 73
4
 40
50.7999999999999972
 49
25.3999999999999986
 74
0
 49
-12.6499999999999986
 74
0
 49
0.1
 74
0
 49
-12.6499999999999986
 74
0
  0
LTYPE
  5
3B
100
AcDbSymbolTableRecord
100
AcDbLinetypeTableRecord
  2
HIDDENX2
 70
0
  3
Hidden (2x) ____ ____ ____ ____ ____ ____ ____ 
 72
65
 73
2
 40
19.0499999999999972
 49
12.6999999999999993
 74
0
 49
-6.3499999999999996
 74
0
  0
LTYPE
  5
3C
100
AcDbSymbolTableRecord
100
AcDbLinetypeTableRecord
  2
CENTERX2
 70
0
  3
Center (2x) ________  __  ________  __  _____
 72
65
 73
4
 40
101.6000000000000085
 49
63.5
 74
0
 49
-12.6999999999999993
 74
0
 49
12.6999999999999993
 74
0
 49
-12.6999999999999993
 74
0
  0
LTYPE
  5
3D
100
AcDbSymbolTableRecord
100
AcDbLinetypeTableRecord
  2
BORDER2
 70
0
  3
Border (.5x) __.__.__.__.__.__.__.__.__.__.__.
 72
65
 73
6
 40
22.2250000000000014
 49
6.3499999999999996
 74
0
 49
-3.1749999999999998
 74
0
 49
6.3499999999999996
 74
0
 49
-3.125
 74
0
 49
0.1
 74
0
 49
-3.125
 74
0
  0
LTYPE
  5
3E
100
AcDbSymbolTableRecord
100
AcDbLinetypeTableRecord
  2
DASHDOT2
 70
0
  3
Dash dot (.5x) _._._._._._._._._._._._._._._.
 72
65
 73
4
 40
12.6999999999999993
 49
6.3499999999999996
 74
0
 49
-3.125
 74
0
 49
0.1
 74
0
 49
-3.125
 74
0
  0
LTYPE
  5
3F
100
AcDbSymbolTableRecord
100
AcDbLinetypeTableRecord
  2
ACAD_ISO12W100
 70
0
  3
ISO dash double-dot __ . . __ . . __ . . __ . . 
 72
65
 73
6
 40
21.0
 49
12.0
 74
0
 49
-2.9500000000000002
 74
0
 49
0.1
 74
0
 49
-2.9000000000000004
 74
0
 49
0.1
 74
0
 49
-2.9500000000000002
 74
0
  0
LTYPE
  5
40
100
AcDbSymbolTableRecord
100
AcDbLinetypeTableRecord
  2
ACAD_ISO07W100
 70
0
  3
ISO dot . . . . . . . . . . . . . . . . . . . . 
 72
65
 73
2
 40
3.0
 49
0.1
 74
0
 49
-2.8999999999999999
 74
0
  0
LTYPE
  5
41
100
AcDbSymbolTableRecord
100
AcDbLinetypeTableRecord
  2
HIDDEN
 70
0
  3
Hidden __ __ __ __ __ __ __ __ __ __ __ __ __ __
 72
65
 73
2
 40
9.5249999999999986
 49
6.3499999999999996
 74
0
 49
-3.1749999999999998
 74
0
  0
LTYPE
  5
42
100
AcDbSymbolTableRecord
100
AcDbLinetypeTableRecord
  2
ACAD_ISO06W100
 70
0
  3
ISO long-dash triple-dot ____ ... ____ ... ____
 72
65
 73
8
 40
36.0000000000000071
 49
24.0
 74
0
 49
-2.9500000000000002
 74
0
 49
0.1
 74
0
 49
-2.9000000000000004
 74
0
 49
0.1
 74
0
 49
-2.9000000000000004
 74
0
 49
0.1
 74
0
 49
-2.9500000000000002
 74
0
  0
LTYPE
  5
43
100
AcDbSymbolTableRecord
100
AcDbLinetypeTableRecord
  2
CENTER
 70
0
  3
Center ____ _ ____ _ ____ _ ____ _ ____ _ ____
 72
65
 73
4
 40
50.8000000000000043
 49
31.75
 74
0
 49
-6.3499999999999996
 74
0
 49
6.3499999999999996
 74
0
 49
-6.3499999999999996
 74
0
  0
LTYPE
  5
44
100
AcDbSymbolTableRecord
100
AcDbLinetypeTableRecord
  2
DOTX2
 70
0
  3
Dot (2x) .  .  .  .  .  .  .  .  .  .  .  .  .  .
 72
65
 73
2
 40
12.6999999999999993
 49
0.1
 74
0
 49
-12.5999999999999996
 74
0
  0
LTYPE
  5
45
100
AcDbSymbolTableRecord
100
AcDbLinetypeTableRecord
  2
PHANTOM
 70
0
  3
Phantom ______  __  __  ______  __  __  ______ 
 72
65
 73
6
 40
63.5000000000000071
 49
31.75
 74
0
 49
-6.3499999999999996
 74
0
 49
6.3499999999999996
 74
0
 49
-6.3499999999999996
 74
0
 49
6.3499999999999996
 74
0
 49
-6.3499999999999996
 74
0
  0
LTYPE
  5
46
100
AcDbSymbolTableRecord
100
AcDbLinetypeTableRecord
  2
ACAD_ISO08W100
 70
0
  3
ISO long-dash short-dash ____ __ ____ __ ____ _
 72
65
 73
4
 40
36.0
 49
24.0
 74
0
 49
-3.0
 74
0
 49
6.0
 74
0
 49
-3.0
 74
0
  0
LTYPE
  5
47
100
AcDbSymbolTableRecord
100
AcDbLinetypeTableRecord
  2
DASHEDX2
 70
0
  3
Dashed (2x) ____  ____  ____  ____  ____  ___
 72
65
 73
2
 40
38.0999999999999943
 49
25.3999999999999986
 74
0
 49
-12.6999999999999993
 74
0
  0
LTYPE
  5
48
100
AcDbSymbolTableRecord
100
AcDbLinetypeTableRecord
  2
ACAD_ISO02W100
 70
0
  3
ISO dash __ __ __ __ __ __ __ __ __ __ __ __ __
 72
65
 73
2
 40
15.0
 49
12.0
 74
0
 49
-3.0
 74
0
  0
LTYPE
  5
49
100
AcDbSymbolTableRecord
100
AcDbLinetypeTableRecord
  2
PHANTOM2
 70
0
  3
Phantom (.5x) ___ _ _ ___ _ _ ___ _ _ ___ _ _
 72
65
 73
6
 40
31.7500000000000036
 49
15.875
 74
0
 49
-3.1749999999999998
 74
0
 49
3.1749999999999998
 74
0
 49
-3.1749999999999998
 74
0
 49
3.1749999999999998
 74
0
 49
-3.1749999999999998
 74
0
  0
LTYPE
  5
4A
100
AcDbSymbolTableRecord
100
AcDbLinetypeTableRecord
  2
DASHED2
 70
0
  3
Dashed (.5x) _ _ _ _ _ _ _ _ _ _ _ _ _ _ _ _ _ 
 72
65
 73
2
 40
9.5249999999999986
 49
6.3499999999999996
 74
0
 49
-3.1749999999999998
 74
0
  0
LTYPE
  5
4B
100
AcDbSymbolTableRecord
100
AcDbLinetypeTableRecord
  2
ACAD_ISO09W100
 70
0
  3
ISO long-dash double-short-dash ____ __ __ ____
 72
65
 73
6
 40
45.0
 49
24.0
 74
0
 49
-3.0
 74
0
 49
6.0
 74
0
 49
-3.0
 74
0
 49
6.0
 74
0
 49
-3.0
 74
0
  0
LTYPE
  5
4C
100
AcDbSymbolTableRecord
100
AcDbLinetypeTableRecord
  2
ACAD_ISO13W100
 70
0
  3
ISO double-dash double-dot __ __ . . __ __ . . _
 72
65
 73
8
 40
36.0000000000000071
 49
12.0
 74
0
 49
-3.0
 74
0
 49
12.0
 74
0
 49
-2.9500000000000002
 74
0
 49
0.1
 74
0
 49
-2.9000000000000004
 74
0
 49
0.1
 74
0
 49
-2.9500000000000002
 74
0
  0
LTYPE
  5
4D
100
AcDbSymbolTableRecord
100
AcDbLinetypeTableRecord
  2
DOT2
 70
0
  3
Dot (.5x) ........................................
 72
65
 73
2
 40
3.1749999999999998
 49
0.1
 74
0
 49
-3.0749999999999997
 74
0
  0
LTYPE
  5
4E
100
AcDbSymbolTableRecord
100
AcDbLinetypeTableRecord
  2
DASHED
 70
0
  3
Dashed __ __ __ __ __ __ __ __ __ __ __ __ __ _
 72
65
 73
2
 40
19.0499999999999972
 49
12.6999999999999993
 74
0
 49
-6.3499999999999996
 74
0
  0
LTYPE
  5
4F
100
AcDbSymbolTableRecord
100
AcDbLinetypeTableRecord
  2
ACAD_ISO14W100
 70
0
  3
ISO dash triple-dot __ . . . __ . . . __ . . . _
 72
65
 73
8
 40
24.0000000000000036
 49
12.0
 74
0
 49
-2.9500000000000002
 74
0
 49
0.1
 74
0
 49
-2.9000000000000004
 74
0
 49
0.1
 74
0
 49
-2.9000000000000004
 74
0
 49
0.1
 74
0
 49
-2.9500000000000002
 74
0
  0
LTYPE
  5
15
100
AcDbSymbolTableRecord
100
AcDbLinetypeTableRecord
  2
BYLAYER
 70
0
  3

 72
65
 73
0
 40
0.0
  0
LTYPE
  5
50
100
AcDbSymbolTableRecord
100
AcDbLinetypeTableRecord
  2
PHANTOMX2
 70
0
  3
Phantom (2x) ____________    ____    ____   _
 72
65
 73
6
 40
127.0000000000000142
 49
63.5
 74
0
 49
-12.6999999999999993
 74
0
 49
12.6999999999999993
 74
0
 49
-12.6999999999999993
 74
0
 49
12.6999999999999993
 74
0
 49
-12.6999999999999993
 74
0
  0
LTYPE
  5
14
100
AcDbSymbolTableRecord
100
AcDbLinetypeTableRecord
  2
BYBLOCK
 70
0
  3

 72
65
 73
0
 40
0.0
  0
LTYPE
  5
51
100
AcDbSymbolTableRecord
100
AcDbLinetypeTableRecord
  2
DIVIDEX2
 70
0
  3
Divide (2x) ________  .  .  ________  .  .  _
 72
65
 73
6
 40
63.5
 49
25.3999999999999986
 74
0
 49
-12.6499999999999986
 74
0
 49
0.1
 74
0
 49
-12.5999999999999979
 74
0
 49
0.1
 74
0
 49
-12.6499999999999986
 74
0
  0
LTYPE
  5
52
100
AcDbSymbolTableRecord
100
AcDbLinetypeTableRecord
  2
BORDER
 70
0
  3
Border __ __ . __ __ . __ __ . __ __ . __ __ .
 72
65
 73
6
 40
44.4499999999999957
 49
12.6999999999999993
 74
0
 49
-6.3499999999999996
 74
0
 49
12.6999999999999993
 74
0
 49
-6.2999999999999998
 74
0
 49
0.1
 74
0
 49
-6.2999999999999998
 74
0
  0
LTYPE
  5
53
100
AcDbSymbolTableRecord
100
AcDbLinetypeTableRecord
  2
DIVIDE2
 70
0
  3
Divide (.5x) __..__..__..__..__..__..__..__.._
 72
65
 73
6
 40
15.8749999999999982
 49
6.3499999999999996
 74
0
 49
-3.125
 74
0
 49
0.1
 74
0
 49
-3.0750000000000002
 74
0
 49
0.1
 74
0
 49
-3.125
 74
0
  0
LTYPE
  5
54
100
AcDbSymbolTableRecord
100
AcDbLinetypeTableRecord
  2
DOT
 70
0
  3
Dot . . . . . . . . . . . . . . . . . . . . . . . .
 72
65
 73
2
 40
6.3499999999999996
 49
0.1
 74
0
 49
-6.25
 74
0
  0
LTYPE
  5
55
100
AcDbSymbolTableRecord
100
AcDbLinetypeTableRecord
  2
DASHDOT
 70
0
  3
Dash dot __ . __ . __ . __ . __ . __ . __ . __
 72
65
 73
4
 40
25.4000000000000021
 49
12.6999999999999993
 74
0
 49
-6.2999999999999998
 74
0
 49
0.1
 74
0
 49
-6.2999999999999998
 74
0
  0
LTYPE
  5
56
100
AcDbSymbolTableRecord
100
AcDbLinetypeTableRecord
  2
ACAD_ISO03W100
 70
0
  3
ISO dash space __    __    __    __    __    __
 72
65
 73
2
 40
30.0
 49
12.0
 74
0
 49
-18.0
 74
0
  0
ENDTAB
  0
TABLE
  2
LAYER
  5
2
100
AcDbSymbolTable
 70
2
  0
LAYER
  5
10
100
AcDbSymbolTableRecord
100
AcDbLayerTableRecord
  2
0
 70
1
 62
7
420
16777215
  6
Continuous
370
25
390
F
  0
LAYER
  5
57
100
AcDbSymbolTableRecord
100
AcDbLayerTableRecord
  2
1
 70
0
 62
7
420
16777215
  6
BYLAYER
370
5
390
F
  0
ENDTAB
  0
TABLE
  2
STYLE
  5
3
100
AcDbSymbolTable
 70
1
  0
STYLE
  5
58
100
AcDbSymbolTableRecord
100
AcDbTextStyleTableRecord
  2
Standard
 70
0
 40
0.0
 41
1.0
 50
0.0
 71
0
 42
2.5
  3

  4

1001
ACAD
1000
txt
1071
0
  0
ENDTAB
  0
TABLE
  2
VIEW
  5
6
100
AcDbSymbolTable
 70
0
  0
ENDTAB
  0
TABLE
  2
UCS
  5
7
100
AcDbSymbolTable
 70
0
  0
ENDTAB
  0
TABLE
  2
APPID
  5
9
100
AcDbSymbolTable
 70
1
  0
APPID
  5
12
100
AcDbSymbolTableRecord
100
AcDbRegAppTableRecord
  2
ACAD
 70
0
  0
APPID
  5
59
100
AcDbSymbolTableRecord
100
AcDbRegAppTableRecord
  2
QCAD
 70
0
  0
ENDTAB
  0
TABLE
  2
DIMSTYLE
  5
A
100
AcDbSymbolTable
 70
1
100
AcDbDimStyleTable
 71
0
  0
DIMSTYLE
105
27
100
AcDbSymbolTableRecord
100
AcDbDimStyleTableRecord
  2
Standard
 41
0.18
 42
0.0625
 43
3.75
 44
0.18
 70
0
 73
0
 74
0
 77
1
 78
8
140
0.18
141
2.5
143
0.03937007874016
147
0.09
171
3
172
1
271
2
272
2
274
3
278
44
283
0
284
8
340
58
  0
ENDTAB
  0
TABLE
  2
BLOCK_RECORD
  5
1
100
AcDbSymbolTable
 70
1
  0
BLOCK_RECORD
  5
1F
100
AcDbSymbolTableRecord
100
AcDbBlockTableRecord
  2
*Model_Space
340
22
  0
BLOCK_RECORD
  5
1B
100
AcDbSymbolTableRecord
100
AcDbBlockTableRecord
  2
*Paper_Space
340
1E
  0
BLOCK_RECORD
  5
23
100
AcDbSymbolTableRecord
100
AcDbBlockTableRecord
  2
*Paper_Space0
340
26
  0
ENDTAB
  0
ENDSEC
  0
SECTION
  2
BLOCKS
  0
BLOCK
  5
20
100
AcDbEntity
  8
0
100
AcDbBlockBegin
  2
*Model_Space
 70
0
 10
0.0
 20
0.0
 30
0.0
  3
*Model_Space
  1

  0
ENDBLK
  5
21
100
AcDbEntity
  8
0
100
AcDbBlockEnd
  0
BLOCK
  5
1C
100
AcDbEntity
 67
1
  8
0
100
AcDbBlockBegin
  2
*Paper_Space
 70
0
 10
0.0
 20
0.0
 30
0.0
  3
*Paper_Space
  1

  0
ENDBLK
  5
1D
100
AcDbEntity
 67
1
  8
0
100
AcDbBlockEnd
  0
BLOCK
  5
24
100
AcDbEntity
  8
0
100
AcDbBlockBegin
  2
*Paper_Space0
 70
0
 10
0.0
 20
0.0
 30
0.0
  3
*Paper_Space0
  1

  0
ENDBLK
  5
25
100
AcDbEntity
  8
0
100
AcDbBlockEnd
  0
ENDSEC
  0
SECTION
  2
ENTITIES
  0
LWPOLYLINE
  5
5A
100
AcDbEntity
  8
1
 62
256
370
-1
 48
1.0
  6
BYLAYER
100
AcDbPolyline
 90
117
 70
0
 10
56.0
 20
56.0
 10
59.0
 20
56.0
 10
59.0
 20
53.0
 10
65.0
 20
53.0
 10
65.0
 20
56.0
 10
71.0
 20
56.0
 10
71.0
 20
53.0
 10
77.0
 20
53.0
 10
77.0
 20
56.0
 10
83.0
 20
56.0
 10
83.0
 20
53.0
 10
89.0
 20
53.0
 10
89.0
 20
56.0
 10
95.0
 20
56.0
 10
95.0
 20
53.0
 10
101.0
 20
53.0
 10
101.0
 20
56.0
 10
107.0
 20
56.0
 10
107.0
 20
53.0
 10
113.0
 20
53.0
 10
113.0
 20
56.0
 10
119.0
 20
56.0
 10
119.0
 20
53.0
 10
125.0
 20
53.0
 10
125.0
 20
56.0
 10
131.0
 20
56.0
 10
131.0
 20
53.0
 10
137.0
 20
53.0
 10
137.0
 20
56.0
 10
143.0
 20
56.0
 10
143.0
 20
53.0
 10
149.0
 20
53.0
 10
149.0
 20
56.0
 10
155.0
 20
56.0
 10
155.0
 20
53.0
 10
161.0
 20
53.0
 10
161.0
 20
56.0
 10
167.0
 20
56.0
 10
167.0
 20
53.0
 10
173.0
 20
53.0
 10
173.0
 20
56.0
 10
179.0
 20
56.0
 10
179.0
 20
53.0
 10
185.0
 20
53.0
 10
185.0
 20
56.0
 10
191.0
 20
56.0
 10
191.0
 20
53.0
 10
197.0
 20
53.0
 10
197.0
 20
56.0
 10
200.0
 20
56.0
 10
200.0
 20
62.7999999999999972
 10
203.0
 20
62.7999999999999972
 10
203.0
 20
69.5999999999999943
 10
200.0
 20
69.5999999999999943
 10
200.0
 20
76.4000000000000057
 10
203.0
 20
76.4000000000000057
 10
203.0
 20
83.2000000000000028
 10
200.0
 20
83.2000000000000028
 10
200.0
 20
90.0
 10
197.0
 20
90.0
 10
197.0
 20
93.0
 10
191.0
 20
93.0
 10
191.0
 20
90.0
 10
185.0
 20
90.0
 10
185.0
 20
93.0
 10
179.0
 20
93.0
 10
179.0
 20
90.0
 10
173.0
 20
90.0
 10
173.0
 20
93.0
 10
167.0
 20
93.0
 10
167.0
 20
90.0
 10
161.0
 20
90.0
 10
161.0
 20
93.0
 10
155.0
 20
93.0
 10
155.0
 20
90.0
 10
149.0
 20
90.0
 10
149.0
 20
93.0
 10
143.0
 20
93.0
 10
143.0
 20
90.0
 10
137.0
 20
90.0
 10
137.0
 20
93.0
 10
131.0
 20
93.0
 10
131.0
 20
90.0
 10
125.0
 20
90.0
 10
125.0
 20
93.0
 10
119.0
 20
93.0
 10
119.0
 20
90.0
 10
113.0
 20
90.0
 10
113.0
 20
93.0
 10
107.0
 20
93.0
 10
107.0
 20
90.0
 10
101.0
 20
90.0
 10
101.0
 20
93.0
 10
95.0
 20
93.0
 10
95.0
 20
90.0
 10
89.0
 20
90.0
 10
89.0
 20
93.0
 10
83.0
 20
93.0
 10
83.0
 20
90.0
 10
77.0
 20
90.0
 10
77.0
 20
93.0
 10
71.0
 20
93.0
 10
71.0
 20
90.0
 10
65.0
 20
90.0
 10
65.0
 20
93.0
 10
59.0
 20
93.0
 10
59.0
 20
90.0
 10
56.0
 20
90.0
 10
56.0
 20
83.2000000000000028
 10
53.0
 20
83.2000000000000028
 10
53.0
 20
76.4000000000000057
 10
56.0
 20
76.4000000000000057
 10
56.0
 20
69.5999999999999943
 10
53.0
 20
69.5999999999999943
 10
53.0
 20
62.7999999999999972
 10
56.0
 20
62.7999999999999972
 10
56.0
 20
56.0
  0
LWPOLYLINE
  5
5B
100
AcDbEntity
  8
1
 62
256
370
-1
 48
1.0
  6
BYLAYER
100
AcDbPolyline
 90
5
 70
0
 10
65.0
 20
62.0
 10
71.0
 20
62.0
 10
71.0
 20
65.0
 10
65.0
 20
65.0
 10
65.0
 20
62.0
  0
LWPOLYLINE
  5
5C
100
AcDbEntity
  8
1
 62
256
370
-1
 48
1.0
  6
BYLAYER
100
AcDbPolyline
 90
5
 70
0
 10
77.0
 20
62.0
 10
83.0
 20
62.0
 10
83.0
 20
65.0
 10
77.0
 20
65.0
 10
77.0
 20
62.0
  0
LWPOLYLINE
  5
5D
100
AcDbEntity
  8
1
 62
256
370
-1
 48
1.0
  6
BYLAYER
100
AcDbPolyline
 90
5
 70
0
 10
89.0
 20
62.0
 10
95.0
 20
62.0
 10
95.0
 20
65.0
 10
89.0
 20
65.0
 10
89.0
 20
62.0
  0
LWPOLYLINE
  5
5E
100
AcDbEntity
  8
1
 62
256
370
-1
 48
1.0
  6
BYLAYER
100
AcDbPolyline
 90
5
 70
0
 10
101.0
 20
62.0
 10
107.0
 20
62.0
 10
107.0
 20
65.0
 10
101.0
 20
65.0
 10
101.0
 20
62.0
  0
LWPOLYLINE
  5
5F
100
AcDbEntity
  8
1
 62
256
370
-1
 48
1.0
  6
BYLAYER
100
AcDbPolyline
 90
5
 70
0
 10
113.0
 20
62.0
 10
119.0
 20
62.0
 10
119.0
 20
65.0
 10
113.0
 20
65.0
 10
113.0
 20
62.0
  0
LWPOLYLINE
  5
60
100
AcDbEntity
  8
1
 62
256
370
-1
 48
1.0
  6
BYLAYER
100
AcDbPolyline
 90
5
 70
0
 10
125.0
 20
62.0
 10
131.0
 20
62.0
 10
131.0
 20
65.0
 10
125.0
 20
65.0
 10
125.0
 20
62.0
  0
LWPOLYLINE
  5
61
100
AcDbEntity
  8
1
 62
256
370
-1
 48
1.0
  6
BYLAYER
100
AcDbPolyline
 90
5
 70
0
 10
137.0
 20
62.0
 10
143.0
 20
62.0
 10
143.0
 20
65.0
 10
137.0
 20
65.0
 10
137.0
 20
62.0
  0
LWPOLYLINE
  5
62
100
AcDbEntity
  8
1
 62
256
370
-1
 48
1.0
  6
BYLAYER
100
AcDbPolyline
 90
5
 70
0
 10
149.0
 20
62.0
 10
155.0
 20
62.0
 10
155.0
 20
65.0
 10
149.0
 20
65.0
 10
149.0
 20
62.0
  0
LWPOLYLINE
  5
63
100
AcDbEntity
  8
1
 62
256
370
-1
 48
1.0
  6
BYLAYER
100
AcDbPolyline
 90
5
 70
0
 10
161.0
 20
62.0
 10
167.0
 20
62.0
 10
167.0
 20
65.0
 10
161.0
 20
65.0
 10
161.0
 20
62.0
  0
LWPOLYLINE
  5
64
100
AcDbEntity
  8
1
 62
256
370
-1
 48
1.0
  6
BYLAYER
100
AcDbPolyline
 90
5
 70
0
 10
173.0
 20
62.0
 10
179.0
 20
62.0
 10
179.0
 20
65.0
 10
173.0
 20
65.0
 10
173.0
 20
62.0
  0
LWPOLYLINE
  5
65
100
AcDbEntity
  8
1
 62
256
370
-1
 48
1.0
  6
BYLAYER
100
AcDbPolyline
 90
5
 70
0
 10
185.0
 20
62.0
 10
191.0
 20
62.0
 10
191.0
 20
65.0
 10
185.0
 20
65.0
 10
185.0
 20
62.0
  0
LWPOLYLINE
  5
66
100
AcDbEntity
  8
1
 62
256
370
-1
 48
1.0
  6
BYLAYER
100
AcDbPolyline
 90
131
 70
0
 10
56.0
 20
0.0
 10
62.259999999999998
 20
0.0
 10
62.259999999999998
 20
3.0
 10
68.519999999999996
 20
3.0
 10
68.519999999999996
 20
0.0
 10
74.7800000000000011
 20
0.0
 10
74.7800000000000011
 20
3.0
 10
81.0400000000000063
 20
3.0
 10
81.0400000000000063
 20
0.0
 10
87.2999999999999972
 20
0.0
 10
87.2999999999999972
 20
3.0
 10
93.5600000000000023
 20
3.0
 10
93.5600000000000023
 20
0.0
 10
99.8299999999999983
 20
0.0
 10
99.8299999999999983
 20
3.0
 10
106.0900000000000034
 20
3.0
 10
106.0900000000000034
 20
0.0
 10
112.3499999999999943
 20
0.0
 10
112.3499999999999943
 20
3.0
 10
118.6099999999999994
 20
3.0
 10
118.6099999999999994
 20
0.0
 10
124.8700000000000045
 20
0.0
 10
124.8700000000000045
 20
3.0
 10
131.1299999999999955
 20
3.0
 10
131.1299999999999955
 20
0.0
 10
137.3899999999999864
 20
0.0
 10
137.3899999999999864
 20
3.0
 10
143.6500000000000057
 20
3.0
 10
143.6500000000000057
 20
0.0
 10
149.9099999999999966
 20
0.0
 10
149.9099999999999966
 20
3.0
 10
156.1699999999999875
 20
3.0
 10
156.1699999999999875
 20
0.0
 10
162.4399999999999977
 20
0.0
 10
162.4399999999999977
 20
3.0
 10
168.6999999999999886
 20
3.0
 10
168.6999999999999886
 20
0.0
 10
174.960000000000008
 20
0.0
 10
174.960000000000008
 20
3.0
 10
181.2199999999999989
 20
3.0
 10
181.2199999999999989
 20
0.0
 10
187.4799999999999898
 20
0.0
 10
187.4799999999999898
 20
3.0
 10
193.7400000000000091
 20
3.0
 10
193.7400000000000091
 20
0.0
 10
200.0
 20
0.0
 10
203.0
 20
0.0
 10
203.0
 20
5.5599999999999996
 10
200.0
 20
5.5599999999999996
 10
200.0
 20
11.1099999999999994
 10
203.0
 20
11.1099999999999994
 10
203.0
 20
16.6700000000000017
 10
200.0
 20
16.6700000000000017
 10
200.0
 20
22.2199999999999989
 10
203.0
 20
22.2199999999999989
 10
203.0
 20
27.7800000000000011
 10
200.0
 20
27.7800000000000011
 10
200.0
 20
33.3299999999999983
 10
203.0
 20
33.3299999999999983
 10
203.0
 20
38.8900000000000006
 10
200.0
 20
38.8900000000000006
 10
200.0
 20
44.4399999999999977
 10
203.0
 20
44.4399999999999977
 10
203.0
 20
50.0
 10
197.0
 20
50.0
 10
197.0
 20
47.0
 10
191.0
 20
47.0
 10
191.0
 20
50.0
 10
185.0
 20
50.0
 10
185.0
 20
47.0
 10
179.0
 20
47.0
 10
179.0
 20
50.0
 10
173.0
 20
50.0
 10
173.0
 20
47.0
 10
167.0
 20
47.0
 10
167.0
 20
50.0
 10
161.0
 20
50.0
 10
161.0
 20
47.0
 10
155.0
 20
47.0
 10
155.0
 20
50.0
 10
149.0
 20
50.0
 10
149.0
 20
47.0
 10
143.0
 20
47.0
 10
143.0
 20
50.0
 10
137.0
 20
50.0
 10
137.0
 20
47.0
 10
131.0
 20
47.0
 10
131.0
 20
50.0
 10
125.0
 20
50.0
 10
125.0
 20
47.0
 10
119.0
 20
47.0
 10
119.0
 20
50.0
 10
113.0
 20
50.0
 10
113.0
 20
47.0
 10
107.0
 20
47.0
 10
107.0
 20
50.0
 10
101.0
 20
50.0
 10
101.0
 20
47.0
 10
95.0
 20
47.0
 10
95.0
 20
50.0
 10
89.0
 20
50.0
 10
89.0
 20
47.0
 10
83.0
 20
47.0
 10
83.0
 20
50.0
 10
77.0
 20
50.0
 10
77.0
 20
47.0
 10
71.0
 20
47.0
 10
71.0
 20
50.0
 10
65.0
 20
50.0
 10
65.0
 20
47.0
 10
59.0
 20
47.0
 10
59.0
 20
50.0
 10
53.0
 20
50.0
 10
53.0
 20
44.4399999999999977
 10
56.0
 20
44.4399999999999977
 10
56.0
 20
38.8900000000000006
 10
53.0
 20
38.8900000000000006
 10
53.0
 20
33.3299999999999983
 10
56.0
 20
33.3299999999999983
 10
56.0
 20
27.7800000000000011
 10
53.0
 20
27.7800000000000011
 10
53.0
 20
22.2199999999999989
 10
56.0
 20
22.2199999999999989
 10
56.0
 20
16.6700000000000017
 10
53.0
 20
16.6700000000000017
 10
53.0
 20
11.1099999999999994
 10
56.0
 20
11.1099999999999994
 10
56.0
 20
5.5599999999999996
 10
53.0
 20
5.5599999999999996
 10
53.0
 20
0.0
 10
56.0
 20
0.0
  0
LWPOLYLINE
  5
67
100
AcDbEntity
  8
1
 62
256
370
-1
 48
1.0
  6
BYLAYER
100
AcDbPolyline
 90
131
 70
0
 10
56.0
 20
146.0
 10
62.259999999999998
 20
146.0
 10
62.259999999999998
 20
143.0
 10
68.519999999999996
 20
143.0
 10
68.519999999999996
 20
146.0
 10
74.7800000000000011
 20
146.0
 10
74.7800000000000011
 20
143.0
 10
81.0400000000000063
 20
143.0
 10
81.0400000000000063
 20
146.0
 10
87.2999999999999972
 20
146.0
 10
87.2999999999999972
 20
143.0
 10
93.5600000000000023
 20
143.0
 10
93.5600000000000023
 20
146.0
 10
99.8299999999999983
 20
146.0
 10
99.8299999999999983
 20
143.0
 10
106.0900000000000034
 20
143.0
 10
106.0900000000000034
 20
146.0
 10
112.3499999999999943
 20
146.0
 10
112.3499999999999943
 20
143.0
 10
118.6099999999999994
 20
143.0
 10
118.6099999999999994
 20
146.0
 10
124.8700000000000045
 20
146.0
 10
124.8700000000000045
 20
143.0
 10
131.1299999999999955
 20
143.0
 10
131.1299999999999955
 20
146.0
 10
137.3899999999999864
 20
146.0
 10
137.3899999999999864
 20
143.0
 10
143.6500000000000057
 20
143.0
 10
143.6500000000000057
 20
146.0
 10
149.9099999999999966
 20
146.0
 10
149.9099999999999966
 20
143.0
 10
156.1699999999999875
 20
143.0
 10
156.1699999999999875
 20
146.0
 10
162.4399999999999977
 20
146.0
 10
162.4399999999999977
 20
143.0
 10
168.6999999999999886
 20
143.0
 10
168.6999999999999886
 20
146.0
 10
174.960000000000008
 20
146.0
 10
174.960000000000008
 20
143.0
 10
181.2199999999999989
 20
143.0
 10
181.2199999999999989
 20
146.0
 10
187.4799999999999898
 20
146.0
 10
187.4799999999999898
 20
143.0
 10
193.7400000000000091
 20
143.0
 10
193.7400000000000091
 20
146.0
 10
200.0
 20
146.0
 10
203.0
 20
146.0
 10
203.0
 20
140.4399999999999977
 10
200.0
 20
140.4399999999999977
 10
200.0
 20
134.8899999999999864
 10
203.0
 20
134.8899999999999864
 10
203.0
 20
129.3300000000000125
 10
200.0
 20
129.3300000000000125
 10
200.0
 20
123.7800000000000011
 10
203.0
 20
123.7800000000000011
 10
203.0
 20
118.2199999999999989
 10
200.0
 20
118.2199999999999989
 10
200.0
 20
112.6700000000000017
 10
203.0
 20
112.6700000000000017
 10
203.0
 20
107.1099999999999994
 10
200.0
 20
107.1099999999999994
 10
200.0
 20
101.5600000000000023
 10
203.0
 20
101.5600000000000023
 10
203.0
 20
96.0
 10
197.0
 20
96.0
 10
197.0
 20
99.0
 10
191.0
 20
99.0
 10
191.0
 20
96.0
 10
185.0
 20
96.0
 10
185.0
 20
99.0
 10
179.0
 20
99.0
 10
179.0
 20
96.0
 10
173.0
 20
96.0
 10
173.0
 20
99.0
 10
167.0
 20
99.0
 10
167.0
 20
96.0
 10
161.0
 20
96.0
 10
161.0
 20
99.0
 10
155.0
 20
99.0
 10
155.0
 20
96.0
 10
149.0
 20
96.0
 10
149.0
 20
99.0
 10
143.0
 20
99.0
 10
143.0
 20
96.0
 10
137.0
 20
96.0
 10
137.0
 20
99.0
 10
131.0
 20
99.0
 10
131.0
 20
96.0
 10
125.0
 20
96.0
 10
125.0
 20
99.0
 10
119.0
 20
99.0
 10
119.0
 20
96.0
 10
113.0
 20
96.0
 10
113.0
 20
99.0
 10
107.0
 20
99.0
 10
107.0
 20
96.0
 10
101.0
 20
96.0
 10
101.0
 20
99.0
 10
95.0
 20
99.0
 10
95.0
 20
96.0
 10
89.0
 20
96.0
 10
89.0
 20
99.0
 10
83.0
 20
99.0
 10
83.0
 20
96.0
 10
77.0
 20
96.0
 10
77.0
 20
99.0
 10
71.0
 20
99.0
 10
71.0
 20
96.0
 10
65.0
 20
96.0
 10
65.0
 20
99.0
 10
59.0
 20
99.0
 10
59.0
 20
96.0
 10
53.0
 20
96.0
 10
53.0
 20
101.5600000000000023
 10
56.0
 20
101.5600000000000023
 10
56.0
 20
107.1099999999999994
 10
53.0
 20
107.1099999999999994
 10
53.0
 20
112.6700000000000017
 10
56.0
 20
112.6700000000000017
 10
56.0
 20
118.2199999999999989
 10
53.0
 20
118.2199999999999989
 10
53.0
 20
123.7800000000000011
 10
56.0
 20
123.7800000000000011
 10
56.0
 20
129.3300000000000125
 10
53.0
 20
129.3300000000000125
 10
53.0
 20
134.8899999999999864
 10
56.0
 20
134.8899999999999864
 10
56.0
 20
140.4399999999999977
 10
53.0
 20
140.4399999999999977
 10
53.0
 20
146.0
 10
56.0
 20
146.0
  0
LWPOLYLINE
  5
68
100
AcDbEntity
  8
1
 62
256
370
-1
 48
1.0
  6
BYLAYER
100
AcDbPolyline
 90
53
 70
0
 10
206.0
 20
2.9999999999999929
 10
206.0
 20
9.7999999999999901
 10
209.0
 20
9.7999999999999901
 10
209.0
 20
16.5999999999999872
 10
206.0
 20
16.5999999999999872
 10
206.0
 20
23.3999999999999986
 10
209.0
 20
23.3999999999999986
 10
209.0
 20
30.1999999999999957
 10
206.0
 20
30.1999999999999957
 10
206.0
 20
36.9999999999999929
 10
211.5600000000000023
 20
36.9999999999999929
 10
211.5600000000000023
 20
39.9999999999999929
 10
217.1100000000000136
 20
39.9999999999999929
 10
217.1100000000000136
 20
36.9999999999999929
 10
222.6700000000000159
 20
36.9999999999999929
 10
222.6700000000000159
 20
39.9999999999999929
 10
228.2199999999999989
 20
39.9999999999999929
 10
228.2199999999999989
 20
36.9999999999999929
 10
233.7800000000000011
 20
36.9999999999999929
 10
233.7800000000000011
 20
39.9999999999999929
 10
239.3299999999999841
 20
39.9999999999999929
 10
239.3299999999999841
 20
36.9999999999999929
 10
244.8899999999999864
 20
36.9999999999999929
 10
244.8899999999999864
 20
39.9999999999999929
 10
250.4399999999999977
 20
39.9999999999999929
 10
250.4399999999999977
 20
36.9999999999999929
 10
256.0
 20
36.9999999999999929
 10
256.0
 20
30.1999999999999957
 10
253.0
 20
30.1999999999999957
 10
253.0
 20
23.3999999999999986
 10
256.0
 20
23.3999999999999986
 10
256.0
 20
16.5999999999999872
 10
253.0
 20
16.5999999999999872
 10
253.0
 20
9.7999999999999901
 10
256.0
 20
9.7999999999999901
 10
256.0
 20
2.9999999999999929
 10
250.4399999999999977
 20
2.9999999999999929
 10
250.4399999999999977
 20
-0.0000000000000071
 10
244.8899999999999864
 20
-0.0000000000000071
 10
244.8899999999999864
 20
2.9999999999999929
 10
239.3299999999999841
 20
2.9999999999999929
 10
239.3299999999999841
 20
-0.0000000000000071
 10
233.7800000000000011
 20
-0.0000000000000071
 10
233.7800000000000011
 20
2.9999999999999929
 10
228.2199999999999989
 20
2.9999999999999929
 10
228.2199999999999989
 20
-0.0000000000000071
 10
222.6700000000000159
 20
-0.0000000000000071
 10
222.6700000000000159
 20
2.9999999999999929
 10
217.1100000000000136
 20
2.9999999999999929
 10
217.1100000000000136
 20
-0.0000000000000071
 10
211.5600000000000023
 20
-0.0000000000000071
 10
211.5600000000000023
 20
2.9999999999999929
 10
206.0
 20
2.9999999999999929
  0
LWPOLYLINE
  5
69
100
AcDbEntity
  8
1
 62
256
370
-1
 48
1.0
  6
BYLAYER
100
AcDbPolyline
 90
5
 70
0
 10
217.1100000000000136
 20
8.9999999999999787
 10
222.6700000000000159
 20
8.9999999999999787
 10
222.6700000000000159
 20
11.9999999999999787
 10
217.1100000000000136
 20
11.9999999999999787
 10
217.1100000000000136
 20
8.9999999999999787
  0
LWPOLYLINE
  5
6A
100
AcDbEntity
  8
1
 62
256
370
-1
 48
1.0
  6
BYLAYER
100
AcDbPolyline
 90
5
 70
0
 10
228.2199999999999989
 20
8.9999999999999787
 10
233.7800000000000011
 20
8.9999999999999787
 10
233.7800000000000011
 20
11.9999999999999787
 10
228.2199999999999989
 20
11.9999999999999787
 10
228.2199999999999989
 20
8.9999999999999787
  0
LWPOLYLINE
  5
6B
100
AcDbEntity
  8
1
 62
256
370
-1
 48
1.0
  6
BYLAYER
100
AcDbPolyline
 90
5
 70
0
 10
239.3299999999999841
 20
8.9999999999999787
 10
244.8899999999999864
 20
8.9999999999999787
 10
244.8899999999999864
 20
11.9999999999999787
 10
239.3299999999999841
 20
11.9999999999999787
 10
239.3299999999999841
 20
8.9999999999999787
  0
LWPOLYLINE
  5
6C
100
AcDbEntity
  8
1
 62
256
370
-1
 48
1.0
  6
BYLAYER
100
AcDbPolyline
 90
53
 70
0
 10
256.0
 20
56.0
 10
256.0
 20
62.7999999999999972
 10
253.0
 20
62.7999999999999972
 10
253.0
 20
69.5999999999999943
 10
256.0
 20
69.5999999999999943
 10
256.0
 20
76.4000000000000057
 10
253.0
 20
76.4000000000000057
 10
253.0
 20
83.2000000000000028
 10
256.0
 20
83.2000000000000028
 10
256.0
 20
90.0
 10
250.4399999999999977
 20
90.0
 10
250.4399999999999977
 20
93.0
 10
244.8899999999999864
 20
93.0
 10
244.8899999999999864
 20
90.0
 10
239.3300000000000125
 20
90.0
 10
239.3300000000000125
 20
93.0
 10
233.7800000000000011
 20
93.0
 10
233.7800000000000011
 20
90.0
 10
228.2199999999999989
 20
90.0
 10
228.2199999999999989
 20
93.0
 10
222.6699999999999875
 20
93.0
 10
222.6699999999999875
 20
90.0
 10
217.1100000000000136
 20
90.0
 10
217.1100000000000136
 20
93.0
 10
211.5600000000000023
 20
93.0
 10
211.5600000000000023
 20
90.0
 10
206.0
 20
90.0
 10
206.0
 20
83.2000000000000028
 10
209.0
 20
83.2000000000000028
 10
209.0
 20
76.4000000000000057
 10
206.0
 20
76.4000000000000057
 10
206.0
 20
69.5999999999999943
 10
209.0
 20
69.5999999999999943
 10
209.0
 20
62.7999999999999972
 10
206.0
 20
62.7999999999999972
 10
206.0
 20
56.0
 10
211.5600000000000023
 20
56.0
 10
211.5600000000000023
 20
53.0
 10
217.1100000000000136
 20
53.0
 10
217.1100000000000136
 20
56.0
 10
222.6699999999999875
 20
56.0
 10
222.6699999999999875
 20
53.0
 10
228.2199999999999989
 20
53.0
 10
228.2199999999999989
 20
56.0
 10
233.7800000000000011
 20
56.0
 10
233.7800000000000011
 20
53.0
 10
239.3300000000000125
 20
53.0
 10
239.3300000000000125
 20
56.0
 10
244.8899999999999864
 20
56.0
 10
244.8899999999999864
 20
53.0
 10
250.4399999999999977
 20
53.0
 10
250.4399999999999977
 20
56.0
 10
256.0
 20
56.0
  0
LWPOLYLINE
  5
6D
100
AcDbEntity
  8
1
 62
256
370
-1
 48
1.0
  6
BYLAYER
100
AcDbPolyline
 90
5
 70
0
 10
244.8899999999999864
 20
62.0
 10
239.3300000000000125
 20
62.0
 10
239.3300000000000125
 20
65.0
 10
244.8899999999999864
 20
65.0
 10
244.8899999999999864
 20
62.0
  0
LWPOLYLINE
  5
6E
100
AcDbEntity
  8
1
 62
256
370
-1
 48
1.0
  6
BYLAYER
100
AcDbPolyline
 90
5
 70
0
 10
233.7800000000000011
 20
62.0
 10
228.2199999999999989
 20
62.0
 10
228.2199999999999989
 20
65.0
 10
233.7800000000000011
 20
65.0
 10
233.7800000000000011
 20
62.0
  0
LWPOLYLINE
  5
6F
100
AcDbEntity
  8
1
 62
256
370
-1
 48
1.0
  6
BYLAYER
100
AcDbPolyline
 90
5
 70
0
 10
222.6699999999999875
 20
62.0
 10
217.1100000000000136
 20
62.0
 10
217.1100000000000136
 20
65.0
 10
222.6699999999999875
 20
65.0
 10
222.6699999999999875
 20
62.0
  0
LWPOLYLINE
  5
70
100
AcDbEntity
  8
1
 62
256
370
-1
 48
1.0
  6
BYLAYER
100
AcDbPolyline
 90
109
 70
0
 10
56.0
 20
152.0
 10
62.259999999999998
 20
152.0
 10
62.259999999999998
 20
149.0
 10
68.519999999999996
 20
149.0
 10
68.519999999999996
 20
152.0
 10
74.7800000000000011
 20
152.0
 10
74.7800000000000011
 20
149.0
 10
81.0400000000000063
 20
149.0
 10
81.0400000000000063
 20
152.0
 10
87.2999999999999972
 20
152.0
 10
87.2999999999999972
 20
149.0
 10
93.5600000000000023
 20
149.0
 10
93.5600000000000023
 20
152.0
 10
99.8299999999999983
 20
152.0
 10
99.8299999999999983
 20
149.0
 10
106.0900000000000034
 20
149.0
 10
106.0900000000000034
 20
152.0
 10
112.3499999999999943
 20
152.0
 10
112.3499999999999943
 20
149.0
 10
118.6099999999999994
 20
149.0
 10
118.6099999999999994
 20
152.0
 10
124.8700000000000045
 20
152.0
 10
124.8700000000000045
 20
149.0
 10
131.1299999999999955
 20
149.0
 10
131.1299999999999955
 20
152.0
 10
137.3899999999999864
 20
152.0
 10
137.3899999999999864
 20
149.0
 10
143.6500000000000057
 20
149.0
 10
143.6500000000000057
 20
152.0
 10
149.9099999999999966
 20
152.0
 10
149.9099999999999966
 20
149.0
 10
156.1699999999999875
 20
149.0
 10
156.1699999999999875
 20
152.0
 10
162.4399999999999977
 20
152.0
 10
162.4399999999999977
 20
149.0
 10
168.6999999999999886
 20
149.0
 10
168.6999999999999886
 20
152.0
 10
174.960000000000008
 20
152.0
 10
174.960000000000008
 20
149.0
 10
181.2199999999999989
 20
149.0
 10
181.2199999999999989
 20
152.0
 10
187.4799999999999898
 20
152.0
 10
187.4799999999999898
 20
149.0
 10
193.7400000000000091
 20
149.0
 10
193.7400000000000091
 20
152.0
 10
200.0
 20
152.0
 10
200.0
 20
158.8000000000000114
 10
203.0
 20
158.8000000000000114
 10
203.0
 20
165.5999999999999943
 10
200.0
 20
165.5999999999999943
 10
200.0
 20
172.4000000000000057
 10
203.0
 20
172.4000000000000057
 10
203.0
 20
179.1999999999999886
 10
200.0
 20
179.1999999999999886
 10
200.0
 20
186.0
 10
193.7400000000000091
 20
186.0
 10
193.7400000000000091
 20
189.0
 10
187.4799999999999898
 20
189.0
 10
187.4799999999999898
 20
186.0
 10
181.2199999999999989
 20
186.0
 10
181.2199999999999989
 20
189.0
 10
174.960000000000008
 20
189.0
 10
174.960000000000008
 20
186.0
 10
168.6999999999999886
 20
186.0
 10
168.6999999999999886
 20
189.0
 10
162.4399999999999977
 20
189.0
 10
162.4399999999999977
 20
186.0
 10
156.1699999999999875
 20
186.0
 10
156.1699999999999875
 20
189.0
 10
149.9099999999999966
 20
189.0
 10
149.9099999999999966
 20
186.0
 10
143.6500000000000057
 20
186.0
 10
143.6500000000000057
 20
189.0
 10
137.3899999999999864
 20
189.0
 10
137.3899999999999864
 20
186.0
 10
131.1299999999999955
 20
186.0
 10
131.1299999999999955
 20
189.0
 10
124.8700000000000045
 20
189.0
 10
124.8700000000000045
 20
186.0
 10
118.6099999999999994
 20
186.0
 10
118.6099999999999994
 20
189.0
 10
112.3499999999999943
 20
189.0
 10
112.3499999999999943
 20
186.0
 10
106.0900000000000034
 20
186.0
 10
106.0900000000000034
 20
189.0
 10
99.8299999999999983
 20
189.0
 10
99.8299999999999983
 20
186.0
 10
93.5600000000000023
 20
186.0
 10
93.5600000000000023
 20
189.0
 10
87.2999999999999972
 20
189.0
 10
87.2999999999999972
 20
186.0
 10
81.0400000000000063
 20
186.0
 10
81.0400000000000063
 20
189.0
 10
74.7800000000000011
 20
189.0
 10
74.7800000000000011
 20
186.0
 10
68.519999999999996
 20
186.0
 10
68.519999999999996
 20
189.0
 10
62.259999999999998
 20
189.0
 10
62.259999999999998
 20
186.0
 10
56.0
 20
186.0
 10
56.0
 20
179.1999999999999886
 10
53.0
 20
179.1999999999999886
 10
53.0
 20
172.4000000000000057
 10
56.0
 20
172.4000000000000057
 10
56.0
 20
165.5999999999999943
 10
53.0
 20
165.5999999999999943
 10
53.0
 20
158.8000000000000114
 10
56.0
 20
158.8000000000000114
 10
56.0
 20
152.0
  0
LWPOLYLINE
  5
71
100
AcDbEntity
  8
1
 62
256
370
-1
 48
1.0
  6
BYLAYER
100
AcDbPolyline
 90
5
 70
0
 10
65.0
 20
158.0
 10
71.0
 20
158.0
 10
71.0
 20
161.0
 10
65.0
 20
161.0
 10
65.0
 20
158.0
  0
LWPOLYLINE
  5
72
100
AcDbEntity
  8
1
 62
256
370
-1
 48
1.0
  6
BYLAYER
100
AcDbPolyline
 90
5
 70
0
 10
77.0
 20
158.0
 10
83.0
 20
158.0
 10
83.0
 20
161.0
 10
77.0
 20
161.0
 10
77.0
 20
158.0
  0
LWPOLYLINE
  5
73
100
AcDbEntity
  8
1
 62
256
370
-1
 48
1.0
  6
BYLAYER
100
AcDbPolyline
 90
5
 70
0
 10
89.0
 20
158.0
 10
95.0
 20
158.0
 10
95.0
 20
161.0
 10
89.0
 20
161.0
 10
89.0
 20
158.0
  0
LWPOLYLINE
  5
74
100
AcDbEntity
  8
1
 62
256
370
-1
 48
1.0
  6
BYLAYER
100
AcDbPolyline
 90
5
 70
0
 10
101.0
 20
158.0
 10
107.0
 20
158.0
 10
107.0
 20
161.0
 10
101.0
 20
161.0
 10
101.0
 20
158.0
  0
LWPOLYLINE
  5
75
100
AcDbEntity
  8
1
 62
256
370
-1
 48
1.0
  6
BYLAYER
100
AcDbPolyline
 90
5
 70
0
 10
113.0
 20
158.0
 10
119.0
 20
158.0
 10
119.0
 20
161.0
 10
113.0
 20
161.0
 10
113.0
 20
158.0
  0
LWPOLYLINE
  5
76
100
AcDbEntity
  8
1
 62
256
370
-1
 48
1.0
  6
BYLAYER
100
AcDbPolyline
 90
5
 70
0
 10
125.0
 20
158.0
 10
131.0
 20
158.0
 10
131.0
 20
161.0
 10
125.0
 20
161.0
 10
125.0
 20
158.0
  0
LWPOLYLINE
  5
77
100
AcDbEntity
  8
1
 62
256
370
-1
 48
1.0
  6
BYLAYER
100
AcDbPolyline
 90
5
 70
0
 10
137.0
 20
158.0
 10
143.0
 20
158.0
 10
143.0
 20
161.0
 10
137.0
 20
161.0
 10
137.0
 20
158.0
  0
LWPOLYLINE
  5
78
100
AcDbEntity
  8
1
 62
256
370
-1
 48
1.0
  6
BYLAYER
100
AcDbPolyline
 90
5
 70
0
 10
149.0
 20
158.0
 10
155.0
 20
158.0
 10
155.0
 20
161.0
 10
149.0
 20
161.0
 10
149.0
 20
158.0
  0
LWPOLYLINE
  5
79
100
AcDbEntity
  8
1
 62
256
370
-1
 48
1.0
  6
BYLAYER
100
AcDbPolyline
 90
5
 70
0
 10
161.0
 20
158.0
 10
167.0
 20
158.0
 10
167.0
 20
161.0
 10
161.0
 20
161.0
 10
161.0
 20
158.0
  0
LWPOLYLINE
  5
7A
100
AcDbEntity
  8
1
 62
256
370
-1
 48
1.0
  6
BYLAYER
100
AcDbPolyline
 90
5
 70
0
 10
173.0
 20
158.0
 10
179.0
 20
158.0
 10
179.0
 20
161.0
 10
173.0
 20
161.0
 10
173.0
 20
158.0
  0
LWPOLYLINE
  5
7B
100
AcDbEntity
  8
1
 62
256
370
-1
 48
1.0
  6
BYLAYER
100
AcDbPolyline
 90
5
 70
0
 10
185.0
 20
158.0
 10
191.0
 20
158.0
 10
191.0
 20
161.0
 10
185.0
 20
161.0
 10
185.0
 20
158.0
  0
LINE
  5
7C
100
AcDbEntity
  8
1
 62
256
370
-1
 48
1.0
  6
BYLAYER
100
AcDbLine
 10
63.9999999999999858
 20
9.0
 30
0.0
 11
192.0
 21
9.0
 31
0.0
  0
LWPOLYLINE
  5
7D
100
AcDbEntity
  8
1
 62
256
370
-1
 48
1.0
  6
BYLAYER
100
AcDbPolyline
 90
125
 70
0
 10
47.0
 20
2.9999999999999645
 10
47.0
 20
6.0000000000000071
 10
47.0
 20
12.0000000000000071
 10
50.0
 20
12.0
 10
50.0
 20
17.9999999999999716
 10
47.0
 20
18.0
 10
47.0
 20
23.9999999999999858
 10
50.0
 20
23.9999999999999858
 10
50.0
 20
29.9999999999999858
 10
47.0
 20
30.0000000000000142
 10
47.0
 20
35.9999999999999574
 10
50.0
 20
35.9999999999999716
 10
50.0
 20
41.9999999999999716
 10
47.0
 20
41.9999999999999716
 10
47.0
 20
48.0
 10
50.0
 20
48.0
 10
50.0
 20
54.0
 10
47.0
 20
54.0
 10
47.0
 20
59.9999999999999858
 10
50.0
 20
60.0
 10
50.0
 20
65.9999999999999858
 10
47.0000000000000568
 20
65.9999999999999574
 10
47.0
 20
72.0
 10
50.0000000000000568
 20
71.9999999999999716
 10
50.0
 20
77.9999999999999858
 10
47.0
 20
78.0
 10
47.0
 20
84.0
 10
50.0
 20
84.0
 10
50.0
 20
90.0
 10
47.0
 20
90.0
 10
47.0
 20
96.0
 10
50.0
 20
96.0
 10
50.0000000000000568
 20
101.9999999999999716
 10
47.0000000000000568
 20
101.9999999999999432
 10
47.0
 20
108.0
 10
50.0
 20
108.0
 10
50.0
 20
114.0
 10
47.0000000000000568
 20
113.9999999999999432
 10
47.0
 20
120.0
 10
50.0000000000000568
 20
119.9999999999999716
 10
50.0
 20
126.0
 10
47.0000000000001137
 20
125.9999999999999716
 10
47.0
 20
132.0
 10
50.0000000000000568
 20
132.0
 10
50.0000000000000568
 20
137.9999999999999716
 10
47.0
 20
138.0
 10
47.0000000000000568
 20
143.9999999999999716
 10
47.0
 20
147.0
 10
44.4399999999999977
 20
147.0
 10
38.8900000000001
 20
146.9999999999999716
 10
38.8900000000001
 20
149.9999999999999716
 10
33.3300000000000409
 20
149.9999999999999716
 10
33.3299999999999841
 20
147.0
 10
27.7799999999999159
 20
147.0
 10
27.7800000000001432
 20
150.0
 10
22.2199999999999704
 20
150.0
 10
22.2199999999999136
 20
147.0
 10
16.6700000000001864
 20
147.0
 10
16.6700000000000728
 20
150.0
 10
11.1100000000001273
 20
150.0
 10
11.1100000000000136
 20
147.0
 10
5.5600000000004002
 20
147.0
 10
3.0000000000001705
 20
147.0
 10
3.0000000000008527
 20
144.0
 10
2.9999999999999432
 20
138.0
 10
0.0
 20
138.0
 10
0.0
 20
132.0
 10
3.0000000000003979
 20
132.0
 10
3.0000000000001137
 20
126.0
 10
0.0
 20
126.0
 10
0.0
 20
120.0
 10
3.0000000000003979
 20
120.0
 10
2.9999999999998295
 20
114.0
 10
0.0
 20
114.0
 10
0.0
 20
108.0
 10
3.0
 20
108.0
 10
3.0
 20
102.0
 10
0.0
 20
102.0
 10
0.0
 20
96.0
 10
3.0
 20
96.0
 10
3.0000000000000568
 20
90.0
 10
0.0
 20
90.0
 10
0.0
 20
84.0
 10
3.0
 20
84.0
 10
2.9999999999997726
 20
78.0
 10
0.0
 20
78.0
 10
0.0
 20
72.0
 10
2.9999999999999432
 20
72.0
 10
2.9999999999998295
 20
66.0
 10
0.0
 20
66.0
 10
0.0
 20
60.0
 10
3.0000000000000568
 20
60.0
 10
2.9999999999999432
 20
54.0
 10
0.0
 20
54.0
 10
0.0
 20
48.0
 10
3.0
 20
48.0
 10
3.0
 20
42.0
 10
0.0
 20
42.0
 10
0.0
 20
36.0
 10
3.0
 20
36.0
 10
3.0
 20
30.0
 10
0.0
 20
30.0
 10
0.0
 20
24.0
 10
3.0
 20
24.0
 10
3.0
 20
18.0
 10
0.0
 20
18.0
 10
0.0
 20
12.0
 10
3.0
 20
12.0
 10
3.0
 20
6.0
 10
3.0
 20
3.0
 10
5.5600000000000023
 20
3.0
 10
11.1100000000000136
 20
2.9999999999999929
 10
11.1100000000000136
 20
0.0
 10
16.6700000000000159
 20
-0.0000000000000071
 10
16.6700000000000159
 20
3.0
 10
22.2200000000000273
 20
3.0
 10
22.2200000000000273
 20
-0.0000000000000071
 10
27.7799999999999727
 20
-0.0000000000000071
 10
27.7799999999999727
 20
2.9999999999999858
 10
33.3299999999999841
 20
3.0
 10
33.3299999999999841
 20
-0.0000000000000071
 10
38.8899999999999864
 20
-0.0000000000000071
 10
38.8899999999999864
 20
2.9999999999999787
 10
44.4399999999999977
 20
2.9999999999999929
 10
47.0
 20
2.9999999999999645
  0
LINE
  5
7E
100
AcDbEntity
  8
1
 62
256
370
-1
 48
1.0
  6
BYLAYER
100
AcDbLine
 10
192.0
 20
41.0
 30
0.0
 11
64.0
 21
41.0
 31
0.0
  0
LINE
  5
7F
100
AcDbEntity
  8
2
 62
256
370
-1
 48
1.0
  6
BYLAYER
100
AcDbLine
 10
256.0
 20
62.0
 30
0.0
 11
0.0
 21
62.0
 31
0.0
  0
LINE
  5
80
100
AcDbEntity
  8
2
 62
256
370
-1
 48
1.0
  6
BYLAYER
100
AcDbLine
 10
11.1099999999999959
 20
21.5
 30
0.0
 11
11.110000000000003
 21
121.5
 31
0.0
  0
LINE
  5
81
100
AcDbEntity
  8
2
 62
256
370
-1
 48
1.0
  6
BYLAYER
100
AcDbLine
 10
244.8899999999999864
 20
21.5
 30
0.0
 11
244.8899999999999864
 21
121.5
 31
0.0
  0
LINE
  5
82
100
AcDbEntity
  8
2
 62
256
370
-1
 48
1.0
  6
BYLAYER
100
AcDbLine
 10
65.0
 20
21.5
 30
0.0
 11
65.0
 21
121.5
 31
0.0
  0
LINE
  5
83
100
AcDbEntity
  8
2
 62
256
370
-1
 48
1.0
  6
BYLAYER
100
AcDbLine
 10
65.0
 20
117.5
 30
0.0
 11
65.0
 21
217.5
 31
0.0
  0
LINE
  5
84
100
AcDbEntity
  8
3
 62
256
370
-1
 48
1.0
  6
BYLAYER
100
AcDbLine
 10
31.5
 20
135.9999999999999716
 30
0.0
 11
31.4999999999999432
 21
139.0
 31
0.0
  0
LINE
  5
85
100
AcDbEntity
  8
3
 62
256
370
-1
 48
1.0
  6
BYLAYER
100
AcDbLine
 10
31.5
 20
106.5
 30
0.0
 11
31.5
 21
112.5
 31
0.0
  0
LINE
  5
86
100
AcDbEntity
  8
3
 62
256
370
-1
 48
1.0
  6
BYLAYER
100
AcDbLine
 10
31.5000000000000568
 20
71.9999999999999858
 30
0.0
 11
31.5
 21
77.9999999999999858
 31
0.0
  0
LINE
  5
87
100
AcDbEntity
  8
3
 62
256
370
-1
 48
1.0
  6
BYLAYER
100
AcDbLine
 10
31.5
 20
10.9999999999999858
 30
0.0
 11
31.5
 21
13.9999999999999929
 31
0.0
  0
LINE
  5
88
100
AcDbEntity
  8
3
 62
256
370
-1
 48
1.0
  6
BYLAYER
100
AcDbLine
 10
31.5
 20
37.5
 30
0.0
 11
31.5
 21
43.4999999999999716
 31
0.0
  0
LINE
  5
89
100
AcDbEntity
  8
3
 62
256
370
-1
 48
1.0
  6
BYLAYER
100
AcDbLine
 10
31.4999999999999432
 20
139.0
 30
0.0
 11
18.4999999999998863
 21
139.0
 31
0.0
  0
LINE
  5
8A
100
AcDbEntity
  8
3
 62
256
370
-1
 48
1.0
  6
BYLAYER
100
AcDbLine
 10
18.5
 20
13.9999999999999858
 30
0.0
 11
18.5
 21
10.9999999999999929
 31
0.0
  0
LINE
  5
8B
100
AcDbEntity
  8
3
 62
256
370
-1
 48
1.0
  6
BYLAYER
100
AcDbLine
 10
18.5
 20
43.5
 30
0.0
 11
18.5
 21
37.5
 31
0.0
  0
LINE
  5
8C
100
AcDbEntity
  8
3
 62
256
370
-1
 48
1.0
  6
BYLAYER
100
AcDbLine
 10
18.4999999999999432
 20
78.0
 30
0.0
 11
18.5
 21
72.0
 31
0.0
  0
LINE
  5
8D
100
AcDbEntity
  8
3
 62
256
370
-1
 48
1.0
  6
BYLAYER
100
AcDbLine
 10
18.4999999999998863
 20
139.0
 30
0.0
 11
18.5000000000001137
 21
135.9999999999999716
 31
0.0
  0
LINE
  5
8E
100
AcDbEntity
  8
3
 62
256
370
-1
 48
1.0
  6
BYLAYER
100
AcDbLine
 10
18.5
 20
112.5
 30
0.0
 11
18.5
 21
106.5
 31
0.0
  0
LINE
  5
8F
100
AcDbEntity
  8
3
 62
256
370
-1
 48
1.0
  6
BYLAYER
100
AcDbLine
 10
18.5
 20
10.9999999999999929
 30
0.0
 11
31.5
 21
10.9999999999999858
 31
0.0
  0
LINE
  5
90
100
AcDbEntity
  8
3
 62
256
370
-1
 48
1.0
  6
BYLAYER
100
AcDbLine
 10
18.5
 20
37.5
 30
0.0
 11
31.5000000000000568
 21
37.4999999999999716
 31
0.0
  0
LINE
  5
91
100
AcDbEntity
  8
3
 62
256
370
-1
 48
1.0
  6
BYLAYER
100
AcDbLine
 10
31.5
 20
112.5
 30
0.0
 11
18.5
 21
112.5
 31
0.0
  0
LINE
  5
92
100
AcDbEntity
  8
3
 62
256
370
-1
 48
1.0
  6
BYLAYER
100
AcDbLine
 10
18.5
 20
43.5
 30
0.0
 11
31.5000000000000568
 21
43.4999999999999858
 31
0.0
  0
LINE
  5
93
100
AcDbEntity
  8
3
 62
256
370
-1
 48
1.0
  6
BYLAYER
100
AcDbLine
 10
31.5
 20
106.5
 30
0.0
 11
18.5
 21
106.5
 31
0.0
  0
LINE
  5
94
100
AcDbEntity
  8
3
 62
256
370
-1
 48
1.0
  6
BYLAYER
100
AcDbLine
 10
18.5000000000000568
 20
72.0
 30
0.0
 11
31.5000000000000568
 21
71.9999999999999858
 31
0.0
  0
LINE
  5
95
100
AcDbEntity
  8
3
 62
256
370
-1
 48
1.0
  6
BYLAYER
100
AcDbLine
 10
18.5000000000000568
 20
78.0
 30
0.0
 11
31.5
 21
78.0
 31
0.0
  0
LINE
  5
96
100
AcDbEntity
  8
3
 62
256
370
-1
 48
1.0
  6
BYLAYER
100
AcDbLine
 10
18.5
 20
13.9999999999999858
 30
0.0
 11
31.5
 21
13.9999999999999929
 31
0.0
  0
LINE
  5
97
100
AcDbEntity
  8
3
 62
256
370
-1
 48
1.0
  6
BYLAYER
100
AcDbLine
 10
31.5
 20
135.9999999999999716
 30
0.0
 11
18.5000000000001137
 21
135.9999999999999716
 31
0.0
  0
LINE
  5
98
100
AcDbEntity
  8
3
 62
256
370
-1
 48
1.0
  6
BYLAYER
100
AcDbLine
 10
36.0
 20
33.4999999999999716
 30
0.0
 11
36.0
 21
18.0
 31
0.0
  0
LINE
  5
99
100
AcDbEntity
  8
3
 62
256
370
-1
 48
1.0
  6
BYLAYER
100
AcDbLine
 10
36.0
 20
67.9999999999999858
 30
0.0
 11
36.0
 21
47.4999999999999858
 31
0.0
  0
LINE
  5
9A
100
AcDbEntity
  8
3
 62
256
370
-1
 48
1.0
  6
BYLAYER
100
AcDbLine
 10
36.0000000000000568
 20
102.4999999999999716
 30
0.0
 11
36.0000000000000568
 21
81.9999999999999716
 31
0.0
  0
LINE
  5
9B
100
AcDbEntity
  8
3
 62
256
370
-1
 48
1.0
  6
BYLAYER
100
AcDbLine
 10
36.0000000000001137
 20
132.0
 30
0.0
 11
36.0
 21
116.5
 31
0.0
  0
LINE
  5
9C
100
AcDbEntity
  8
3
 62
256
370
-1
 48
1.0
  6
BYLAYER
100
AcDbLine
 10
14.0
 20
18.0
 30
0.0
 11
14.0
 21
33.5
 31
0.0
  0
LINE
  5
9D
100
AcDbEntity
  8
3
 62
256
370
-1
 48
1.0
  6
BYLAYER
100
AcDbLine
 10
14.0
 20
47.5
 30
0.0
 11
14.0000000000000568
 21
68.0
 31
0.0
  0
LINE
  5
9E
100
AcDbEntity
  8
3
 62
256
370
-1
 48
1.0
  6
BYLAYER
100
AcDbLine
 10
14.0000000000000568
 20
82.0
 30
0.0
 11
14.0000000000000568
 21
102.5
 31
0.0
  0
LINE
  5
9F
100
AcDbEntity
  8
3
 62
256
370
-1
 48
1.0
  6
BYLAYER
100
AcDbLine
 10
14.0000000000000568
 20
116.5
 30
0.0
 11
14.0000000000001137
 21
131.9999999999999716
 31
0.0
  0
LINE
  5
A0
100
AcDbEntity
  8
3
 62
256
370
-1
 48
1.0
  6
BYLAYER
100
AcDbLine
 10
12.0
 20
18.0
 30
0.0
 11
14.0
 21
18.0
 31
0.0
  0
LINE
  5
A1
100
AcDbEntity
  8
3
 62
256
370
-1
 48
1.0
  6
BYLAYER
100
AcDbLine
 10
36.0
 20
18.0
 30
0.0
 11
38.0
 21
17.9999999999999858
 31
0.0
  0
LINE
  5
A2
100
AcDbEntity
  8
3
 62
256
370
-1
 48
1.0
  6
BYLAYER
100
AcDbLine
 10
12.0
 20
33.5
 30
0.0
 11
14.0
 21
33.5
 31
0.0
  0
LINE
  5
A3
100
AcDbEntity
  8
3
 62
256
370
-1
 48
1.0
  6
BYLAYER
100
AcDbLine
 10
36.0
 20
33.4999999999999716
 30
0.0
 11
38.0
 21
33.5
 31
0.0
  0
LINE
  5
A4
100
AcDbEntity
  8
3
 62
256
370
-1
 48
1.0
  6
BYLAYER
100
AcDbLine
 10
12.0000000000000568
 20
47.5
 30
0.0
 11
14.0
 21
47.5
 31
0.0
  0
LINE
  5
A5
100
AcDbEntity
  8
3
 62
256
370
-1
 48
1.0
  6
BYLAYER
100
AcDbLine
 10
36.0
 20
47.4999999999999858
 30
0.0
 11
38.0
 21
47.5
 31
0.0
  0
LINE
  5
A6
100
AcDbEntity
  8
3
 62
256
370
-1
 48
1.0
  6
BYLAYER
100
AcDbLine
 10
12.0
 20
68.0
 30
0.0
 11
14.0000000000000568
 21
68.0
 31
0.0
  0
LINE
  5
A7
100
AcDbEntity
  8
3
 62
256
370
-1
 48
1.0
  6
BYLAYER
100
AcDbLine
 10
36.0
 20
67.9999999999999858
 30
0.0
 11
38.0
 21
68.0
 31
0.0
  0
LINE
  5
A8
100
AcDbEntity
  8
3
 62
256
370
-1
 48
1.0
  6
BYLAYER
100
AcDbLine
 10
12.0
 20
82.0
 30
0.0
 11
14.0000000000000568
 21
82.0
 31
0.0
  0
LINE
  5
A9
100
AcDbEntity
  8
3
 62
256
370
-1
 48
1.0
  6
BYLAYER
100
AcDbLine
 10
36.0000000000000568
 20
81.9999999999999716
 30
0.0
 11
38.0
 21
82.0
 31
0.0
  0
LINE
  5
AA
100
AcDbEntity
  8
3
 62
256
370
-1
 48
1.0
  6
BYLAYER
100
AcDbLine
 10
38.0
 20
102.5
 30
0.0
 11
36.0000000000000568
 21
102.4999999999999716
 31
0.0
  0
LINE
  5
AB
100
AcDbEntity
  8
3
 62
256
370
-1
 48
1.0
  6
BYLAYER
100
AcDbLine
 10
14.0000000000000568
 20
102.5
 30
0.0
 11
12.0
 21
102.5
 31
0.0
  0
LINE
  5
AC
100
AcDbEntity
  8
3
 62
256
370
-1
 48
1.0
  6
BYLAYER
100
AcDbLine
 10
38.0000000000000568
 20
116.5
 30
0.0
 11
36.0
 21
116.5
 31
0.0
  0
LINE
  5
AD
100
AcDbEntity
  8
3
 62
256
370
-1
 48
1.0
  6
BYLAYER
100
AcDbLine
 10
14.0000000000000568
 20
116.5
 30
0.0
 11
12.0000000000001705
 21
116.5
 31
0.0
  0
LINE
  5
AE
100
AcDbEntity
  8
3
 62
256
370
-1
 48
1.0
  6
BYLAYER
100
AcDbLine
 10
38.0000000000001137
 20
131.9999999999999716
 30
0.0
 11
36.0000000000001137
 21
132.0
 31
0.0
  0
LINE
  5
AF
100
AcDbEntity
  8
3
 62
256
370
-1
 48
1.0
  6
BYLAYER
100
AcDbLine
 10
14.0000000000001137
 20
131.9999999999999716
 30
0.0
 11
12.0000000000000568
 21
132.0
 31
0.0
  0
LINE
  5
B0
100
AcDbEntity
  8
3
 62
256
370
-1
 48
1.0
  6
BYLAYER
100
AcDbLine
 10
38.0
 20
33.5
 30
0.0
 11
38.0
 21
17.9999999999999858
 31
0.0
  0
LINE
  5
B1
100
AcDbEntity
  8
3
 62
256
370
-1
 48
1.0
  6
BYLAYER
100
AcDbLine
 10
38.0
 20
68.0
 30
0.0
 11
38.0
 21
47.5
 31
0.0
  0
LINE
  5
B2
100
AcDbEntity
  8
3
 62
256
370
-1
 48
1.0
  6
BYLAYER
100
AcDbLine
 10
38.0
 20
102.5
 30
0.0
 11
38.0
 21
82.0
 31
0.0
  0
LINE
  5
B3
100
AcDbEntity
  8
3
 62
256
370
-1
 48
1.0
  6
BYLAYER
100
AcDbLine
 10
38.0000000000001137
 20
131.9999999999999716
 30
0.0
 11
38.0000000000000568
 21
116.5
 31
0.0
  0
LINE
  5
B4
100
AcDbEntity
  8
3
 62
256
370
-1
 48
1.0
  6
BYLAYER
100
AcDbLine
 10
12.0
 20
18.0
 30
0.0
 11
12.0
 21
33.5
 31
0.0
  0
LINE
  5
B5
100
AcDbEntity
  8
3
 62
256
370
-1
 48
1.0
  6
BYLAYER
100
AcDbLine
 10
12.0000000000000568
 20
47.5
 30
0.0
 11
12.0
 21
68.0
 31
0.0
  0
LINE
  5
B6
100
AcDbEntity
  8
3
 62
256
370
-1
 48
1.0
  6
BYLAYER
100
AcDbLine
 10
12.0
 20
82.0
 30
0.0
 11
12.0
 21
102.5
 31
0.0
  0
LINE
  5
B7
100
AcDbEntity
  8
3
 62
256
370
-1
 48
1.0
  6
BYLAYER
100
AcDbLine
 10
12.0000000000001705
 20
116.5
 30
0.0
 11
12.0000000000000568
 21
132.0
 31
0.0
  0
LINE
  5
B8
100
AcDbEntity
  8
1
 62
256
370
-1
 48
1.0
  6
BYLAYER
100
AcDbLine
 10
31.1000000000000014
 20
10.9999999999999929
 30
0.0
 11
31.1000000000000014
 21
13.4999999999999858
 31
0.0
  0
LINE
  5
B9
100
AcDbEntity
  8
1
 62
256
370
-1
 48
1.0
  6
BYLAYER
100
AcDbLine
 10
31.1000000000000014
 20
13.4999999999999858
 30
0.0
 11
18.5
 21
13.4999999999999929
 31
0.0
  0
LINE
  5
BA
100
AcDbEntity
  8
1
 62
256
370
-1
 48
1.0
  6
BYLAYER
100
AcDbLine
 10
18.5
 20
13.4999999999999929
 30
0.0
 11
18.5
 21
11.0
 31
0.0
  0
LINE
  5
BB
100
AcDbEntity
  8
1
 62
256
370
-1
 48
1.0
  6
BYLAYER
100
AcDbLine
 10
18.5
 20
11.0
 30
0.0
 11
31.1000000000000014
 21
10.9999999999999929
 31
0.0
  0
LINE
  5
BC
100
AcDbEntity
  8
1
 62
256
370
-1
 48
1.0
  6
BYLAYER
100
AcDbLine
 10
31.1000000000000512
 20
135.4199999999999875
 30
0.0
 11
31.1000000000000831
 21
137.9200000000000159
 31
0.0
  0
LINE
  5
BD
100
AcDbEntity
  8
1
 62
256
370
-1
 48
1.0
  6
BYLAYER
100
AcDbLine
 10
31.1000000000000831
 20
137.9200000000000159
 30
0.0
 11
18.5000000000000391
 21
137.9200000000000159
 31
0.0
  0
LINE
  5
BE
100
AcDbEntity
  8
1
 62
256
370
-1
 48
1.0
  6
BYLAYER
100
AcDbLine
 10
18.5000000000000391
 20
137.9200000000000159
 30
0.0
 11
18.5000000000000355
 21
135.4200000000000159
 31
0.0
  0
LINE
  5
BF
100
AcDbEntity
  8
1
 62
256
370
-1
 48
1.0
  6
BYLAYER
100
AcDbLine
 10
18.5000000000000355
 20
135.4200000000000159
 30
0.0
 11
31.1000000000000512
 21
135.4199999999999875
 31
0.0
  0
LINE
  5
C0
100
AcDbEntity
  8
1
 62
256
370
-1
 48
1.0
  6
BYLAYER
100
AcDbLine
 10
31.1000000000000227
 20
39.9999999999999858
 30
0.0
 11
31.1000000000000085
 21
42.6999999999999957
 31
0.0
  0
LINE
  5
C1
100
AcDbEntity
  8
1
 62
256
370
-1
 48
1.0
  6
BYLAYER
100
AcDbLine
 10
31.1000000000000334
 20
71.7399999999999807
 30
0.0
 11
31.1000000000000192
 21
74.4399999999999977
 31
0.0
  0
LINE
  5
C2
100
AcDbEntity
  8
1
 62
256
370
-1
 48
1.0
  6
BYLAYER
100
AcDbLine
 10
31.1000000000000192
 20
103.4799999999999898
 30
0.0
 11
31.100000000000005
 21
106.1800000000000068
 31
0.0
  0
LINE
  5
C3
100
AcDbEntity
  8
1
 62
256
370
-1
 48
1.0
  6
BYLAYER
100
AcDbLine
 10
18.5000000000000071
 20
42.6999999999999957
 30
0.0
 11
18.5000000000000071
 21
39.9999999999999929
 31
0.0
  0
LINE
  5
C4
100
AcDbEntity
  8
1
 62
256
370
-1
 48
1.0
  6
BYLAYER
100
AcDbLine
 10
18.5000000000000178
 20
74.4399999999999977
 30
0.0
 11
18.5000000000000178
 21
71.7399999999999807
 31
0.0
  0
LINE
  5
C5
100
AcDbEntity
  8
1
 62
256
370
-1
 48
1.0
  6
BYLAYER
100
AcDbLine
 10
18.5000000000000036
 20
106.1800000000000068
 30
0.0
 11
18.5000000000000036
 21
103.4799999999999898
 31
0.0
  0
LINE
  5
C6
100
AcDbEntity
  8
1
 62
256
370
-1
 48
1.0
  6
BYLAYER
100
AcDbLine
 10
31.1000000000000085
 20
42.7399999999999878
 30
0.0
 11
31.0999999999999943
 21
45.4399999999999906
 31
0.0
  0
LINE
  5
C7
100
AcDbEntity
  8
1
 62
256
370
-1
 48
1.0
  6
BYLAYER
100
AcDbLine
 10
31.1000000000000192
 20
74.4799999999999898
 30
0.0
 11
31.100000000000005
 21
77.1799999999999784
 31
0.0
  0
LINE
  5
C8
100
AcDbEntity
  8
1
 62
256
370
-1
 48
1.0
  6
BYLAYER
100
AcDbLine
 10
31.100000000000005
 20
106.2199999999999989
 30
0.0
 11
31.0999999999999908
 21
108.9199999999999875
 31
0.0
  0
LINE
  5
C9
100
AcDbEntity
  8
1
 62
256
370
-1
 48
1.0
  6
BYLAYER
100
AcDbLine
 10
18.5000000000000107
 20
45.4399999999999906
 30
0.0
 11
18.5000000000000071
 21
42.7399999999999878
 31
0.0
  0
LINE
  5
CA
100
AcDbEntity
  8
1
 62
256
370
-1
 48
1.0
  6
BYLAYER
100
AcDbLine
 10
18.5000000000000213
 20
77.1799999999999784
 30
0.0
 11
18.5000000000000178
 21
74.4799999999999898
 31
0.0
  0
LINE
  5
CB
100
AcDbEntity
  8
1
 62
256
370
-1
 48
1.0
  6
BYLAYER
100
AcDbLine
 10
18.5000000000000071
 20
108.9199999999999875
 30
0.0
 11
18.5000000000000036
 21
106.2199999999999989
 31
0.0
  0
LINE
  5
CC
100
AcDbEntity
  8
1
 62
256
370
-1
 48
1.0
  6
BYLAYER
100
AcDbLine
 10
11.7500000000000853
 20
111.9100000000000108
 30
0.0
 11
14.2500000000000853
 21
111.9100000000000108
 31
0.0
  0
LINE
  5
CD
100
AcDbEntity
  8
1
 62
256
370
-1
 48
1.0
  6
BYLAYER
100
AcDbLine
 10
14.2500000000000853
 20
111.9100000000000108
 30
0.0
 11
14.2500000000000853
 21
132.2300000000000182
 31
0.0
  0
LINE
  5
CE
100
AcDbEntity
  8
1
 62
256
370
-1
 48
1.0
  6
BYLAYER
100
AcDbLine
 10
14.2500000000000853
 20
132.2300000000000182
 30
0.0
 11
11.7500000000000853
 21
132.2300000000000182
 31
0.0
  0
LINE
  5
CF
100
AcDbEntity
  8
1
 62
256
370
-1
 48
1.0
  6
BYLAYER
100
AcDbLine
 10
11.7500000000000853
 20
132.2300000000000182
 30
0.0
 11
11.7500000000000853
 21
111.9100000000000108
 31
0.0
  0
LINE
  5
D0
100
AcDbEntity
  8
1
 62
256
370
-1
 48
1.0
  6
BYLAYER
100
AcDbLine
 10
35.7500000000001137
 20
111.9100000000000108
 30
0.0
 11
38.2500000000001137
 21
111.9100000000000108
 31
0.0
  0
LINE
  5
D1
100
AcDbEntity
  8
1
 62
256
370
-1
 48
1.0
  6
BYLAYER
100
AcDbLine
 10
38.2500000000001137
 20
111.9100000000000108
 30
0.0
 11
38.2500000000001137
 21
132.2300000000000182
 31
0.0
  0
LINE
  5
D2
100
AcDbEntity
  8
1
 62
256
370
-1
 48
1.0
  6
BYLAYER
100
AcDbLine
 10
38.2500000000001137
 20
132.2300000000000182
 30
0.0
 11
35.7500000000001137
 21
132.2300000000000182
 31
0.0
  0
LINE
  5
D3
100
AcDbEntity
  8
1
 62
256
370
-1
 48
1.0
  6
BYLAYER
100
AcDbLine
 10
35.7500000000001137
 20
132.2300000000000182
 30
0.0
 11
35.7500000000001137
 21
111.9100000000000108
 31
0.0
  0
LINE
  5
D4
100
AcDbEntity
  8
1
 62
256
370
-1
 48
1.0
  6
BYLAYER
100
AcDbLine
 10
11.7500000000000817
 20
80.1699999999999875
 30
0.0
 11
14.2500000000000817
 21
80.1699999999999875
 31
0.0
  0
LINE
  5
D5
100
AcDbEntity
  8
1
 62
256
370
-1
 48
1.0
  6
BYLAYER
100
AcDbLine
 10
14.2500000000000817
 20
80.1699999999999875
 30
0.0
 11
14.2500000000000817
 21
100.4899999999999807
 31
0.0
  0
LINE
  5
D6
100
AcDbEntity
  8
1
 62
256
370
-1
 48
1.0
  6
BYLAYER
100
AcDbLine
 10
14.2500000000000817
 20
100.4899999999999807
 30
0.0
 11
11.7500000000000817
 21
100.4899999999999807
 31
0.0
  0
LINE
  5
D7
100
AcDbEntity
  8
1
 62
256
370
-1
 48
1.0
  6
BYLAYER
100
AcDbLine
 10
11.7500000000000817
 20
100.4899999999999807
 30
0.0
 11
11.7500000000000817
 21
80.1699999999999875
 31
0.0
  0
LINE
  5
D8
100
AcDbEntity
  8
1
 62
256
370
-1
 48
1.0
  6
BYLAYER
100
AcDbLine
 10
35.7500000000001137
 20
80.1700000000000017
 30
0.0
 11
38.2500000000001137
 21
80.1700000000000017
 31
0.0
  0
LINE
  5
D9
100
AcDbEntity
  8
1
 62
256
370
-1
 48
1.0
  6
BYLAYER
100
AcDbLine
 10
38.2500000000001137
 20
80.1700000000000017
 30
0.0
 11
38.2500000000001137
 21
100.4899999999999949
 31
0.0
  0
LINE
  5
DA
100
AcDbEntity
  8
1
 62
256
370
-1
 48
1.0
  6
BYLAYER
100
AcDbLine
 10
38.2500000000001137
 20
100.4899999999999949
 30
0.0
 11
35.7500000000001137
 21
100.4899999999999949
 31
0.0
  0
LINE
  5
DB
100
AcDbEntity
  8
1
 62
256
370
-1
 48
1.0
  6
BYLAYER
100
AcDbLine
 10
35.7500000000001137
 20
100.4899999999999949
 30
0.0
 11
35.7500000000001137
 21
80.1700000000000017
 31
0.0
  0
LINE
  5
DC
100
AcDbEntity
  8
1
 62
256
370
-1
 48
1.0
  6
BYLAYER
100
AcDbLine
 10
11.7500000000000817
 20
48.4299999999999784
 30
0.0
 11
14.2500000000000817
 21
48.4299999999999784
 31
0.0
  0
LINE
  5
DD
100
AcDbEntity
  8
1
 62
256
370
-1
 48
1.0
  6
BYLAYER
100
AcDbLine
 10
14.2500000000000817
 20
48.4299999999999784
 30
0.0
 11
14.2500000000000817
 21
68.7499999999999858
 31
0.0
  0
LINE
  5
DE
100
AcDbEntity
  8
1
 62
256
370
-1
 48
1.0
  6
BYLAYER
100
AcDbLine
 10
14.2500000000000817
 20
68.7499999999999858
 30
0.0
 11
11.7500000000000817
 21
68.7499999999999858
 31
0.0
  0
LINE
  5
DF
100
AcDbEntity
  8
1
 62
256
370
-1
 48
1.0
  6
BYLAYER
100
AcDbLine
 10
11.7500000000000817
 20
68.7499999999999858
 30
0.0
 11
11.7500000000000817
 21
48.4299999999999784
 31
0.0
  0
LINE
  5
E0
100
AcDbEntity
  8
1
 62
256
370
-1
 48
1.0
  6
BYLAYER
100
AcDbLine
 10
35.7500000000001137
 20
48.4300000000000068
 30
0.0
 11
38.2500000000001137
 21
48.4300000000000068
 31
0.0
  0
LINE
  5
E1
100
AcDbEntity
  8
1
 62
256
370
-1
 48
1.0
  6
BYLAYER
100
AcDbLine
 10
38.2500000000001137
 20
48.4300000000000068
 30
0.0
 11
38.2500000000001137
 21
68.75
 31
0.0
  0
LINE
  5
E2
100
AcDbEntity
  8
1
 62
256
370
-1
 48
1.0
  6
BYLAYER
100
AcDbLine
 10
38.2500000000001137
 20
68.75
 30
0.0
 11
35.7500000000001137
 21
68.75
 31
0.0
  0
LINE
  5
E3
100
AcDbEntity
  8
1
 62
256
370
-1
 48
1.0
  6
BYLAYER
100
AcDbLine
 10
35.7500000000001137
 20
68.75
 30
0.0
 11
35.7500000000001137
 21
48.4300000000000068
 31
0.0
  0
LINE
  5
E4
100
AcDbEntity
  8
1
 62
256
370
-1
 48
1.0
  6
BYLAYER
100
AcDbLine
 10
11.7500000000000782
 20
16.6899999999999871
 30
0.0
 11
14.2500000000000782
 21
16.6899999999999871
 31
0.0
  0
LINE
  5
E5
100
AcDbEntity
  8
1
 62
256
370
-1
 48
1.0
  6
BYLAYER
100
AcDbLine
 10
14.2500000000000782
 20
16.6899999999999871
 30
0.0
 11
14.2500000000000782
 21
37.0099999999999909
 31
0.0
  0
LINE
  5
E6
100
AcDbEntity
  8
1
 62
256
370
-1
 48
1.0
  6
BYLAYER
100
AcDbLine
 10
14.2500000000000782
 20
37.0099999999999909
 30
0.0
 11
11.7500000000000782
 21
37.0099999999999909
 31
0.0
  0
LINE
  5
E7
100
AcDbEntity
  8
1
 62
256
370
-1
 48
1.0
  6
BYLAYER
100
AcDbLine
 10
11.7500000000000782
 20
37.0099999999999909
 30
0.0
 11
11.7500000000000782
 21
16.6899999999999871
 31
0.0
  0
LINE
  5
E8
100
AcDbEntity
  8
1
 62
256
370
-1
 48
1.0
  6
BYLAYER
100
AcDbLine
 10
35.7500000000001137
 20
16.6899999999999906
 30
0.0
 11
38.2500000000001137
 21
16.6899999999999906
 31
0.0
  0
LINE
  5
E9
100
AcDbEntity
  8
1
 62
256
370
-1
 48
1.0
  6
BYLAYER
100
AcDbLine
 10
38.2500000000001137
 20
16.6899999999999906
 30
0.0
 11
38.2500000000001137
 21
37.0099999999999909
 31
0.0
  0
LINE
  5
EA
100
AcDbEntity
  8
1
 62
256
370
-1
 48
1.0
  6
BYLAYER
100
AcDbLine
 10
38.2500000000001137
 20
37.0099999999999909
 30
0.0
 11
35.7500000000001137
 21
37.0099999999999909
 31
0.0
  0
LINE
  5
EB
100
AcDbEntity
  8
1
 62
256
370
-1
 48
1.0
  6
BYLAYER
100
AcDbLine
 10
35.7500000000001137
 20
37.0099999999999909
 30
0.0
 11
35.7500000000001137
 21
16.6899999999999906
 31
0.0
  0
LINE
  5
EC
100
AcDbEntity
  8
1
 62
256
370
-1
 48
1.0
  6
BYLAYER
100
AcDbLine
 10
18.5000000000000071
 20
39.9999999999999929
 30
0.0
 11
31.1000000000000227
 21
39.9999999999999858
 31
0.0
  0
LINE
  5
ED
100
AcDbEntity
  8
1
 62
256
370
-1
 48
1.0
  6
BYLAYER
100
AcDbLine
 10
18.5000000000000178
 20
71.7399999999999807
 30
0.0
 11
31.1000000000000334
 21
71.7399999999999807
 31
0.0
  0
LINE
  5
EE
100
AcDbEntity
  8
1
 62
256
370
-1
 48
1.0
  6
BYLAYER
100
AcDbLine
 10
18.5000000000000036
 20
103.4799999999999898
 30
0.0
 11
31.1000000000000192
 21
103.4799999999999898
 31
0.0
  0
LINE
  5
EF
100
AcDbEntity
  8
1
 62
256
370
-1
 48
1.0
  6
BYLAYER
100
AcDbLine
 10
31.0999999999999943
 20
45.4399999999999906
 30
0.0
 11
18.5000000000000107
 21
45.4399999999999906
 31
0.0
  0
LINE
  5
F0
100
AcDbEntity
  8
1
 62
256
370
-1
 48
1.0
  6
BYLAYER
100
AcDbLine
 10
31.100000000000005
 20
77.1799999999999784
 30
0.0
 11
18.5000000000000213
 21
77.1799999999999784
 31
0.0
  0
LINE
  5
F1
100
AcDbEntity
  8
1
 62
256
370
-1
 48
1.0
  6
BYLAYER
100
AcDbLine
 10
31.0999999999999908
 20
108.9199999999999875
 30
0.0
 11
18.5000000000000071
 21
108.9199999999999875
 31
0.0
  0
LINE
  5
F2
100
AcDbEntity
  8
1
 62
256
370
-1
 48
1.0
  6
BYLAYER
100
AcDbLine
 10
63.9999999999999858
 20
41.0
 30
0.0
 11
63.9999999999999858
 21
9.0
 31
0.0
  0
LINE
  5
F3
100
AcDbEntity
  8
1
 62
256
370
-1
 48
1.0
  6
BYLAYER
100
AcDbLine
 10
192.0
 20
9.0
 30
0.0
 11
192.0
 21
41.0
 31
0.0
  0
LINE
  5
F4
100
AcDbEntity
  8
Construction
 62
256
370
-1
 48
1.0
  6
BYLAYER
100
AcDbLine
 10
46.7400000000000091
 20
152.0
 30
0.0
 11
196.7400000000000091
 21
152.0
 31
0.0
  0
LINE
  5
F5
100
AcDbEntity
  8
Construction
 62
256
370
-1
 48
1.0
  6
BYLAYER
100
AcDbLine
 10
46.7400000000000091
 20
158.0
 30
0.0
 11
196.7400000000000091
 21
158.0
 31
0.0
  0
LINE
  5
F6
100
AcDbEntity
  8
Construction
 62
256
370
-1
 48
1.0
  6
BYLAYER
100
AcDbLine
 10
65.0
 20
92.5
 30
0.0
 11
65.0
 21
242.5
 31
0.0
  0
ENDSEC
  0
SECTION
  2
OBJECTS
  0
DICTIONARY
  5
C
100
AcDbDictionary
280
0
281
1
  3
ACAD_GROUP
350
D
  3
ACAD_LAYOUT
350
1A
  3
ACAD_MLINESTYLE
350
17
  3
ACAD_PLOTSETTINGS
350
19
  3
ACAD_PLOTSTYLENAME
350
E
  3
AcDbVariableDictionary
350
F7
  3
QCAD_OBJECTS
350
F8
  0
DICTIONARY
  5
D
100
AcDbDictionary
280
0
281
1
  0
ACDBDICTIONARYWDFLT
  5
E
100
AcDbDictionary
281
1
  3
Normal
350
F
100
AcDbDictionaryWithDefault
340
F
  0
ACDBPLACEHOLDER
  5
F
  0
DICTIONARY
  5
17
100
AcDbDictionary
280
0
281
1
  3
Standard
350
18
  0
MLINESTYLE
  5
18
100
AcDbMlineStyle
  2
STANDARD
 70
0
  3

 62
256
 51
90.0
 52
90.0
 71
2
 49
0.5
 62
256
  6
BYLAYER
 49
-0.5
 62
256
  6
BYLAYER
  0
DICTIONARY
  5
19
100
AcDbDictionary
280
0
281
1
  0
DICTIONARY
  5
1A
100
AcDbDictionary
281
1
  3
Layout1
350
1E
  3
Layout2
350
26
  3
Model
350
22
  0
LAYOUT
  5
1E
100
AcDbPlotSettings
  1

  2
none_device
  4

  6

 40
0.0
 41
0.0
 42
0.0
 43
0.0
 44
0.0
 45
0.0
 46
0.0
 47
0.0
 48
0.0
 49
0.0
140
0.0
141
0.0
142
1.0
143
1.0
 70
688
 72
0
 73
0
 74
5
  7

 75
16
147
1.0
148
0.0
149
0.0
100
AcDbLayout
  1
Layout1
 70
1
 71
1
 10
0.0
 20
0.0
 11
420.0
 21
297.0
 12
0.0
 22
0.0
 32
0.0
 14
100000000000000000000.0
 24
100000000000000000000.0
 34
100000000000000000000.0
 15
-100000000000000000000.0
 25
-100000000000000000000.0
 35
-100000000000000000000.0
146
0.0
 13
0.0
 23
0.0
 33
0.0
 16
1.0
 26
0.0
 36
0.0
 17
0.0
 27
1.0
 37
0.0
 76
0
330
1B
  0
LAYOUT
  5
22
100
AcDbPlotSettings
  1

  2
none_device
  4

  6

 40
0.0
 41
0.0
 42
0.0
 43
0.0
 44
0.0
 45
0.0
 46
0.0
 47
0.0
 48
0.0
 49
0.0
140
0.0
141
0.0
142
1.0
143
1.0
 70
1712
 72
0
 73
0
 74
0
  7

 75
0
147
1.0
148
0.0
149
0.0
100
AcDbLayout
  1
Model
 70
1
 71
0
 10
0.0
 20
0.0
 11
12.0
 21
9.0
 12
0.0
 22
0.0
 32
0.0
 14
0.0
 24
0.0
 34
0.0
 15
0.0
 25
0.0
 35
0.0
146
0.0
 13
0.0
 23
0.0
 33
0.0
 16
1.0
 26
0.0
 36
0.0
 17
0.0
 27
1.0
 37
0.0
 76
0
330
1F
  0
LAYOUT
  5
26
100
AcDbPlotSettings
  1

  2
none_device
  4

  6

 40
0.0
 41
0.0
 42
0.0
 43
0.0
 44
0.0
 45
0.0
 46
0.0
 47
0.0
 48
0.0
 49
0.0
140
0.0
141
0.0
142
1.0
143
1.0
 70
688
 72
0
 73
0
 74
5
  7

 75
16
147
1.0
148
0.0
149
0.0
100
AcDbLayout
  1
Layout2
 70
1
 71
2
 10
0.0
 20
0.0
 11
12.0
 21
9.0
 12
0.0
 22
0.0
 32
0.0
 14
0.0
 24
0.0
 34
0.0
 15
0.0
 25
0.0
 35
0.0
146
0.0
 13
0.0
 23
0.0
 33
0.0
 16
1.0
 26
0.0
 36
0.0
 17
0.0
 27
1.0
 37
0.0
 76
0
330
23
  0
DICTIONARY
  5
F7
100
AcDbDictionary
281
1
  3
DIMASSOC
350
FA
  3
HIDETEXT
350
F9
  0
DICTIONARYVAR
  5
F9
100
DictionaryVariables
280
0
  1
2
  0
DICTIONARYVAR
  5
FA
100
DictionaryVariables
280
0
  1
1
  0
DICTIONARY
  5
F8
100
AcDbDictionary
281
1
  3
ColorSettings/BackgroundColor
350
FB
  3
ColorSettings/ColorMode
350
FC
  3
Grid/DisplayGrid00
350
FD
  3
Grid/DisplayGrid01
350
FE
  3
Grid/DisplayGrid02
350
FF
  3
Grid/DisplayGrid03
350
100
  3
Grid/GridSpacingX00
350
101
  3
Grid/GridSpacingX01
350
102
  3
Grid/GridSpacingX02
350
103
  3
Grid/GridSpacingX03
350
104
  3
Grid/GridSpacingY00
350
105
  3
Grid/GridSpacingY01
350
106
  3
Grid/GridSpacingY02
350
107
  3
Grid/GridSpacingY03
350
108
  3
Grid/IsometricGrid00
350
109
  3
Grid/IsometricGrid01
350
10A
  3
Grid/IsometricGrid02
350
10B
  3
Grid/IsometricGrid03
350
10C
  3
Grid/IsometricProjection00
350
10D
  3
Grid/IsometricProjection01
350
10E
  3
Grid/IsometricProjection02
350
10F
  3
Grid/IsometricProjection03
350
110
  3
Grid/MetaGridSpacingX00
350
111
  3
Grid/MetaGridSpacingX01
350
112
  3
Grid/MetaGridSpacingX02
350
113
  3
Grid/MetaGridSpacingX03
350
114
  3
Grid/MetaGridSpacingY00
350
115
  3
Grid/MetaGridSpacingY01
350
116
  3
Grid/MetaGridSpacingY02
350
117
  3
Grid/MetaGridSpacingY03
350
118
  3
MultiPageSettings/Columns
350
119
  3
MultiPageSettings/GlueMarginsBottom
350
11A
  3
MultiPageSettings/GlueMarginsLeft
350
11B
  3
MultiPageSettings/GlueMarginsRight
350
11C
  3
MultiPageSettings/GlueMarginsTop
350
11D
  3
MultiPageSettings/PrintCropMarks
350
11E
  3
MultiPageSettings/Rows
350
11F
  3
PageSettings/OffsetX
350
120
  3
PageSettings/OffsetY
350
121
  3
PageSettings/PageOrientation
350
122
  3
PageSettings/PaperHeight
350
123
  3
PageSettings/PaperWidth
350
124
  3
PageSettings/Scale
350
125
  3
PageSettings/ShowPaperBorders
350
126
  3
QCADVersion
350
127
  3
UnitSettings/PaperUnit
350
128
  3
ViewportCenter
350
129
  3
ViewportHeight
350
12A
  3
ViewportWidth
350
12B
  0
XRECORD
  5
FB
330
F8
100
AcDbXrecord
280
1
1000
Blanc
  0
XRECORD
  5
FC
330
F8
100
AcDbXrecord
280
1
1000
FullColor
  0
XRECORD
  5
FD
330
F8
100
AcDbXrecord
280
1
290
1
  0
XRECORD
  5
FE
330
F8
100
AcDbXrecord
280
1
290
1
  0
XRECORD
  5
FF
330
F8
100
AcDbXrecord
280
1
290
1
  0
XRECORD
  5
100
330
F8
100
AcDbXrecord
280
1
290
1
  0
XRECORD
  5
101
330
F8
100
AcDbXrecord
280
1
1000
auto
  0
XRECORD
  5
102
330
F8
100
AcDbXrecord
280
1
1000
auto
  0
XRECORD
  5
103
330
F8
100
AcDbXrecord
280
1
1000
auto
  0
XRECORD
  5
104
330
F8
100
AcDbXrecord
280
1
1000
auto
  0
XRECORD
  5
105
330
F8
100
AcDbXrecord
280
1
1000
auto
  0
XRECORD
  5
106
330
F8
100
AcDbXrecord
280
1
1000
auto
  0
XRECORD
  5
107
330
F8
100
AcDbXrecord
280
1
1000
auto
  0
XRECORD
  5
108
330
F8
100
AcDbXrecord
280
1
1000
auto
  0
XRECORD
  5
109
330
F8
100
AcDbXrecord
280
1
290
0
  0
XRECORD
  5
10A
330
F8
100
AcDbXrecord
280
1
290
0
  0
XRECORD
  5
10B
330
F8
100
AcDbXrecord
280
1
290
0
  0
XRECORD
  5
10C
330
F8
100
AcDbXrecord
280
1
290
0
  0
XRECORD
  5
10D
330
F8
100
AcDbXrecord
280
1
 90
65537
  0
XRECORD
  5
10E
330
F8
100
AcDbXrecord
280
1
 90
65537
  0
XRECORD
  5
10F
330
F8
100
AcDbXrecord
280
1
 90
65537
  0
XRECORD
  5
110
330
F8
100
AcDbXrecord
280
1
 90
65537
  0
XRECORD
  5
111
330
F8
100
AcDbXrecord
280
1
1000
auto
  0
XRECORD
  5
112
330
F8
100
AcDbXrecord
280
1
1000
auto
  0
XRECORD
  5
113
330
F8
100
AcDbXrecord
280
1
1000
auto
  0
XRECORD
  5
114
330
F8
100
AcDbXrecord
280
1
1000
auto
  0
XRECORD
  5
115
330
F8
100
AcDbXrecord
280
1
1000
auto
  0
XRECORD
  5
116
330
F8
100
AcDbXrecord
280
1
1000
auto
  0
XRECORD
  5
117
330
F8
100
AcDbXrecord
280
1
1000
auto
  0
XRECORD
  5
118
330
F8
100
AcDbXrecord
280
1
1000
auto
  0
XRECORD
  5
119
330
F8
100
AcDbXrecord
280
1
 90
1
  0
XRECORD
  5
11A
330
F8
100
AcDbXrecord
280
1
 40
10.0
  0
XRECORD
  5
11B
330
F8
100
AcDbXrecord
280
1
 40
10.0
  0
XRECORD
  5
11C
330
F8
100
AcDbXrecord
280
1
 40
10.0
  0
XRECORD
  5
11D
330
F8
100
AcDbXrecord
280
1
 40
10.0
  0
XRECORD
  5
11E
330
F8
100
AcDbXrecord
280
1
290
0
  0
XRECORD
  5
11F
330
F8
100
AcDbXrecord
280
1
 90
1
  0
XRECORD
  5
120
330
F8
100
AcDbXrecord
280
1
 40
-16.9574027170158814
  0
XRECORD
  5
121
330
F8
100
AcDbXrecord
280
1
 40
-14.9865300483536839
  0
XRECORD
  5
122
330
F8
100
AcDbXrecord
280
1
1000
Landscape
  0
XRECORD
  5
123
330
F8
100
AcDbXrecord
280
1
 40
297.0
  0
XRECORD
  5
124
330
F8
100
AcDbXrecord
280
1
 40
210.0
  0
XRECORD
  5
125
330
F8
100
AcDbXrecord
280
1
1000
1.01
  0
XRECORD
  5
126
330
F8
100
AcDbXrecord
280
1
290
1
  0
XRECORD
  5
127
330
F8
100
AcDbXrecord
280
1
1000
3.19.0
  0
XRECORD
  5
128
330
F8
100
AcDbXrecord
280
1
 90
4
  0
XRECORD
  5
12A
330
F8
100
AcDbXrecord
280
1
 40
512.0784201398600999
  0
XRECORD
  5
12B
330
F8
100
AcDbXrecord
280
1
 40
900.6652598601398267
  0
ENDSEC
  0
EOF
