999
dxflib 3.17.0.0
  0
SECTION
  2
HEADER
  9
$ACADVER
  1
AC1015
  9
$HANDSEED
  5
FFFF
  9
$DIMADEC
 70
0
  9
$DIMASZ
 40
2.5
  9
$DIMAUNIT
 70
0
  9
$DIMAZIN
 70
2
  9
$DIMDEC
 70
4
  9
$DIMDLI
 40
0.36
  9
$DIMDSEP
 70
46
  9
$DIMEXE
 40
1.25
  9
$DIMEXO
 40
0.625
  9
$DIMGAP
 40
0.625
  9
$DIMLUNIT
 70
2
  9
$DIMSCALE
 40
1.0
  9
$DIMTSZ
 40
0.0
  9
$DIMTXT
 40
2.5
  9
$DIMZIN
 70
8
  9
$DWGCODEPAGE
  3
ANSI_1252
  9
$INSUNITS
 70
4
  9
$LTSCALE
 40
1.0
  9
$MAXACTVP
 70
64
  9
$MEASUREMENT
 70
1
  9
$PDMODE
 70
0
  9
$PDSIZE
 40
0.0
  0
ENDSEC
  0
SECTION
  2
TABLES
  0
TABLE
  2
VPORT
  5
8
100
AcDbSymbolTable
 70
1
  0
VPORT
  5
30
100
AcDbSymbolTableRecord
100
AcDbViewportTableRecord
  2
*Active
 70
0
 10
0.0
 20
0.0
 11
1.0
 21
1.0
 12
286.3055555555554861
 22
148.5
 13
0.0
 23
0.0
 14
10.0
 24
10.0
 15
10.0
 25
10.0
 16
0.0
 26
0.0
 36
1.0
 17
0.0
 27
0.0
 37
0.0
 40
297.0
 41
1.92798353909465
 42
50.0
 43
0.0
 44
0.0
 50
0.0
 51
0.0
 71
0
 72
100
 73
1
 74
3
 75
1
 76
1
 77
0
 78
0
281
0
 65
1
110
0.0
120
0.0
130
0.0
111
1.0
121
0.0
131
0.0
112
0.0
122
1.0
132
0.0
 79
0
146
0.0
  0
ENDTAB
  0
TABLE
  2
LTYPE
  5
5
100
AcDbSymbolTable
 70
41
  0
LTYPE
  5
16
100
AcDbSymbolTableRecord
100
AcDbLinetypeTableRecord
  2
Continuous
 70
0
  3
Solid line
 72
65
 73
0
 40
0.0
  0
LTYPE
  5
31
100
AcDbSymbolTableRecord
100
AcDbLinetypeTableRecord
  2
ACAD_ISO15W100
 70
0
  3
ISO double-dash triple-dot __ __ . . . __ __ . .
 72
65
 73
10
 40
39.0000000000000071
 49
12.0
 74
0
 49
-3.0
 74
0
 49
12.0
 74
0
 49
-2.9500000000000002
 74
0
 49
0.1
 74
0
 49
-2.9000000000000004
 74
0
 49
0.1
 74
0
 49
-2.9000000000000004
 74
0
 49
0.1
 74
0
 49
-2.9500000000000002
 74
0
  0
LTYPE
  5
32
100
AcDbSymbolTableRecord
100
AcDbLinetypeTableRecord
  2
DIVIDE
 70
0
  3
Divide ____ . . ____ . . ____ . . ____ . . ____
 72
65
 73
6
 40
31.7500000000000036
 49
12.6999999999999993
 74
0
 49
-6.2999999999999998
 74
0
 49
0.1
 74
0
 49
-6.25
 74
0
 49
0.1
 74
0
 49
-6.2999999999999998
 74
0
  0
LTYPE
  5
33
100
AcDbSymbolTableRecord
100
AcDbLinetypeTableRecord
  2
ACAD_ISO10W100
 70
0
  3
ISO dash dot __ . __ . __ . __ . __ . __ . __ . 
 72
65
 73
4
 40
18.0
 49
12.0
 74
0
 49
-2.9500000000000002
 74
0
 49
0.1
 74
0
 49
-2.9500000000000002
 74
0
  0
LTYPE
  5
34
100
AcDbSymbolTableRecord
100
AcDbLinetypeTableRecord
  2
ACAD_ISO04W100
 70
0
  3
ISO long-dash dot ____ . ____ . ____ . ____ . _
 72
65
 73
4
 40
30.0
 49
24.0
 74
0
 49
-2.9500000000000002
 74
0
 49
0.1
 74
0
 49
-2.9500000000000002
 74
0
  0
LTYPE
  5
35
100
AcDbSymbolTableRecord
100
AcDbLinetypeTableRecord
  2
CENTER2
 70
0
  3
Center (.5x) ___ _ ___ _ ___ _ ___ _ ___ _ ___
 72
65
 73
4
 40
28.5750000000000028
 49
19.0500000000000007
 74
0
 49
-3.1749999999999998
 74
0
 49
3.1749999999999998
 74
0
 49
-3.1749999999999998
 74
0
  0
LTYPE
  5
36
100
AcDbSymbolTableRecord
100
AcDbLinetypeTableRecord
  2
ACAD_ISO11W100
 70
0
  3
ISO double-dash dot __ __ . __ __ . __ __ . __ _
 72
65
 73
6
 40
33.0
 49
12.0
 74
0
 49
-3.0
 74
0
 49
12.0
 74
0
 49
-2.9500000000000002
 74
0
 49
0.1
 74
0
 49
-2.9500000000000002
 74
0
  0
LTYPE
  5
37
100
AcDbSymbolTableRecord
100
AcDbLinetypeTableRecord
  2
HIDDEN2
 70
0
  3
Hidden (.5x) _ _ _ _ _ _ _ _ _ _ _ _ _ _ _ _ _ 
 72
65
 73
2
 40
4.7624999999999993
 49
3.1749999999999998
 74
0
 49
-1.5874999999999999
 74
0
  0
LTYPE
  5
38
100
AcDbSymbolTableRecord
100
AcDbLinetypeTableRecord
  2
BORDERX2
 70
0
  3
Border (2x) ____  ____  .  ____  ____  .  ___
 72
65
 73
6
 40
88.8999999999999773
 49
25.3999999999999986
 74
0
 49
-12.6999999999999993
 74
0
 49
25.3999999999999986
 74
0
 49
-12.6499999999999986
 74
0
 49
0.1
 74
0
 49
-12.6499999999999986
 74
0
  0
LTYPE
  5
39
100
AcDbSymbolTableRecord
100
AcDbLinetypeTableRecord
  2
ACAD_ISO05W100
 70
0
  3
ISO long-dash double-dot ____ .. ____ .. ____ . 
 72
65
 73
6
 40
33.0000000000000071
 49
24.0
 74
0
 49
-2.9500000000000002
 74
0
 49
0.1
 74
0
 49
-2.9000000000000004
 74
0
 49
0.1
 74
0
 49
-2.9500000000000002
 74
0
  0
LTYPE
  5
3A
100
AcDbSymbolTableRecord
100
AcDbLinetypeTableRecord
  2
DASHDOTX2
 70
0
  3
Dash dot (2x) ____  .  ____  .  ____  .  ___
 72
65
 73
4
 40
50.7999999999999972
 49
25.3999999999999986
 74
0
 49
-12.6499999999999986
 74
0
 49
0.1
 74
0
 49
-12.6499999999999986
 74
0
  0
LTYPE
  5
3B
100
AcDbSymbolTableRecord
100
AcDbLinetypeTableRecord
  2
HIDDENX2
 70
0
  3
Hidden (2x) ____ ____ ____ ____ ____ ____ ____ 
 72
65
 73
2
 40
19.0499999999999972
 49
12.6999999999999993
 74
0
 49
-6.3499999999999996
 74
0
  0
LTYPE
  5
3C
100
AcDbSymbolTableRecord
100
AcDbLinetypeTableRecord
  2
CENTERX2
 70
0
  3
Center (2x) ________  __  ________  __  _____
 72
65
 73
4
 40
101.6000000000000085
 49
63.5
 74
0
 49
-12.6999999999999993
 74
0
 49
12.6999999999999993
 74
0
 49
-12.6999999999999993
 74
0
  0
LTYPE
  5
3D
100
AcDbSymbolTableRecord
100
AcDbLinetypeTableRecord
  2
BORDER2
 70
0
  3
Border (.5x) __.__.__.__.__.__.__.__.__.__.__.
 72
65
 73
6
 40
22.2250000000000014
 49
6.3499999999999996
 74
0
 49
-3.1749999999999998
 74
0
 49
6.3499999999999996
 74
0
 49
-3.125
 74
0
 49
0.1
 74
0
 49
-3.125
 74
0
  0
LTYPE
  5
3E
100
AcDbSymbolTableRecord
100
AcDbLinetypeTableRecord
  2
DASHDOT2
 70
0
  3
Dash dot (.5x) _._._._._._._._._._._._._._._.
 72
65
 73
4
 40
12.6999999999999993
 49
6.3499999999999996
 74
0
 49
-3.125
 74
0
 49
0.1
 74
0
 49
-3.125
 74
0
  0
LTYPE
  5
3F
100
AcDbSymbolTableRecord
100
AcDbLinetypeTableRecord
  2
ACAD_ISO12W100
 70
0
  3
ISO dash double-dot __ . . __ . . __ . . __ . . 
 72
65
 73
6
 40
21.0
 49
12.0
 74
0
 49
-2.9500000000000002
 74
0
 49
0.1
 74
0
 49
-2.9000000000000004
 74
0
 49
0.1
 74
0
 49
-2.9500000000000002
 74
0
  0
LTYPE
  5
40
100
AcDbSymbolTableRecord
100
AcDbLinetypeTableRecord
  2
ACAD_ISO07W100
 70
0
  3
ISO dot . . . . . . . . . . . . . . . . . . . . 
 72
65
 73
2
 40
3.0
 49
0.1
 74
0
 49
-2.8999999999999999
 74
0
  0
LTYPE
  5
41
100
AcDbSymbolTableRecord
100
AcDbLinetypeTableRecord
  2
HIDDEN
 70
0
  3
Hidden __ __ __ __ __ __ __ __ __ __ __ __ __ __
 72
65
 73
2
 40
9.5249999999999986
 49
6.3499999999999996
 74
0
 49
-3.1749999999999998
 74
0
  0
LTYPE
  5
42
100
AcDbSymbolTableRecord
100
AcDbLinetypeTableRecord
  2
ACAD_ISO06W100
 70
0
  3
ISO long-dash triple-dot ____ ... ____ ... ____
 72
65
 73
8
 40
36.0000000000000071
 49
24.0
 74
0
 49
-2.9500000000000002
 74
0
 49
0.1
 74
0
 49
-2.9000000000000004
 74
0
 49
0.1
 74
0
 49
-2.9000000000000004
 74
0
 49
0.1
 74
0
 49
-2.9500000000000002
 74
0
  0
LTYPE
  5
43
100
AcDbSymbolTableRecord
100
AcDbLinetypeTableRecord
  2
CENTER
 70
0
  3
Center ____ _ ____ _ ____ _ ____ _ ____ _ ____
 72
65
 73
4
 40
50.8000000000000043
 49
31.75
 74
0
 49
-6.3499999999999996
 74
0
 49
6.3499999999999996
 74
0
 49
-6.3499999999999996
 74
0
  0
LTYPE
  5
44
100
AcDbSymbolTableRecord
100
AcDbLinetypeTableRecord
  2
DOTX2
 70
0
  3
Dot (2x) .  .  .  .  .  .  .  .  .  .  .  .  .  .
 72
65
 73
2
 40
12.6999999999999993
 49
0.1
 74
0
 49
-12.5999999999999996
 74
0
  0
LTYPE
  5
45
100
AcDbSymbolTableRecord
100
AcDbLinetypeTableRecord
  2
PHANTOM
 70
0
  3
Phantom ______  __  __  ______  __  __  ______ 
 72
65
 73
6
 40
63.5000000000000071
 49
31.75
 74
0
 49
-6.3499999999999996
 74
0
 49
6.3499999999999996
 74
0
 49
-6.3499999999999996
 74
0
 49
6.3499999999999996
 74
0
 49
-6.3499999999999996
 74
0
  0
LTYPE
  5
46
100
AcDbSymbolTableRecord
100
AcDbLinetypeTableRecord
  2
ACAD_ISO08W100
 70
0
  3
ISO long-dash short-dash ____ __ ____ __ ____ _
 72
65
 73
4
 40
36.0
 49
24.0
 74
0
 49
-3.0
 74
0
 49
6.0
 74
0
 49
-3.0
 74
0
  0
LTYPE
  5
47
100
AcDbSymbolTableRecord
100
AcDbLinetypeTableRecord
  2
DASHEDX2
 70
0
  3
Dashed (2x) ____  ____  ____  ____  ____  ___
 72
65
 73
2
 40
38.0999999999999943
 49
25.3999999999999986
 74
0
 49
-12.6999999999999993
 74
0
  0
LTYPE
  5
48
100
AcDbSymbolTableRecord
100
AcDbLinetypeTableRecord
  2
ACAD_ISO02W100
 70
0
  3
ISO dash __ __ __ __ __ __ __ __ __ __ __ __ __
 72
65
 73
2
 40
15.0
 49
12.0
 74
0
 49
-3.0
 74
0
  0
LTYPE
  5
49
100
AcDbSymbolTableRecord
100
AcDbLinetypeTableRecord
  2
PHANTOM2
 70
0
  3
Phantom (.5x) ___ _ _ ___ _ _ ___ _ _ ___ _ _
 72
65
 73
6
 40
31.7500000000000036
 49
15.875
 74
0
 49
-3.1749999999999998
 74
0
 49
3.1749999999999998
 74
0
 49
-3.1749999999999998
 74
0
 49
3.1749999999999998
 74
0
 49
-3.1749999999999998
 74
0
  0
LTYPE
  5
4A
100
AcDbSymbolTableRecord
100
AcDbLinetypeTableRecord
  2
DASHED2
 70
0
  3
Dashed (.5x) _ _ _ _ _ _ _ _ _ _ _ _ _ _ _ _ _ 
 72
65
 73
2
 40
9.5249999999999986
 49
6.3499999999999996
 74
0
 49
-3.1749999999999998
 74
0
  0
LTYPE
  5
4B
100
AcDbSymbolTableRecord
100
AcDbLinetypeTableRecord
  2
ACAD_ISO09W100
 70
0
  3
ISO long-dash double-short-dash ____ __ __ ____
 72
65
 73
6
 40
45.0
 49
24.0
 74
0
 49
-3.0
 74
0
 49
6.0
 74
0
 49
-3.0
 74
0
 49
6.0
 74
0
 49
-3.0
 74
0
  0
LTYPE
  5
4C
100
AcDbSymbolTableRecord
100
AcDbLinetypeTableRecord
  2
ACAD_ISO13W100
 70
0
  3
ISO double-dash double-dot __ __ . . __ __ . . _
 72
65
 73
8
 40
36.0000000000000071
 49
12.0
 74
0
 49
-3.0
 74
0
 49
12.0
 74
0
 49
-2.9500000000000002
 74
0
 49
0.1
 74
0
 49
-2.9000000000000004
 74
0
 49
0.1
 74
0
 49
-2.9500000000000002
 74
0
  0
LTYPE
  5
4D
100
AcDbSymbolTableRecord
100
AcDbLinetypeTableRecord
  2
DOT2
 70
0
  3
Dot (.5x) ........................................
 72
65
 73
2
 40
3.1749999999999998
 49
0.1
 74
0
 49
-3.0749999999999997
 74
0
  0
LTYPE
  5
4E
100
AcDbSymbolTableRecord
100
AcDbLinetypeTableRecord
  2
DASHED
 70
0
  3
Dashed __ __ __ __ __ __ __ __ __ __ __ __ __ _
 72
65
 73
2
 40
19.0499999999999972
 49
12.6999999999999993
 74
0
 49
-6.3499999999999996
 74
0
  0
LTYPE
  5
4F
100
AcDbSymbolTableRecord
100
AcDbLinetypeTableRecord
  2
ACAD_ISO14W100
 70
0
  3
ISO dash triple-dot __ . . . __ . . . __ . . . _
 72
65
 73
8
 40
24.0000000000000036
 49
12.0
 74
0
 49
-2.9500000000000002
 74
0
 49
0.1
 74
0
 49
-2.9000000000000004
 74
0
 49
0.1
 74
0
 49
-2.9000000000000004
 74
0
 49
0.1
 74
0
 49
-2.9500000000000002
 74
0
  0
LTYPE
  5
15
100
AcDbSymbolTableRecord
100
AcDbLinetypeTableRecord
  2
BYLAYER
 70
0
  3

 72
65
 73
0
 40
0.0
  0
LTYPE
  5
50
100
AcDbSymbolTableRecord
100
AcDbLinetypeTableRecord
  2
PHANTOMX2
 70
0
  3
Phantom (2x) ____________    ____    ____   _
 72
65
 73
6
 40
127.0000000000000142
 49
63.5
 74
0
 49
-12.6999999999999993
 74
0
 49
12.6999999999999993
 74
0
 49
-12.6999999999999993
 74
0
 49
12.6999999999999993
 74
0
 49
-12.6999999999999993
 74
0
  0
LTYPE
  5
14
100
AcDbSymbolTableRecord
100
AcDbLinetypeTableRecord
  2
BYBLOCK
 70
0
  3

 72
65
 73
0
 40
0.0
  0
LTYPE
  5
51
100
AcDbSymbolTableRecord
100
AcDbLinetypeTableRecord
  2
DIVIDEX2
 70
0
  3
Divide (2x) ________  .  .  ________  .  .  _
 72
65
 73
6
 40
63.5
 49
25.3999999999999986
 74
0
 49
-12.6499999999999986
 74
0
 49
0.1
 74
0
 49
-12.5999999999999979
 74
0
 49
0.1
 74
0
 49
-12.6499999999999986
 74
0
  0
LTYPE
  5
52
100
AcDbSymbolTableRecord
100
AcDbLinetypeTableRecord
  2
BORDER
 70
0
  3
Border __ __ . __ __ . __ __ . __ __ . __ __ .
 72
65
 73
6
 40
44.4499999999999957
 49
12.6999999999999993
 74
0
 49
-6.3499999999999996
 74
0
 49
12.6999999999999993
 74
0
 49
-6.2999999999999998
 74
0
 49
0.1
 74
0
 49
-6.2999999999999998
 74
0
  0
LTYPE
  5
53
100
AcDbSymbolTableRecord
100
AcDbLinetypeTableRecord
  2
DIVIDE2
 70
0
  3
Divide (.5x) __..__..__..__..__..__..__..__.._
 72
65
 73
6
 40
15.8749999999999982
 49
6.3499999999999996
 74
0
 49
-3.125
 74
0
 49
0.1
 74
0
 49
-3.0750000000000002
 74
0
 49
0.1
 74
0
 49
-3.125
 74
0
  0
LTYPE
  5
54
100
AcDbSymbolTableRecord
100
AcDbLinetypeTableRecord
  2
DOT
 70
0
  3
Dot . . . . . . . . . . . . . . . . . . . . . . . .
 72
65
 73
2
 40
6.3499999999999996
 49
0.1
 74
0
 49
-6.25
 74
0
  0
LTYPE
  5
55
100
AcDbSymbolTableRecord
100
AcDbLinetypeTableRecord
  2
DASHDOT
 70
0
  3
Dash dot __ . __ . __ . __ . __ . __ . __ . __
 72
65
 73
4
 40
25.4000000000000021
 49
12.6999999999999993
 74
0
 49
-6.2999999999999998
 74
0
 49
0.1
 74
0
 49
-6.2999999999999998
 74
0
  0
LTYPE
  5
56
100
AcDbSymbolTableRecord
100
AcDbLinetypeTableRecord
  2
ACAD_ISO03W100
 70
0
  3
ISO dash space __    __    __    __    __    __
 72
65
 73
2
 40
30.0
 49
12.0
 74
0
 49
-18.0
 74
0
  0
ENDTAB
  0
TABLE
  2
LAYER
  5
2
100
AcDbSymbolTable
 70
1
  0
LAYER
  5
10
100
AcDbSymbolTableRecord
100
AcDbLayerTableRecord
  2
0
 70
0
 62
7
420
16777215
  6
Continuous
370
25
390
F
  0
ENDTAB
  0
TABLE
  2
STYLE
  5
3
100
AcDbSymbolTable
 70
1
  0
STYLE
  5
57
100
AcDbSymbolTableRecord
100
AcDbTextStyleTableRecord
  2
Standard
 70
0
 40
0.0
 41
1.0
 50
0.0
 71
0
 42
2.5
  3

  4

1001
ACAD
1000
txt
1071
0
  0
ENDTAB
  0
TABLE
  2
VIEW
  5
6
100
AcDbSymbolTable
 70
0
  0
ENDTAB
  0
TABLE
  2
UCS
  5
7
100
AcDbSymbolTable
 70
0
  0
ENDTAB
  0
TABLE
  2
APPID
  5
9
100
AcDbSymbolTable
 70
1
  0
APPID
  5
12
100
AcDbSymbolTableRecord
100
AcDbRegAppTableRecord
  2
ACAD
 70
0
  0
APPID
  5
58
100
AcDbSymbolTableRecord
100
AcDbRegAppTableRecord
  2
QCAD
 70
0
  0
ENDTAB
  0
TABLE
  2
DIMSTYLE
  5
A
100
AcDbSymbolTable
 70
1
100
AcDbDimStyleTable
 71
0
  0
DIMSTYLE
105
27
100
AcDbSymbolTableRecord
100
AcDbDimStyleTableRecord
  2
Standard
 41
2.5
 42
0.625
 43
3.75
 44
1.25
 70
0
 73
0
 74
0
 77
1
 78
8
140
2.5
141
2.5
143
0.03937007874016
147
0.625
171
3
172
1
271
2
272
2
274
3
278
44
283
0
284
8
340
57
  0
ENDTAB
  0
TABLE
  2
BLOCK_RECORD
  5
1
100
AcDbSymbolTable
 70
1
  0
BLOCK_RECORD
  5
1F
100
AcDbSymbolTableRecord
100
AcDbBlockTableRecord
  2
*Model_Space
340
22
  0
BLOCK_RECORD
  5
1B
100
AcDbSymbolTableRecord
100
AcDbBlockTableRecord
  2
*Paper_Space
340
1E
  0
BLOCK_RECORD
  5
23
100
AcDbSymbolTableRecord
100
AcDbBlockTableRecord
  2
*Paper_Space0
340
26
  0
ENDTAB
  0
ENDSEC
  0
SECTION
  2
BLOCKS
  0
BLOCK
  5
20
100
AcDbEntity
  8
0
100
AcDbBlockBegin
  2
*Model_Space
 70
0
 10
0.0
 20
0.0
 30
0.0
  3
*Model_Space
  1

  0
ENDBLK
  5
21
100
AcDbEntity
  8
0
100
AcDbBlockEnd
  0
BLOCK
  5
1C
100
AcDbEntity
 67
1
  8
0
100
AcDbBlockBegin
  2
*Paper_Space
 70
0
 10
0.0
 20
0.0
 30
0.0
  3
*Paper_Space
  1

  0
ENDBLK
  5
1D
100
AcDbEntity
 67
1
  8
0
100
AcDbBlockEnd
  0
BLOCK
  5
24
100
AcDbEntity
  8
0
100
AcDbBlockBegin
  2
*Paper_Space0
 70
0
 10
0.0
 20
0.0
 30
0.0
  3
*Paper_Space0
  1

  0
ENDBLK
  5
25
100
AcDbEntity
  8
0
100
AcDbBlockEnd
  0
ENDSEC
  0
SECTION
  2
ENTITIES
  0
LWPOLYLINE
  5
59
100
AcDbEntity
  8
0
 62
256
370
-1
 48
1.0
  6
BYLAYER
100
AcDbPolyline
 90
117
 70
0
 10
56.0
 20
56.0
 10
59.0
 20
56.0
 10
59.0
 20
53.0
 10
65.0
 20
53.0
 10
65.0
 20
56.0
 10
71.0
 20
56.0
 10
71.0
 20
53.0
 10
77.0
 20
53.0
 10
77.0
 20
56.0
 10
83.0
 20
56.0
 10
83.0
 20
53.0
 10
89.0
 20
53.0
 10
89.0
 20
56.0
 10
95.0
 20
56.0
 10
95.0
 20
53.0
 10
101.0
 20
53.0
 10
101.0
 20
56.0
 10
107.0
 20
56.0
 10
107.0
 20
53.0
 10
113.0
 20
53.0
 10
113.0
 20
56.0
 10
119.0
 20
56.0
 10
119.0
 20
53.0
 10
125.0
 20
53.0
 10
125.0
 20
56.0
 10
131.0
 20
56.0
 10
131.0
 20
53.0
 10
137.0
 20
53.0
 10
137.0
 20
56.0
 10
143.0
 20
56.0
 10
143.0
 20
53.0
 10
149.0
 20
53.0
 10
149.0
 20
56.0
 10
155.0
 20
56.0
 10
155.0
 20
53.0
 10
161.0
 20
53.0
 10
161.0
 20
56.0
 10
167.0
 20
56.0
 10
167.0
 20
53.0
 10
173.0
 20
53.0
 10
173.0
 20
56.0
 10
179.0
 20
56.0
 10
179.0
 20
53.0
 10
185.0
 20
53.0
 10
185.0
 20
56.0
 10
191.0
 20
56.0
 10
191.0
 20
53.0
 10
197.0
 20
53.0
 10
197.0
 20
56.0
 10
200.0
 20
56.0
 10
200.0
 20
62.7999999999999972
 10
203.0
 20
62.7999999999999972
 10
203.0
 20
69.5999999999999943
 10
200.0
 20
69.5999999999999943
 10
200.0
 20
76.4000000000000057
 10
203.0
 20
76.4000000000000057
 10
203.0
 20
83.2000000000000028
 10
200.0
 20
83.2000000000000028
 10
200.0
 20
90.0
 10
197.0
 20
90.0
 10
197.0
 20
93.0
 10
191.0
 20
93.0
 10
191.0
 20
90.0
 10
185.0
 20
90.0
 10
185.0
 20
93.0
 10
179.0
 20
93.0
 10
179.0
 20
90.0
 10
173.0
 20
90.0
 10
173.0
 20
93.0
 10
167.0
 20
93.0
 10
167.0
 20
90.0
 10
161.0
 20
90.0
 10
161.0
 20
93.0
 10
155.0
 20
93.0
 10
155.0
 20
90.0
 10
149.0
 20
90.0
 10
149.0
 20
93.0
 10
143.0
 20
93.0
 10
143.0
 20
90.0
 10
137.0
 20
90.0
 10
137.0
 20
93.0
 10
131.0
 20
93.0
 10
131.0
 20
90.0
 10
125.0
 20
90.0
 10
125.0
 20
93.0
 10
119.0
 20
93.0
 10
119.0
 20
90.0
 10
113.0
 20
90.0
 10
113.0
 20
93.0
 10
107.0
 20
93.0
 10
107.0
 20
90.0
 10
101.0
 20
90.0
 10
101.0
 20
93.0
 10
95.0
 20
93.0
 10
95.0
 20
90.0
 10
89.0
 20
90.0
 10
89.0
 20
93.0
 10
83.0
 20
93.0
 10
83.0
 20
90.0
 10
77.0
 20
90.0
 10
77.0
 20
93.0
 10
71.0
 20
93.0
 10
71.0
 20
90.0
 10
65.0
 20
90.0
 10
65.0
 20
93.0
 10
59.0
 20
93.0
 10
59.0
 20
90.0
 10
56.0
 20
90.0
 10
56.0
 20
83.2000000000000028
 10
53.0
 20
83.2000000000000028
 10
53.0
 20
76.4000000000000057
 10
56.0
 20
76.4000000000000057
 10
56.0
 20
69.5999999999999943
 10
53.0
 20
69.5999999999999943
 10
53.0
 20
62.7999999999999972
 10
56.0
 20
62.7999999999999972
 10
56.0
 20
56.0
  0
LWPOLYLINE
  5
5A
100
AcDbEntity
  8
0
 62
256
370
-1
 48
1.0
  6
BYLAYER
100
AcDbPolyline
 90
133
 70
0
 10
259.0
 20
97.9999999999999716
 10
259.0
 20
101.2799999999999727
 10
262.0
 20
101.2799999999999727
 10
262.0
 20
107.5600000000000023
 10
259.0
 20
107.5600000000000023
 10
259.0
 20
113.839999999999975
 10
262.0
 20
113.839999999999975
 10
262.0
 20
120.1200000000000045
 10
259.0
 20
120.1200000000000045
 10
259.0
 20
126.3999999999999773
 10
262.0
 20
126.3999999999999773
 10
262.0
 20
132.6800000000000068
 10
259.0
 20
132.6800000000000068
 10
258.9999999999999432
 20
138.9599999999999795
 10
262.0
 20
138.9599999999999795
 10
262.0
 20
145.2399999999999523
 10
259.0
 20
145.2399999999999523
 10
258.9999999999998863
 20
151.5199999999999534
 10
262.0
 20
151.5199999999999534
 10
262.0
 20
157.7999999999999261
 10
258.9999999999998863
 20
157.7999999999999261
 10
258.9999999999997726
 20
164.0800000000000125
 10
262.0
 20
164.0800000000000125
 10
262.0
 20
170.3599999999999852
 10
259.0
 20
170.3599999999999852
 10
258.9999999999999432
 20
176.6399999999999579
 10
262.0
 20
176.6399999999999579
 10
262.0
 20
182.9199999999999307
 10
258.9999999999998863
 20
182.9199999999999307
 10
259.0000000000002274
 20
189.2000000000000171
 10
262.0
 20
189.2000000000000171
 10
262.0
 20
195.4799999999999898
 10
258.9999999999998863
 20
195.4799999999999898
 10
259.0000000000001705
 20
201.7599999999999625
 10
262.0
 20
201.7599999999999625
 10
262.0
 20
208.0399999999999352
 10
258.9999999999997726
 20
208.0399999999999352
 10
259.0000000000002842
 20
214.3200000000000216
 10
262.0
 20
214.3200000000000216
 10
262.0
 20
220.5999999999999943
 10
258.9999999999999432
 20
220.5999999999999943
 10
259.0
 20
226.879999999999967
 10
262.0
 20
226.879999999999967
 10
262.0
 20
233.1599999999999397
 10
259.0000000000000568
 20
233.1599999999999397
 10
258.999999999999261
 20
239.4400000000000261
 10
262.0
 20
239.4400000000000261
 10
262.0
 20
245.7199999999999989
 10
258.9999999999988063
 20
245.7199999999999989
 10
259.0
 20
248.9999999999999716
 10
253.3299999999997283
 20
248.9999999999999716
 10
253.3299999999997283
 20
251.9999999999999716
 10
247.6700000000000159
 20
251.9999999999999716
 10
247.6699999999999875
 20
248.9999999999999716
 10
241.9999999999999432
 20
248.9999999999999716
 10
242.0
 20
251.9999999999999716
 10
236.3299999999999272
 20
251.9999999999999716
 10
236.3299999999998704
 20
248.9999999999999716
 10
230.6700000000000443
 20
248.9999999999999716
 10
230.6699999999999307
 20
251.9999999999999716
 10
225.0000000000000853
 20
251.9999999999999716
 10
224.9999999999999716
 20
248.9999999999999716
 10
219.3299999999999557
 20
248.9999999999999716
 10
219.3299999999999841
 20
251.9999999999999716
 10
213.6700000000000159
 20
251.9999999999999716
 10
213.6699999999999875
 20
248.9999999999999716
 10
208.0
 20
248.9999999999999716
 10
208.0
 20
245.7199999999999989
 10
205.0
 20
245.7199999999999989
 10
205.0
 20
239.4400000000000261
 10
208.0000000000000568
 20
239.4400000000000261
 10
208.0
 20
233.1599999999999397
 10
205.0
 20
233.1599999999999397
 10
204.9999999999999716
 20
226.879999999999967
 10
207.9999999999999716
 20
226.879999999999967
 10
208.0000000000000568
 20
220.5999999999999943
 10
204.9999999999999432
 20
220.5999999999999943
 10
205.0
 20
214.3200000000000216
 10
208.0
 20
214.3200000000000216
 10
208.0
 20
208.0399999999999352
 10
204.9999999999999716
 20
208.0399999999999352
 10
205.0000000000000284
 20
201.7599999999999625
 10
208.0
 20
201.7599999999999625
 10
208.0
 20
195.4799999999999898
 10
205.0
 20
195.4799999999999898
 10
205.0
 20
189.2000000000000171
 10
208.0
 20
189.2000000000000171
 10
208.0
 20
182.9199999999999307
 10
205.0
 20
182.9199999999999307
 10
205.0
 20
176.6399999999999579
 10
208.0
 20
176.6399999999999579
 10
208.0
 20
170.3599999999999852
 10
205.0
 20
170.3599999999999852
 10
205.0
 20
164.0800000000000125
 10
208.0
 20
164.0800000000000125
 10
208.0
 20
157.8000000000000398
 10
205.0
 20
157.7999999999999261
 10
205.0
 20
151.5199999999999534
 10
208.0
 20
151.5199999999999534
 10
208.0
 20
145.2399999999999523
 10
205.0
 20
145.2399999999999523
 10
205.0
 20
138.9599999999999795
 10
208.0
 20
138.9599999999999795
 10
208.0
 20
132.6800000000000068
 10
205.0
 20
132.6800000000000068
 10
205.0
 20
126.3999999999999773
 10
208.0
 20
126.3999999999999773
 10
208.0
 20
120.1200000000000045
 10
205.0
 20
120.1199999999999477
 10
205.0
 20
113.839999999999975
 10
208.0
 20
113.839999999999975
 10
208.0
 20
107.5600000000000023
 10
205.0
 20
107.5600000000000023
 10
205.0
 20
101.2800000000000011
 10
208.0
 20
101.2799999999999727
 10
208.0
 20
97.9999999999999716
 10
213.6699999999999591
 20
98.0
 10
213.6699999999999591
 20
94.9999999999999716
 10
219.3299999999999272
 20
94.9999999999999716
 10
219.3299999999999272
 20
98.0
 10
225.0
 20
98.0
 10
225.0
 20
94.9999999999999716
 10
230.6699999999999591
 20
94.9999999999999716
 10
230.6699999999999591
 20
97.9999999999999716
 10
236.3299999999999272
 20
97.9999999999999716
 10
236.3299999999999272
 20
94.9999999999999716
 10
242.0
 20
94.9999999999999716
 10
242.0
 20
98.0
 10
247.6699999999999591
 20
97.9999999999999716
 10
247.6699999999999591
 20
94.9999999999999716
 10
253.3299999999999557
 20
94.9999999999999716
 10
253.3299999999999557
 20
97.9999999999999716
 10
259.0
 20
97.9999999999999716
  0
LWPOLYLINE
  5
5B
100
AcDbEntity
  8
0
 62
256
370
-1
 48
1.0
  6
BYLAYER
100
AcDbPolyline
 90
5
 70
0
 10
65.0
 20
62.0
 10
71.0
 20
62.0
 10
71.0
 20
65.0
 10
65.0
 20
65.0
 10
65.0
 20
62.0
  0
LWPOLYLINE
  5
5C
100
AcDbEntity
  8
0
 62
256
370
-1
 48
1.0
  6
BYLAYER
100
AcDbPolyline
 90
79
 70
0
 10
0.0
 20
306.0
 10
0.0
 20
155.0
 10
0.0
 20
152.0
 10
6.1399999999999864
 20
152.0
 10
6.1399999999999864
 20
155.0
 10
12.2899999999999636
 20
155.0
 10
12.2899999999999636
 20
152.0
 10
18.4300000000000637
 20
152.0
 10
18.4300000000000637
 20
155.0
 10
24.5699999999999363
 20
155.0
 10
24.5699999999999363
 20
152.0
 10
30.7100000000000364
 20
152.0
 10
30.7100000000000364
 20
155.0
 10
36.8600000000000136
 20
155.0
 10
36.8600000000000136
 20
152.0
 10
43.0
 20
152.0
 10
43.0
 20
158.2799999999999727
 10
40.0
 20
158.2799999999999727
 10
40.0
 20
164.5599999999999454
 10
43.0
 20
164.5599999999999454
 10
43.0
 20
170.8400000000000318
 10
40.0
 20
170.8400000000000318
 10
40.0
 20
177.1200000000000045
 10
43.0
 20
177.1200000000000045
 10
43.0
 20
183.3999999999999773
 10
40.0
 20
183.3999999999999773
 10
40.0
 20
189.6800000000000637
 10
43.0
 20
189.6800000000000637
 10
43.0
 20
195.9600000000000364
 10
40.0
 20
195.9600000000000364
 10
40.0
 20
202.2400000000000091
 10
43.0
 20
202.2400000000000091
 10
43.0
 20
208.5199999999999818
 10
40.0
 20
208.5199999999999818
 10
40.0
 20
214.8000000000000114
 10
43.0
 20
214.8000000000000114
 10
43.0
 20
221.0800000000000409
 10
40.0
 20
221.0800000000000409
 10
40.0
 20
227.3600000000000136
 10
43.0
 20
227.3600000000000136
 10
43.0
 20
233.6399999999999864
 10
40.0
 20
233.6399999999999864
 10
40.0
 20
239.9200000000000159
 10
43.0
 20
239.9200000000000159
 10
43.0
 20
246.1999999999999886
 10
40.0
 20
246.1999999999999886
 10
40.0
 20
252.4800000000000182
 10
43.0
 20
252.4800000000000182
 10
43.0
 20
258.7599999999999909
 10
40.0
 20
258.7599999999999909
 10
40.0
 20
265.0400000000000205
 10
43.0
 20
265.0400000000000205
 10
43.0
 20
271.3199999999999932
 10
40.0
 20
271.3199999999999932
 10
40.0
 20
277.6000000000000227
 10
43.0
 20
277.6000000000000227
 10
43.0
 20
283.8799999999999955
 10
40.0
 20
283.8799999999999955
 10
40.0
 20
290.1599999999999682
 10
43.0
 20
290.1599999999999682
 10
43.0
 20
296.4400000000000546
 10
39.9999999999998863
 20
296.4399999999999977
 10
40.0
 20
302.7200000000000273
 10
43.0000000000001137
 20
302.7200000000000273
 10
42.9999999999998863
 20
309.0
 10
36.8600000000000136
 20
309.0
 10
36.8600000000000136
 20
306.0
 10
30.7099999999999227
 20
306.0
 10
30.7100000000000364
 20
309.0
 10
24.57000000000005
 20
309.0
 10
24.57000000000005
 20
306.0
 10
18.4299999999998363
 20
306.0
 10
18.42999999999995
 20
309.0
 10
12.2899999999998499
 20
309.0
 10
12.2900000000000773
 20
306.0
 10
6.139999999999759
 20
306.0
 10
6.1399999999999864
 20
309.0
 10
0.0
 20
309.0
 10
0.0
 20
306.0
  0
LWPOLYLINE
  5
5D
100
AcDbEntity
  8
0
 62
256
370
-1
 48
1.0
  6
BYLAYER
100
AcDbPolyline
 90
5
 70
0
 10
77.0
 20
62.0
 10
83.0
 20
62.0
 10
83.0
 20
65.0
 10
77.0
 20
65.0
 10
77.0
 20
62.0
  0
LWPOLYLINE
  5
5E
100
AcDbEntity
  8
0
 62
256
370
-1
 48
1.0
  6
BYLAYER
100
AcDbPolyline
 90
79
 70
0
 10
47.0
 20
233.0
 10
198.0
 20
233.0
 10
201.0
 20
233.0
 10
201.0
 20
226.8600000000000136
 10
198.0
 20
226.8600000000000136
 10
198.0
 20
220.7100000000000364
 10
201.0
 20
220.7100000000000364
 10
201.0
 20
214.57000000000005
 10
198.0
 20
214.57000000000005
 10
198.0
 20
208.4300000000000637
 10
201.0
 20
208.4300000000000637
 10
201.0
 20
202.2900000000000773
 10
198.0
 20
202.2900000000000773
 10
198.0
 20
196.1399999999999864
 10
201.0
 20
196.1399999999999864
 10
201.0
 20
190.0
 10
194.7200000000000273
 20
190.0
 10
194.7200000000000273
 20
193.0
 10
188.4400000000000546
 20
193.0
 10
188.4400000000000546
 20
190.0
 10
182.1599999999999682
 20
190.0
 10
182.1599999999999682
 20
193.0
 10
175.8799999999999955
 20
193.0
 10
175.8799999999999955
 20
190.0
 10
169.6000000000000227
 20
190.0
 10
169.6000000000000227
 20
193.0
 10
163.3199999999999363
 20
193.0
 10
163.3199999999999363
 20
190.0
 10
157.0399999999999636
 20
190.0
 10
157.0399999999999636
 20
193.0
 10
150.7599999999999909
 20
193.0
 10
150.7599999999999909
 20
190.0
 10
144.4800000000000182
 20
190.0
 10
144.4800000000000182
 20
193.0
 10
138.1999999999999886
 20
193.0
 10
138.1999999999999886
 20
190.0
 10
131.9199999999999591
 20
190.0
 10
131.9199999999999591
 20
193.0
 10
125.6399999999999864
 20
193.0
 10
125.6399999999999864
 20
190.0
 10
119.3600000000000136
 20
190.0
 10
119.3600000000000136
 20
193.0
 10
113.0799999999999841
 20
193.0
 10
113.0799999999999841
 20
190.0
 10
106.8000000000000114
 20
190.0
 10
106.8000000000000114
 20
193.0
 10
100.5199999999999818
 20
193.0
 10
100.5199999999999818
 20
190.0
 10
94.2400000000000091
 20
190.0
 10
94.2400000000000091
 20
193.0
 10
87.9599999999999795
 20
193.0
 10
87.9599999999999795
 20
190.0
 10
81.6800000000000068
 20
190.0
 10
81.6800000000000068
 20
193.0
 10
75.3999999999999773
 20
193.0
 10
75.3999999999999773
 20
190.0
 10
69.1200000000000045
 20
190.0
 10
69.1200000000000045
 20
193.0
 10
62.8400000000000318
 20
193.0
 10
62.8400000000000318
 20
190.0
 10
56.5600000000000023
 20
190.0
 10
56.5600000000000023
 20
193.0
 10
50.2799999999999727
 20
193.0
 10
50.2799999999999727
 20
190.0
 10
44.0
 20
190.0
 10
44.0
 20
196.1399999999999864
 10
47.0
 20
196.1399999999999864
 10
47.0
 20
202.2900000000000773
 10
44.0
 20
202.2900000000000773
 10
44.0
 20
208.4300000000000637
 10
47.0
 20
208.4300000000000637
 10
47.0
 20
214.57000000000005
 10
44.0
 20
214.57000000000005
 10
44.0
 20
220.7100000000000364
 10
47.0
 20
220.7100000000000364
 10
47.0
 20
226.8600000000000136
 10
44.0
 20
226.8600000000000136
 10
44.0
 20
233.0
 10
47.0
 20
233.0
  0
LWPOLYLINE
  5
5F
100
AcDbEntity
  8
0
 62
256
370
-1
 48
1.0
  6
BYLAYER
100
AcDbPolyline
 90
5
 70
0
 10
89.0
 20
62.0
 10
95.0
 20
62.0
 10
95.0
 20
65.0
 10
89.0
 20
65.0
 10
89.0
 20
62.0
  0
LINE
  5
60
100
AcDbEntity
  8
0
 62
256
370
-1
 48
1.0
  6
BYLAYER
100
AcDbLine
 10
216.5
 20
237.9999999999999716
 30
0.0
 11
216.5
 21
108.9999999999999432
 31
0.0
  0
LWPOLYLINE
  5
61
100
AcDbEntity
  8
0
 62
256
370
-1
 48
1.0
  6
BYLAYER
100
AcDbPolyline
 90
5
 70
0
 10
101.0
 20
62.0
 10
107.0
 20
62.0
 10
107.0
 20
65.0
 10
101.0
 20
65.0
 10
101.0
 20
62.0
  0
LINE
  5
62
100
AcDbEntity
  8
0
 62
256
370
-1
 48
1.0
  6
BYLAYER
100
AcDbLine
 10
217.0
 20
108.4999999999999432
 30
0.0
 11
250.0
 21
108.4999999999999432
 31
0.0
  0
LWPOLYLINE
  5
63
100
AcDbEntity
  8
0
 62
256
370
-1
 48
1.0
  6
BYLAYER
100
AcDbPolyline
 90
5
 70
0
 10
113.0
 20
62.0
 10
119.0
 20
62.0
 10
119.0
 20
65.0
 10
113.0
 20
65.0
 10
113.0
 20
62.0
  0
LINE
  5
64
100
AcDbEntity
  8
0
 62
256
370
-1
 48
1.0
  6
BYLAYER
100
AcDbLine
 10
250.5
 20
108.9999999999999432
 30
0.0
 11
250.4999999999998295
 21
237.9999999999999716
 31
0.0
  0
LWPOLYLINE
  5
65
100
AcDbEntity
  8
0
 62
256
370
-1
 48
1.0
  6
BYLAYER
100
AcDbPolyline
 90
5
 70
0
 10
125.0
 20
62.0
 10
131.0
 20
62.0
 10
131.0
 20
65.0
 10
125.0
 20
65.0
 10
125.0
 20
62.0
  0
LINE
  5
66
100
AcDbEntity
  8
0
 62
256
370
-1
 48
1.0
  6
BYLAYER
100
AcDbLine
 10
250.0000000000000284
 20
238.4999999999999716
 30
0.0
 11
217.0000000000000568
 21
238.4999999999999716
 31
0.0
  0
LWPOLYLINE
  5
67
100
AcDbEntity
  8
0
 62
256
370
-1
 48
1.0
  6
BYLAYER
100
AcDbPolyline
 90
5
 70
0
 10
137.0
 20
62.0
 10
143.0
 20
62.0
 10
143.0
 20
65.0
 10
137.0
 20
65.0
 10
137.0
 20
62.0
  0
ARC
  5
68
100
AcDbEntity
  8
0
 62
256
370
-1
 48
1.0
  6
BYLAYER
100
AcDbCircle
 10
217.0
 20
108.9999999999999432
 30
0.0
 40
0.5
100
AcDbArc
 50
179.99999999999838
 51
270.0
  0
LWPOLYLINE
  5
69
100
AcDbEntity
  8
0
 62
256
370
-1
 48
1.0
  6
BYLAYER
100
AcDbPolyline
 90
5
 70
0
 10
149.0
 20
62.0
 10
155.0
 20
62.0
 10
155.0
 20
65.0
 10
149.0
 20
65.0
 10
149.0
 20
62.0
  0
ARC
  5
6A
100
AcDbEntity
  8
0
 62
256
370
-1
 48
1.0
  6
BYLAYER
100
AcDbCircle
 10
217.0000000000000284
 20
237.9999999999999716
 30
0.0
 40
0.5
100
AcDbArc
 50
90.0
 51
180.0
  0
LWPOLYLINE
  5
6B
100
AcDbEntity
  8
0
 62
256
370
-1
 48
1.0
  6
BYLAYER
100
AcDbPolyline
 90
5
 70
0
 10
161.0
 20
62.0
 10
167.0
 20
62.0
 10
167.0
 20
65.0
 10
161.0
 20
65.0
 10
161.0
 20
62.0
  0
ARC
  5
6C
100
AcDbEntity
  8
0
 62
256
370
-1
 48
1.0
  6
BYLAYER
100
AcDbCircle
 10
250.0000000000000284
 20
237.9999999999999716
 30
0.0
 40
0.5
100
AcDbArc
 50
0.0
 51
90.0
  0
LWPOLYLINE
  5
6D
100
AcDbEntity
  8
0
 62
256
370
-1
 48
1.0
  6
BYLAYER
100
AcDbPolyline
 90
5
 70
0
 10
173.0
 20
62.0
 10
179.0
 20
62.0
 10
179.0
 20
65.0
 10
173.0
 20
65.0
 10
173.0
 20
62.0
  0
ARC
  5
6E
100
AcDbEntity
  8
0
 62
256
370
-1
 48
1.0
  6
BYLAYER
100
AcDbCircle
 10
250.0
 20
108.9999999999999432
 30
0.0
 40
0.5
100
AcDbArc
 50
270.0
 51
0.0
  0
LWPOLYLINE
  5
6F
100
AcDbEntity
  8
0
 62
256
370
-1
 48
1.0
  6
BYLAYER
100
AcDbPolyline
 90
5
 70
0
 10
185.0
 20
62.0
 10
191.0
 20
62.0
 10
191.0
 20
65.0
 10
185.0
 20
65.0
 10
185.0
 20
62.0
  0
LINE
  5
70
100
AcDbEntity
  8
0
 62
256
370
-1
 48
1.0
  6
BYLAYER
100
AcDbLine
 10
56.5218152745382554
 20
265.7100000000000364
 30
0.0
 11
56.5218152745382554
 21
259.5699999999999932
 31
0.0
  0
LWPOLYLINE
  5
71
100
AcDbEntity
  8
0
 62
256
370
-1
 48
1.0
  6
BYLAYER
100
AcDbPolyline
 90
131
 70
0
 10
56.0
 20
-0.0000000000000018
 10
62.2599999999999909
 20
-0.0000000000000018
 10
62.2599999999999909
 20
2.9999999999999982
 10
68.519999999999996
 20
2.9999999999999982
 10
68.519999999999996
 20
-0.0000000000000018
 10
74.7800000000000011
 20
-0.0000000000000018
 10
74.7800000000000011
 20
2.9999999999999982
 10
81.0400000000000063
 20
2.9999999999999982
 10
81.0400000000000063
 20
-0.0000000000000018
 10
87.2999999999999972
 20
-0.0000000000000018
 10
87.2999999999999972
 20
2.9999999999999982
 10
93.5600000000000023
 20
2.9999999999999982
 10
93.5600000000000023
 20
-0.0000000000000018
 10
99.8299999999999983
 20
-0.0000000000000018
 10
99.8299999999999983
 20
2.9999999999999982
 10
106.0900000000000034
 20
2.9999999999999982
 10
106.0900000000000034
 20
-0.0000000000000018
 10
112.3499999999999943
 20
-0.0000000000000018
 10
112.3499999999999943
 20
2.9999999999999982
 10
118.6099999999999994
 20
2.9999999999999982
 10
118.6099999999999994
 20
-0.0000000000000018
 10
124.8700000000000045
 20
-0.0000000000000018
 10
124.8700000000000045
 20
2.9999999999999982
 10
131.1299999999999955
 20
2.9999999999999982
 10
131.1299999999999955
 20
-0.0000000000000018
 10
137.3899999999999864
 20
-0.0000000000000018
 10
137.3899999999999864
 20
2.9999999999999982
 10
143.6500000000000057
 20
2.9999999999999982
 10
143.6500000000000057
 20
-0.0000000000000018
 10
149.9099999999999966
 20
-0.0000000000000018
 10
149.9099999999999966
 20
2.9999999999999982
 10
156.1699999999999875
 20
2.9999999999999982
 10
156.1699999999999875
 20
-0.0000000000000018
 10
162.4399999999999977
 20
-0.0000000000000018
 10
162.4399999999999977
 20
2.9999999999999982
 10
168.6999999999999886
 20
2.9999999999999982
 10
168.6999999999999886
 20
-0.0000000000000018
 10
174.960000000000008
 20
-0.0000000000000018
 10
174.960000000000008
 20
2.9999999999999982
 10
181.2199999999999989
 20
2.9999999999999982
 10
181.2199999999999989
 20
-0.0000000000000018
 10
187.4799999999999898
 20
-0.0000000000000018
 10
187.4799999999999898
 20
2.9999999999999982
 10
193.7400000000000091
 20
2.9999999999999982
 10
193.7400000000000091
 20
-0.0000000000000018
 10
200.0
 20
-0.0000000000000018
 10
203.0
 20
-0.0000000000000018
 10
203.0
 20
5.5600000000000005
 10
200.0
 20
5.5600000000000005
 10
200.0
 20
11.1099999999999977
 10
203.0
 20
11.1099999999999977
 10
203.0
 20
16.6700000000000017
 10
200.0
 20
16.6700000000000017
 10
200.0
 20
22.2199999999999989
 10
203.0
 20
22.2199999999999989
 10
203.0
 20
27.7800000000000011
 10
200.0
 20
27.7800000000000011
 10
200.0
 20
33.3299999999999983
 10
203.0
 20
33.3299999999999983
 10
203.0
 20
38.8900000000000006
 10
200.0
 20
38.8900000000000006
 10
200.0
 20
44.4399999999999977
 10
203.0
 20
44.4399999999999977
 10
203.0
 20
50.0
 10
197.0
 20
50.0
 10
197.0
 20
47.0
 10
191.0
 20
47.0
 10
191.0
 20
50.0
 10
185.0
 20
50.0
 10
185.0
 20
47.0
 10
179.0
 20
47.0
 10
179.0
 20
50.0
 10
173.0
 20
50.0
 10
173.0
 20
47.0
 10
167.0
 20
47.0
 10
167.0
 20
50.0
 10
161.0
 20
50.0
 10
161.0
 20
47.0
 10
155.0
 20
47.0
 10
155.0
 20
50.0
 10
149.0
 20
50.0
 10
149.0
 20
47.0
 10
143.0
 20
47.0
 10
143.0
 20
50.0
 10
137.0
 20
50.0
 10
137.0
 20
47.0
 10
131.0
 20
47.0
 10
131.0
 20
50.0
 10
125.0
 20
50.0
 10
125.0
 20
47.0
 10
119.0
 20
47.0
 10
119.0
 20
50.0
 10
113.0
 20
50.0
 10
113.0
 20
47.0
 10
107.0
 20
47.0
 10
107.0
 20
50.0
 10
101.0
 20
50.0
 10
101.0
 20
47.0
 10
95.0
 20
47.0
 10
95.0
 20
50.0
 10
89.0
 20
50.0
 10
89.0
 20
47.0
 10
83.0
 20
47.0
 10
83.0
 20
50.0
 10
77.0
 20
50.0
 10
77.0
 20
47.0
 10
71.0
 20
47.0
 10
71.0
 20
50.0
 10
65.0
 20
50.0
 10
65.0
 20
47.0
 10
59.0
 20
47.0
 10
59.0
 20
50.0
 10
53.0
 20
50.0
 10
53.0
 20
44.4399999999999977
 10
56.0
 20
44.4399999999999977
 10
56.0
 20
38.8900000000000006
 10
53.0
 20
38.8900000000000006
 10
53.0
 20
33.3299999999999983
 10
56.0
 20
33.3299999999999983
 10
56.0
 20
27.7800000000000011
 10
53.0
 20
27.7800000000000011
 10
53.0
 20
22.2199999999999989
 10
56.0
 20
22.2199999999999989
 10
56.0
 20
16.6700000000000017
 10
53.0
 20
16.6700000000000017
 10
53.0
 20
11.1099999999999977
 10
56.0
 20
11.1099999999999977
 10
56.0
 20
5.5600000000000005
 10
53.0
 20
5.5600000000000005
 10
53.0
 20
-0.0000000000000018
 10
56.0
 20
-0.0000000000000018
  0
LINE
  5
72
100
AcDbEntity
  8
0
 62
256
370
-1
 48
1.0
  6
BYLAYER
100
AcDbLine
 10
56.5218152745382554
 20
253.4300000000000068
 30
0.0
 11
56.5218152745382554
 21
247.2900000000000205
 31
0.0
  0
LWPOLYLINE
  5
73
100
AcDbEntity
  8
0
 62
256
370
-1
 48
1.0
  6
BYLAYER
100
AcDbPolyline
 90
131
 70
0
 10
56.0
 20
146.0
 10
62.2599999999999909
 20
146.0
 10
62.2599999999999909
 20
143.0
 10
68.519999999999996
 20
143.0
 10
68.519999999999996
 20
146.0
 10
74.7800000000000011
 20
146.0
 10
74.7800000000000011
 20
143.0
 10
81.0400000000000063
 20
143.0
 10
81.0400000000000063
 20
146.0
 10
87.2999999999999972
 20
146.0
 10
87.2999999999999972
 20
143.0
 10
93.5600000000000023
 20
143.0
 10
93.5600000000000023
 20
146.0
 10
99.8299999999999983
 20
146.0
 10
99.8299999999999983
 20
143.0
 10
106.0900000000000034
 20
143.0
 10
106.0900000000000034
 20
146.0
 10
112.3499999999999943
 20
146.0
 10
112.3499999999999943
 20
143.0
 10
118.6099999999999994
 20
143.0
 10
118.6099999999999994
 20
146.0
 10
124.8700000000000045
 20
146.0
 10
124.8700000000000045
 20
143.0
 10
131.1299999999999955
 20
143.0
 10
131.1299999999999955
 20
146.0
 10
137.3899999999999864
 20
146.0
 10
137.3899999999999864
 20
143.0
 10
143.6500000000000057
 20
143.0
 10
143.6500000000000057
 20
146.0
 10
149.9099999999999966
 20
146.0
 10
149.9099999999999966
 20
143.0
 10
156.1699999999999875
 20
143.0
 10
156.1699999999999875
 20
146.0
 10
162.4399999999999977
 20
146.0
 10
162.4399999999999977
 20
143.0
 10
168.6999999999999886
 20
143.0
 10
168.6999999999999886
 20
146.0
 10
174.960000000000008
 20
146.0
 10
174.960000000000008
 20
143.0
 10
181.2199999999999989
 20
143.0
 10
181.2199999999999989
 20
146.0
 10
187.4799999999999898
 20
146.0
 10
187.4799999999999898
 20
143.0
 10
193.7400000000000091
 20
143.0
 10
193.7400000000000091
 20
146.0
 10
200.0
 20
146.0
 10
203.0
 20
146.0
 10
203.0
 20
140.4399999999999977
 10
200.0
 20
140.4399999999999977
 10
200.0
 20
134.8899999999999864
 10
203.0
 20
134.8899999999999864
 10
203.0
 20
129.3300000000000125
 10
200.0
 20
129.3300000000000125
 10
200.0
 20
123.7800000000000011
 10
203.0
 20
123.7800000000000011
 10
203.0
 20
118.2199999999999989
 10
200.0
 20
118.2199999999999989
 10
200.0
 20
112.6700000000000017
 10
203.0
 20
112.6700000000000017
 10
203.0
 20
107.1099999999999994
 10
200.0
 20
107.1099999999999994
 10
200.0
 20
101.5600000000000023
 10
203.0
 20
101.5600000000000023
 10
203.0
 20
96.0
 10
197.0
 20
96.0
 10
197.0
 20
99.0
 10
191.0
 20
99.0
 10
191.0
 20
96.0
 10
185.0
 20
96.0
 10
185.0
 20
99.0
 10
179.0
 20
99.0
 10
179.0
 20
96.0
 10
173.0
 20
96.0
 10
173.0
 20
99.0
 10
167.0
 20
99.0
 10
167.0
 20
96.0
 10
161.0
 20
96.0
 10
161.0
 20
99.0
 10
155.0
 20
99.0
 10
155.0
 20
96.0
 10
149.0
 20
96.0
 10
149.0
 20
99.0
 10
143.0
 20
99.0
 10
143.0
 20
96.0
 10
137.0
 20
96.0
 10
137.0
 20
99.0
 10
131.0
 20
99.0
 10
131.0
 20
96.0
 10
125.0
 20
96.0
 10
125.0
 20
99.0
 10
119.0
 20
99.0
 10
119.0
 20
96.0
 10
113.0
 20
96.0
 10
113.0
 20
99.0
 10
107.0
 20
99.0
 10
107.0
 20
96.0
 10
101.0
 20
96.0
 10
101.0
 20
99.0
 10
95.0
 20
99.0
 10
95.0
 20
96.0
 10
89.0
 20
96.0
 10
89.0
 20
99.0
 10
83.0
 20
99.0
 10
83.0
 20
96.0
 10
77.0
 20
96.0
 10
77.0
 20
99.0
 10
71.0
 20
99.0
 10
71.0
 20
96.0
 10
65.0
 20
96.0
 10
65.0
 20
99.0
 10
59.0
 20
99.0
 10
59.0
 20
96.0
 10
53.0
 20
96.0
 10
53.0
 20
101.5600000000000023
 10
56.0
 20
101.5600000000000023
 10
56.0
 20
107.1099999999999994
 10
53.0
 20
107.1099999999999994
 10
53.0
 20
112.6700000000000017
 10
56.0
 20
112.6700000000000017
 10
56.0
 20
118.2199999999999989
 10
53.0
 20
118.2199999999999989
 10
53.0
 20
123.7800000000000011
 10
56.0
 20
123.7800000000000011
 10
56.0
 20
129.3300000000000125
 10
53.0
 20
129.3300000000000125
 10
53.0
 20
134.8899999999999864
 10
56.0
 20
134.8899999999999864
 10
56.0
 20
140.4399999999999977
 10
53.0
 20
140.4399999999999977
 10
53.0
 20
146.0
 10
56.0
 20
146.0
  0
LINE
  5
74
100
AcDbEntity
  8
0
 62
256
370
-1
 48
1.0
  6
BYLAYER
100
AcDbLine
 10
56.5218152745382554
 20
241.1399999999999864
 30
0.0
 11
56.5218152745382554
 21
235.0
 31
0.0
  0
LWPOLYLINE
  5
75
100
AcDbEntity
  8
0
 62
256
370
-1
 48
1.0
  6
BYLAYER
100
AcDbPolyline
 90
53
 70
0
 10
206.0
 20
2.9999999999999982
 10
206.0
 20
9.7999999999999812
 10
209.0
 20
9.7999999999999812
 10
209.0
 20
16.5999999999999943
 10
206.0
 20
16.5999999999999943
 10
206.0
 20
23.4000000000000057
 10
209.0
 20
23.4000000000000057
 10
209.0
 20
30.1999999999999886
 10
206.0
 20
30.1999999999999886
 10
206.0
 20
36.9999999999999929
 10
211.5600000000000023
 20
36.9999999999999929
 10
211.5600000000000023
 20
39.9999999999999929
 10
217.1100000000000136
 20
39.9999999999999929
 10
217.1100000000000136
 20
36.9999999999999929
 10
222.6700000000000159
 20
36.9999999999999929
 10
222.6700000000000159
 20
39.9999999999999929
 10
228.2199999999999989
 20
39.9999999999999929
 10
228.2199999999999989
 20
36.9999999999999929
 10
233.7800000000000011
 20
36.9999999999999929
 10
233.7800000000000011
 20
39.9999999999999929
 10
239.3299999999999841
 20
39.9999999999999929
 10
239.3299999999999841
 20
36.9999999999999929
 10
244.8899999999999864
 20
36.9999999999999929
 10
244.8899999999999864
 20
39.9999999999999929
 10
250.4399999999999977
 20
39.9999999999999929
 10
250.4399999999999977
 20
36.9999999999999929
 10
256.0
 20
36.9999999999999929
 10
256.0
 20
30.1999999999999886
 10
253.0
 20
30.1999999999999886
 10
253.0
 20
23.4000000000000057
 10
256.0
 20
23.4000000000000057
 10
256.0
 20
16.5999999999999943
 10
253.0
 20
16.5999999999999943
 10
253.0
 20
9.7999999999999812
 10
256.0
 20
9.7999999999999812
 10
256.0
 20
2.9999999999999982
 10
250.4399999999999977
 20
2.9999999999999982
 10
250.4399999999999977
 20
-0.0000000000000018
 10
244.8899999999999864
 20
-0.0000000000000018
 10
244.8899999999999864
 20
2.9999999999999982
 10
239.3299999999999841
 20
2.9999999999999982
 10
239.3299999999999841
 20
-0.0000000000000018
 10
233.7800000000000011
 20
-0.0000000000000018
 10
233.7800000000000011
 20
2.9999999999999982
 10
228.2199999999999989
 20
2.9999999999999982
 10
228.2199999999999989
 20
-0.0000000000000018
 10
222.6700000000000159
 20
-0.0000000000000018
 10
222.6700000000000159
 20
2.9999999999999982
 10
217.1100000000000136
 20
2.9999999999999982
 10
217.1100000000000136
 20
-0.0000000000000018
 10
211.5600000000000023
 20
-0.0000000000000018
 10
211.5600000000000023
 20
2.9999999999999982
 10
206.0
 20
2.9999999999999982
  0
LINE
  5
76
100
AcDbEntity
  8
0
 62
256
370
-1
 48
1.0
  6
BYLAYER
100
AcDbLine
 10
172.4781847254620288
 20
265.7099999999999227
 30
0.0
 11
172.4781847254620288
 21
259.5699999999999363
 31
0.0
  0
LWPOLYLINE
  5
77
100
AcDbEntity
  8
0
 62
256
370
-1
 48
1.0
  6
BYLAYER
100
AcDbPolyline
 90
5
 70
0
 10
217.1100000000000136
 20
8.9999999999999698
 10
222.6700000000000159
 20
8.9999999999999698
 10
222.6700000000000159
 20
11.9999999999999698
 10
217.1100000000000136
 20
11.9999999999999698
 10
217.1100000000000136
 20
8.9999999999999698
  0
LINE
  5
78
100
AcDbEntity
  8
0
 62
256
370
-1
 48
1.0
  6
BYLAYER
100
AcDbLine
 10
172.478184725461972
 20
253.4299999999998647
 30
0.0
 11
172.4781847254618015
 21
247.2900000000000489
 31
0.0
  0
LWPOLYLINE
  5
79
100
AcDbEntity
  8
0
 62
256
370
-1
 48
1.0
  6
BYLAYER
100
AcDbPolyline
 90
5
 70
0
 10
228.2199999999999989
 20
8.9999999999999698
 10
233.7800000000000011
 20
8.9999999999999698
 10
233.7800000000000011
 20
11.9999999999999698
 10
228.2199999999999989
 20
11.9999999999999698
 10
228.2199999999999989
 20
8.9999999999999698
  0
LINE
  5
7A
100
AcDbEntity
  8
0
 62
256
370
-1
 48
1.0
  6
BYLAYER
100
AcDbLine
 10
172.4781847254620857
 20
241.1399999999999011
 30
0.0
 11
172.4781847254618583
 21
234.9999999999999432
 31
0.0
  0
LWPOLYLINE
  5
7B
100
AcDbEntity
  8
0
 62
256
370
-1
 48
1.0
  6
BYLAYER
100
AcDbPolyline
 90
5
 70
0
 10
239.3299999999999841
 20
8.9999999999999698
 10
244.8899999999999864
 20
8.9999999999999698
 10
244.8899999999999864
 20
11.9999999999999698
 10
239.3299999999999841
 20
11.9999999999999698
 10
239.3299999999999841
 20
8.9999999999999698
  0
LINE
  5
7C
100
AcDbEntity
  8
0
 62
256
370
-1
 48
1.0
  6
BYLAYER
100
AcDbLine
 10
59.5218152745382554
 20
278.0
 30
0.0
 11
59.5218152745382554
 21
271.8600000000000136
 31
0.0
  0
LWPOLYLINE
  5
7D
100
AcDbEntity
  8
0
 62
256
370
-1
 48
1.0
  6
BYLAYER
100
AcDbPolyline
 90
53
 70
0
 10
256.0
 20
56.0
 10
256.0
 20
62.7999999999999972
 10
253.0
 20
62.7999999999999972
 10
253.0
 20
69.5999999999999943
 10
256.0
 20
69.5999999999999943
 10
256.0
 20
76.4000000000000057
 10
253.0
 20
76.4000000000000057
 10
253.0
 20
83.2000000000000028
 10
256.0
 20
83.2000000000000028
 10
256.0
 20
90.0
 10
250.4399999999999977
 20
90.0
 10
250.4399999999999977
 20
93.0
 10
244.8899999999999864
 20
93.0
 10
244.8899999999999864
 20
90.0
 10
239.3300000000000125
 20
90.0
 10
239.3300000000000125
 20
93.0
 10
233.7800000000000011
 20
93.0
 10
233.7800000000000011
 20
90.0
 10
228.2199999999999989
 20
90.0
 10
228.2199999999999989
 20
93.0
 10
222.6699999999999875
 20
93.0
 10
222.6699999999999875
 20
90.0
 10
217.1100000000000136
 20
90.0
 10
217.1100000000000136
 20
93.0
 10
211.5600000000000023
 20
93.0
 10
211.5600000000000023
 20
90.0
 10
206.0
 20
90.0
 10
206.0
 20
83.2000000000000028
 10
209.0
 20
83.2000000000000028
 10
209.0
 20
76.4000000000000057
 10
206.0
 20
76.4000000000000057
 10
206.0
 20
69.5999999999999943
 10
209.0
 20
69.5999999999999943
 10
209.0
 20
62.7999999999999972
 10
206.0
 20
62.7999999999999972
 10
206.0
 20
56.0
 10
211.5600000000000023
 20
56.0
 10
211.5600000000000023
 20
53.0
 10
217.1100000000000136
 20
53.0
 10
217.1100000000000136
 20
56.0
 10
222.6699999999999875
 20
56.0
 10
222.6699999999999875
 20
53.0
 10
228.2199999999999989
 20
53.0
 10
228.2199999999999989
 20
56.0
 10
233.7800000000000011
 20
56.0
 10
233.7800000000000011
 20
53.0
 10
239.3300000000000125
 20
53.0
 10
239.3300000000000125
 20
56.0
 10
244.8899999999999864
 20
56.0
 10
244.8899999999999864
 20
53.0
 10
250.4399999999999977
 20
53.0
 10
250.4399999999999977
 20
56.0
 10
256.0
 20
56.0
  0
LINE
  5
7E
100
AcDbEntity
  8
0
 62
256
370
-1
 48
1.0
  6
BYLAYER
100
AcDbLine
 10
169.478184725461972
 20
277.9999999999998863
 30
0.0
 11
169.4781847254619151
 21
271.8599999999999
 31
0.0
  0
LWPOLYLINE
  5
7F
100
AcDbEntity
  8
0
 62
256
370
-1
 48
1.0
  6
BYLAYER
100
AcDbPolyline
 90
5
 70
0
 10
244.8899999999999864
 20
62.0
 10
239.3300000000000125
 20
62.0
 10
239.3300000000000125
 20
65.0
 10
244.8899999999999864
 20
65.0
 10
244.8899999999999864
 20
62.0
  0
LINE
  5
80
100
AcDbEntity
  8
0
 62
256
370
-1
 48
1.0
  6
BYLAYER
100
AcDbLine
 10
59.5218152745382554
 20
271.8600000000000136
 30
0.0
 11
54.8766072330111854
 21
271.8600000000000136
 31
0.0
  0
LWPOLYLINE
  5
81
100
AcDbEntity
  8
0
 62
256
370
-1
 48
1.0
  6
BYLAYER
100
AcDbPolyline
 90
5
 70
0
 10
233.7800000000000011
 20
62.0
 10
228.2199999999999989
 20
62.0
 10
228.2199999999999989
 20
65.0
 10
233.7800000000000011
 20
65.0
 10
233.7800000000000011
 20
62.0
  0
LINE
  5
82
100
AcDbEntity
  8
0
 62
256
370
-1
 48
1.0
  6
BYLAYER
100
AcDbLine
 10
169.4781847254619151
 20
271.8599999999999
 30
0.0
 11
174.1233927669883883
 21
271.8599999999999
 31
0.0
  0
LWPOLYLINE
  5
83
100
AcDbEntity
  8
0
 62
256
370
-1
 48
1.0
  6
BYLAYER
100
AcDbPolyline
 90
5
 70
0
 10
222.6699999999999875
 20
62.0
 10
217.1100000000000136
 20
62.0
 10
217.1100000000000136
 20
65.0
 10
222.6699999999999875
 20
65.0
 10
222.6699999999999875
 20
62.0
  0
LINE
  5
84
100
AcDbEntity
  8
0
 62
256
370
-1
 48
1.0
  6
BYLAYER
100
AcDbLine
 10
59.5218152745382554
 20
265.7100000000000364
 30
0.0
 11
56.5218152745382554
 21
265.7100000000000364
 31
0.0
  0
LWPOLYLINE
  5
85
100
AcDbEntity
  8
0
 62
256
370
-1
 48
1.0
  6
BYLAYER
100
AcDbPolyline
 90
109
 70
0
 10
56.0
 20
152.0
 10
62.2599999999999909
 20
152.0
 10
62.2599999999999909
 20
149.0
 10
68.519999999999996
 20
149.0
 10
68.519999999999996
 20
152.0
 10
74.7800000000000011
 20
152.0
 10
74.7800000000000011
 20
149.0
 10
81.0400000000000063
 20
149.0
 10
81.0400000000000063
 20
152.0
 10
87.2999999999999972
 20
152.0
 10
87.2999999999999972
 20
149.0
 10
93.5600000000000023
 20
149.0
 10
93.5600000000000023
 20
152.0
 10
99.8299999999999983
 20
152.0
 10
99.8299999999999983
 20
149.0
 10
106.0900000000000034
 20
149.0
 10
106.0900000000000034
 20
152.0
 10
112.3499999999999943
 20
152.0
 10
112.3499999999999943
 20
149.0
 10
118.6099999999999994
 20
149.0
 10
118.6099999999999994
 20
152.0
 10
124.8700000000000045
 20
152.0
 10
124.8700000000000045
 20
149.0
 10
131.1299999999999955
 20
149.0
 10
131.1299999999999955
 20
152.0
 10
137.3899999999999864
 20
152.0
 10
137.3899999999999864
 20
149.0
 10
143.6500000000000057
 20
149.0
 10
143.6500000000000057
 20
152.0
 10
149.9099999999999966
 20
152.0
 10
149.9099999999999966
 20
149.0
 10
156.1699999999999875
 20
149.0
 10
156.1699999999999875
 20
152.0
 10
162.4399999999999977
 20
152.0
 10
162.4399999999999977
 20
149.0
 10
168.6999999999999886
 20
149.0
 10
168.6999999999999886
 20
152.0
 10
174.960000000000008
 20
152.0
 10
174.960000000000008
 20
149.0
 10
181.2199999999999989
 20
149.0
 10
181.2199999999999989
 20
152.0
 10
187.4799999999999898
 20
152.0
 10
187.4799999999999898
 20
149.0
 10
193.7400000000000091
 20
149.0
 10
193.7400000000000091
 20
152.0
 10
200.0
 20
152.0
 10
200.0
 20
158.8000000000000114
 10
203.0
 20
158.8000000000000114
 10
203.0
 20
165.5999999999999943
 10
200.0
 20
165.5999999999999943
 10
200.0
 20
172.4000000000000057
 10
203.0
 20
172.4000000000000057
 10
203.0
 20
179.1999999999999886
 10
200.0
 20
179.1999999999999886
 10
200.0
 20
186.0
 10
193.7400000000000091
 20
186.0
 10
193.7400000000000091
 20
189.0
 10
187.4799999999999898
 20
189.0
 10
187.4799999999999898
 20
186.0
 10
181.2199999999999989
 20
186.0
 10
181.2199999999999989
 20
189.0
 10
174.960000000000008
 20
189.0
 10
174.960000000000008
 20
186.0
 10
168.6999999999999886
 20
186.0
 10
168.6999999999999886
 20
189.0
 10
162.4399999999999977
 20
189.0
 10
162.4399999999999977
 20
186.0
 10
156.1699999999999875
 20
186.0
 10
156.1699999999999875
 20
189.0
 10
149.9099999999999966
 20
189.0
 10
149.9099999999999966
 20
186.0
 10
143.6500000000000057
 20
186.0
 10
143.6500000000000057
 20
189.0
 10
137.3899999999999864
 20
189.0
 10
137.3899999999999864
 20
186.0
 10
131.1299999999999955
 20
186.0
 10
131.1299999999999955
 20
189.0
 10
124.8700000000000045
 20
189.0
 10
124.8700000000000045
 20
186.0
 10
118.6099999999999994
 20
186.0
 10
118.6099999999999994
 20
189.0
 10
112.3499999999999943
 20
189.0
 10
112.3499999999999943
 20
186.0
 10
106.0900000000000034
 20
186.0
 10
106.0900000000000034
 20
189.0
 10
99.8299999999999983
 20
189.0
 10
99.8299999999999983
 20
186.0
 10
93.5600000000000023
 20
186.0
 10
93.5600000000000023
 20
189.0
 10
87.2999999999999972
 20
189.0
 10
87.2999999999999972
 20
186.0
 10
81.0400000000000063
 20
186.0
 10
81.0400000000000063
 20
189.0
 10
74.7800000000000011
 20
189.0
 10
74.7800000000000011
 20
186.0
 10
68.519999999999996
 20
186.0
 10
68.519999999999996
 20
189.0
 10
62.2599999999999909
 20
189.0
 10
62.2599999999999909
 20
186.0
 10
56.0
 20
186.0
 10
56.0
 20
179.1999999999999886
 10
53.0
 20
179.1999999999999886
 10
53.0
 20
172.4000000000000057
 10
56.0
 20
172.4000000000000057
 10
56.0
 20
165.5999999999999943
 10
53.0
 20
165.5999999999999943
 10
53.0
 20
158.8000000000000114
 10
56.0
 20
158.8000000000000114
 10
56.0
 20
152.0
  0
LINE
  5
86
100
AcDbEntity
  8
0
 62
256
370
-1
 48
1.0
  6
BYLAYER
100
AcDbLine
 10
169.478184725461972
 20
265.7099999999999227
 30
0.0
 11
172.4781847254620288
 21
265.7099999999999227
 31
0.0
  0
LWPOLYLINE
  5
87
100
AcDbEntity
  8
0
 62
256
370
-1
 48
1.0
  6
BYLAYER
100
AcDbPolyline
 90
5
 70
0
 10
65.0
 20
158.0
 10
71.0
 20
158.0
 10
71.0
 20
161.0
 10
65.0
 20
161.0
 10
65.0
 20
158.0
  0
LINE
  5
88
100
AcDbEntity
  8
0
 62
256
370
-1
 48
1.0
  6
BYLAYER
100
AcDbLine
 10
59.5218152745382554
 20
265.7100000000000364
 30
0.0
 11
59.5218152745382554
 21
259.5699999999999932
 31
0.0
  0
LWPOLYLINE
  5
89
100
AcDbEntity
  8
0
 62
256
370
-1
 48
1.0
  6
BYLAYER
100
AcDbPolyline
 90
5
 70
0
 10
77.0
 20
158.0
 10
83.0
 20
158.0
 10
83.0
 20
161.0
 10
77.0
 20
161.0
 10
77.0
 20
158.0
  0
LINE
  5
8A
100
AcDbEntity
  8
0
 62
256
370
-1
 48
1.0
  6
BYLAYER
100
AcDbLine
 10
169.478184725461972
 20
265.7099999999999227
 30
0.0
 11
169.4781847254618015
 21
259.5699999999999363
 31
0.0
  0
LWPOLYLINE
  5
8B
100
AcDbEntity
  8
0
 62
256
370
-1
 48
1.0
  6
BYLAYER
100
AcDbPolyline
 90
5
 70
0
 10
89.0
 20
158.0
 10
95.0
 20
158.0
 10
95.0
 20
161.0
 10
89.0
 20
161.0
 10
89.0
 20
158.0
  0
LINE
  5
8C
100
AcDbEntity
  8
0
 62
256
370
-1
 48
1.0
  6
BYLAYER
100
AcDbLine
 10
59.5218152745382554
 20
259.5699999999999932
 30
0.0
 11
56.5218152745382554
 21
259.5699999999999932
 31
0.0
  0
LWPOLYLINE
  5
8D
100
AcDbEntity
  8
0
 62
256
370
-1
 48
1.0
  6
BYLAYER
100
AcDbPolyline
 90
5
 70
0
 10
101.0
 20
158.0
 10
107.0
 20
158.0
 10
107.0
 20
161.0
 10
101.0
 20
161.0
 10
101.0
 20
158.0
  0
LINE
  5
8E
100
AcDbEntity
  8
0
 62
256
370
-1
 48
1.0
  6
BYLAYER
100
AcDbLine
 10
169.4781847254618015
 20
259.5699999999999363
 30
0.0
 11
172.4781847254620288
 21
259.5699999999999363
 31
0.0
  0
LWPOLYLINE
  5
8F
100
AcDbEntity
  8
0
 62
256
370
-1
 48
1.0
  6
BYLAYER
100
AcDbPolyline
 90
5
 70
0
 10
113.0
 20
158.0
 10
119.0
 20
158.0
 10
119.0
 20
161.0
 10
113.0
 20
161.0
 10
113.0
 20
158.0
  0
LINE
  5
90
100
AcDbEntity
  8
0
 62
256
370
-1
 48
1.0
  6
BYLAYER
100
AcDbLine
 10
56.5218152745382554
 20
253.4300000000000068
 30
0.0
 11
59.5218152745382554
 21
253.4300000000000068
 31
0.0
  0
LWPOLYLINE
  5
91
100
AcDbEntity
  8
0
 62
256
370
-1
 48
1.0
  6
BYLAYER
100
AcDbPolyline
 90
5
 70
0
 10
125.0
 20
158.0
 10
131.0
 20
158.0
 10
131.0
 20
161.0
 10
125.0
 20
161.0
 10
125.0
 20
158.0
  0
LINE
  5
92
100
AcDbEntity
  8
0
 62
256
370
-1
 48
1.0
  6
BYLAYER
100
AcDbLine
 10
172.478184725461972
 20
253.4299999999998647
 30
0.0
 11
169.478184725461972
 21
253.4299999999999216
 31
0.0
  0
LWPOLYLINE
  5
93
100
AcDbEntity
  8
0
 62
256
370
-1
 48
1.0
  6
BYLAYER
100
AcDbPolyline
 90
5
 70
0
 10
137.0
 20
158.0
 10
143.0
 20
158.0
 10
143.0
 20
161.0
 10
137.0
 20
161.0
 10
137.0
 20
158.0
  0
LINE
  5
94
100
AcDbEntity
  8
0
 62
256
370
-1
 48
1.0
  6
BYLAYER
100
AcDbLine
 10
59.5218152745382554
 20
253.4300000000000068
 30
0.0
 11
59.5218152745382554
 21
247.2899999999999636
 31
0.0
  0
LWPOLYLINE
  5
95
100
AcDbEntity
  8
0
 62
256
370
-1
 48
1.0
  6
BYLAYER
100
AcDbPolyline
 90
5
 70
0
 10
149.0
 20
158.0
 10
155.0
 20
158.0
 10
155.0
 20
161.0
 10
149.0
 20
161.0
 10
149.0
 20
158.0
  0
LINE
  5
96
100
AcDbEntity
  8
0
 62
256
370
-1
 48
1.0
  6
BYLAYER
100
AcDbLine
 10
169.478184725461972
 20
253.4299999999999216
 30
0.0
 11
169.4781847254618583
 21
247.2899999999998784
 31
0.0
  0
LWPOLYLINE
  5
97
100
AcDbEntity
  8
0
 62
256
370
-1
 48
1.0
  6
BYLAYER
100
AcDbPolyline
 90
5
 70
0
 10
161.0
 20
158.0
 10
167.0
 20
158.0
 10
167.0
 20
161.0
 10
161.0
 20
161.0
 10
161.0
 20
158.0
  0
LINE
  5
98
100
AcDbEntity
  8
0
 62
256
370
-1
 48
1.0
  6
BYLAYER
100
AcDbLine
 10
59.5218152745382554
 20
247.2899999999999636
 30
0.0
 11
56.5218152745382554
 21
247.2900000000000205
 31
0.0
  0
LWPOLYLINE
  5
99
100
AcDbEntity
  8
0
 62
256
370
-1
 48
1.0
  6
BYLAYER
100
AcDbPolyline
 90
5
 70
0
 10
173.0
 20
158.0
 10
179.0
 20
158.0
 10
179.0
 20
161.0
 10
173.0
 20
161.0
 10
173.0
 20
158.0
  0
LINE
  5
9A
100
AcDbEntity
  8
0
 62
256
370
-1
 48
1.0
  6
BYLAYER
100
AcDbLine
 10
169.4781847254618583
 20
247.2899999999998784
 30
0.0
 11
172.4781847254617446
 21
247.2899999999998784
 31
0.0
  0
LWPOLYLINE
  5
9B
100
AcDbEntity
  8
0
 62
256
370
-1
 48
1.0
  6
BYLAYER
100
AcDbPolyline
 90
5
 70
0
 10
185.0
 20
158.0
 10
191.0
 20
158.0
 10
191.0
 20
161.0
 10
185.0
 20
161.0
 10
185.0
 20
158.0
  0
LINE
  5
9C
100
AcDbEntity
  8
0
 62
256
370
-1
 48
1.0
  6
BYLAYER
100
AcDbLine
 10
56.5218152745382554
 20
241.1399999999999864
 30
0.0
 11
59.5218152745382554
 21
241.1399999999999864
 31
0.0
  0
LINE
  5
9D
100
AcDbEntity
  8
0
 62
256
370
-1
 48
1.0
  6
BYLAYER
100
AcDbLine
 10
63.9999999999999858
 20
8.9999999999999982
 30
0.0
 11
192.0
 21
8.9999999999999982
 31
0.0
  0
LINE
  5
9E
100
AcDbEntity
  8
0
 62
256
370
-1
 48
1.0
  6
BYLAYER
100
AcDbLine
 10
172.4781847254620857
 20
241.1399999999999011
 30
0.0
 11
169.478184725461972
 21
241.1399999999999011
 31
0.0
  0
LWPOLYLINE
  5
9F
100
AcDbEntity
  8
0
 62
256
370
-1
 48
1.0
  6
BYLAYER
100
AcDbPolyline
 90
125
 70
0
 10
47.0
 20
2.9999999999999698
 10
47.0
 20
5.9999999999999982
 10
47.0
 20
11.9999999999999982
 10
50.0
 20
11.9999999999999982
 10
50.0
 20
17.9999999999999716
 10
47.0
 20
18.0
 10
47.0
 20
23.9999999999999858
 10
50.0
 20
23.9999999999999858
 10
50.0
 20
29.9999999999999858
 10
47.0
 20
30.0000000000000142
 10
47.0
 20
35.9999999999999574
 10
50.0
 20
35.9999999999999716
 10
50.0
 20
41.9999999999999716
 10
47.0
 20
41.9999999999999716
 10
47.0
 20
48.0
 10
50.0
 20
48.0
 10
50.0
 20
54.0
 10
47.0
 20
54.0
 10
47.0
 20
59.9999999999999858
 10
50.0
 20
60.0
 10
50.0
 20
65.9999999999999858
 10
47.0000000000000568
 20
65.9999999999999574
 10
47.0
 20
72.0
 10
50.0000000000000568
 20
71.9999999999999716
 10
50.0
 20
77.9999999999999858
 10
47.0
 20
78.0
 10
47.0
 20
84.0
 10
50.0
 20
84.0
 10
50.0
 20
90.0
 10
47.0
 20
90.0
 10
47.0
 20
96.0
 10
50.0
 20
96.0
 10
50.0000000000000568
 20
101.9999999999999716
 10
47.0000000000000568
 20
101.9999999999999432
 10
47.0
 20
108.0
 10
50.0
 20
108.0
 10
50.0
 20
114.0
 10
47.0000000000000568
 20
113.9999999999999432
 10
47.0
 20
120.0
 10
50.0000000000000568
 20
119.9999999999999716
 10
50.0
 20
126.0
 10
47.0000000000001137
 20
125.9999999999999716
 10
47.0
 20
132.0
 10
50.0000000000000568
 20
132.0
 10
50.0000000000000568
 20
137.9999999999999716
 10
47.0
 20
138.0
 10
47.0000000000000568
 20
143.9999999999999716
 10
47.0
 20
147.0
 10
44.4399999999999977
 20
147.0
 10
38.8900000000001
 20
146.9999999999999716
 10
38.8900000000001
 20
149.9999999999999716
 10
33.3300000000000409
 20
149.9999999999999716
 10
33.3299999999999841
 20
147.0
 10
27.7799999999999159
 20
147.0
 10
27.7800000000001432
 20
150.0
 10
22.2199999999999704
 20
150.0
 10
22.2199999999999136
 20
147.0
 10
16.6700000000001864
 20
147.0
 10
16.6700000000000728
 20
150.0
 10
11.1100000000001273
 20
150.0
 10
11.1100000000000136
 20
147.0
 10
5.5600000000004002
 20
147.0
 10
3.0000000000001705
 20
147.0
 10
3.0000000000008527
 20
144.0
 10
2.9999999999999432
 20
138.0
 10
0.0
 20
138.0
 10
0.0
 20
132.0
 10
3.0000000000003979
 20
132.0
 10
3.0000000000001137
 20
126.0
 10
0.0
 20
126.0
 10
0.0
 20
120.0
 10
3.0000000000003979
 20
120.0
 10
2.9999999999998295
 20
114.0
 10
0.0
 20
114.0
 10
0.0
 20
108.0
 10
3.0
 20
108.0
 10
3.0
 20
102.0
 10
0.0
 20
102.0
 10
0.0
 20
96.0
 10
3.0
 20
96.0
 10
3.0000000000000568
 20
90.0
 10
0.0
 20
90.0
 10
0.0
 20
84.0
 10
3.0
 20
84.0
 10
2.9999999999997726
 20
78.0
 10
0.0
 20
78.0
 10
0.0
 20
72.0
 10
2.9999999999999432
 20
72.0
 10
2.9999999999998295
 20
66.0
 10
0.0
 20
66.0
 10
0.0
 20
60.0
 10
3.0000000000000568
 20
60.0
 10
2.9999999999999432
 20
54.0
 10
0.0
 20
54.0
 10
0.0
 20
48.0
 10
3.0
 20
48.0
 10
3.0
 20
42.0
 10
0.0
 20
42.0
 10
0.0
 20
36.0
 10
3.0
 20
36.0
 10
3.0
 20
30.0
 10
0.0
 20
30.0
 10
0.0
 20
24.0
 10
3.0
 20
24.0
 10
3.0
 20
18.0
 10
0.0
 20
18.0
 10
0.0
 20
11.9999999999999982
 10
3.0
 20
11.9999999999999982
 10
3.0
 20
5.9999999999999982
 10
3.0
 20
2.9999999999999982
 10
5.5600000000000023
 20
2.9999999999999982
 10
11.1100000000000136
 20
2.9999999999999982
 10
11.1100000000000136
 20
-0.0000000000000018
 10
16.6700000000000159
 20
-0.0000000000000018
 10
16.6700000000000159
 20
2.9999999999999982
 10
22.2200000000000273
 20
2.9999999999999982
 10
22.2200000000000273
 20
-0.0000000000000018
 10
27.7799999999999727
 20
-0.0000000000000018
 10
27.7799999999999727
 20
2.999999999999984
 10
33.3299999999999841
 20
2.9999999999999982
 10
33.3299999999999841
 20
-0.0000000000000018
 10
38.8899999999999864
 20
-0.0000000000000018
 10
38.8899999999999864
 20
2.9999999999999698
 10
44.4399999999999977
 20
2.9999999999999982
 10
47.0
 20
2.9999999999999698
  0
LINE
  5
A0
100
AcDbEntity
  8
0
 62
256
370
-1
 48
1.0
  6
BYLAYER
100
AcDbLine
 10
59.5218152745382554
 20
241.1399999999999864
 30
0.0
 11
59.5218152745382554
 21
235.0
 31
0.0
  0
LINE
  5
A1
100
AcDbEntity
  8
0
 62
256
370
-1
 48
1.0
  6
BYLAYER
100
AcDbLine
 10
192.0
 20
41.0
 30
0.0
 11
64.0
 21
41.0
 31
0.0
  0
LINE
  5
A2
100
AcDbEntity
  8
0
 62
256
370
-1
 48
1.0
  6
BYLAYER
100
AcDbLine
 10
169.478184725461972
 20
241.1399999999999011
 30
0.0
 11
169.4781847254620857
 21
234.9999999999999432
 31
0.0
  0
LINE
  5
A3
100
AcDbEntity
  8
0
 62
256
370
-1
 48
1.0
  6
BYLAYER
100
AcDbLine
 10
59.5218152745382554
 20
278.0
 30
0.0
 11
79.021815274538227
 21
278.0
 31
0.0
  0
LINE
  5
A4
100
AcDbEntity
  8
0
 62
256
370
-1
 48
1.0
  6
BYLAYER
100
AcDbLine
 10
91.0218152745382412
 20
278.0
 30
0.0
 11
110.5218152745381985
 21
278.0
 31
0.0
  0
LINE
  5
A5
100
AcDbEntity
  8
0
 62
256
370
-1
 48
1.0
  6
BYLAYER
100
AcDbLine
 10
137.9781847254620004
 20
277.9999999999999432
 30
0.0
 11
118.478184725461972
 21
278.0
 31
0.0
  0
LINE
  5
A6
100
AcDbEntity
  8
0
 62
256
370
-1
 48
1.0
  6
BYLAYER
100
AcDbLine
 10
169.478184725461972
 20
277.9999999999998863
 30
0.0
 11
149.9781847254620004
 21
277.9999999999999432
 31
0.0
  0
LINE
  5
A7
100
AcDbEntity
  8
0
 62
256
370
-1
 48
1.0
  6
BYLAYER
100
AcDbLine
 10
110.5218152745381985
 20
278.0
 30
0.0
 11
110.5218152745381985
 21
271.8600000000000136
 31
0.0
  0
LINE
  5
A8
100
AcDbEntity
  8
0
 62
256
370
-1
 48
1.0
  6
BYLAYER
100
AcDbLine
 10
118.478184725461972
 20
278.0
 30
0.0
 11
118.4781847254631089
 21
271.8600000000000136
 31
0.0
  0
LINE
  5
A9
100
AcDbEntity
  8
0
 62
256
370
-1
 48
1.0
  6
BYLAYER
100
AcDbLine
 10
110.5218152745381985
 20
271.8600000000000136
 30
0.0
 11
113.5218152745381985
 21
271.8600000000000136
 31
0.0
  0
LINE
  5
AA
100
AcDbEntity
  8
0
 62
256
370
-1
 48
1.0
  6
BYLAYER
100
AcDbLine
 10
118.4781847254631089
 20
271.8600000000000136
 30
0.0
 11
115.4781847254620857
 21
271.8600000000000136
 31
0.0
  0
LINE
  5
AB
100
AcDbEntity
  8
0
 62
256
370
-1
 48
1.0
  6
BYLAYER
100
AcDbLine
 10
113.5218152745381985
 20
271.8600000000000136
 30
0.0
 11
113.5218152745381985
 21
265.7100000000000364
 31
0.0
  0
LINE
  5
AC
100
AcDbEntity
  8
0
 62
256
370
-1
 48
1.0
  6
BYLAYER
100
AcDbLine
 10
115.4781847254620857
 20
271.8600000000000136
 30
0.0
 11
115.4781847254620857
 21
265.7100000000000364
 31
0.0
  0
LINE
  5
AD
100
AcDbEntity
  8
0
 62
256
370
-1
 48
1.0
  6
BYLAYER
100
AcDbLine
 10
113.5218152745381985
 20
265.7100000000000364
 30
0.0
 11
110.5218152745381985
 21
265.7100000000000364
 31
0.0
  0
LINE
  5
AE
100
AcDbEntity
  8
0
 62
256
370
-1
 48
1.0
  6
BYLAYER
100
AcDbLine
 10
115.4781847254620857
 20
265.7100000000000364
 30
0.0
 11
118.4781847254623131
 21
265.7100000000001501
 31
0.0
  0
LINE
  5
AF
100
AcDbEntity
  8
0
 62
256
370
-1
 48
1.0
  6
BYLAYER
100
AcDbLine
 10
110.5218152745381985
 20
265.7100000000000364
 30
0.0
 11
110.5218152745381985
 21
259.5699999999999932
 31
0.0
  0
LINE
  5
B0
100
AcDbEntity
  8
0
 62
256
370
-1
 48
1.0
  6
BYLAYER
100
AcDbLine
 10
118.4781847254623131
 20
265.7100000000001501
 30
0.0
 11
118.4781847254606078
 21
259.57000000000005
 31
0.0
  0
LINE
  5
B1
100
AcDbEntity
  8
0
 62
256
370
-1
 48
1.0
  6
BYLAYER
100
AcDbLine
 10
110.5218152745381985
 20
259.5699999999999932
 30
0.0
 11
113.5218152745381985
 21
259.5699999999999932
 31
0.0
  0
LINE
  5
B2
100
AcDbEntity
  8
0
 62
256
370
-1
 48
1.0
  6
BYLAYER
100
AcDbLine
 10
118.4781847254606078
 20
259.57000000000005
 30
0.0
 11
115.478184725461972
 21
259.5699999999999363
 31
0.0
  0
LINE
  5
B3
100
AcDbEntity
  8
0
 62
256
370
-1
 48
1.0
  6
BYLAYER
100
AcDbLine
 10
113.5218152745381985
 20
259.5699999999999932
 30
0.0
 11
113.5218152745381985
 21
253.4300000000000068
 31
0.0
  0
LINE
  5
B4
100
AcDbEntity
  8
0
 62
256
370
-1
 48
1.0
  6
BYLAYER
100
AcDbLine
 10
115.478184725461972
 20
259.5699999999999363
 30
0.0
 11
115.478184725461972
 21
253.4300000000000352
 31
0.0
  0
LINE
  5
B5
100
AcDbEntity
  8
0
 62
256
370
-1
 48
1.0
  6
BYLAYER
100
AcDbLine
 10
113.5218152745381985
 20
253.4300000000000068
 30
0.0
 11
110.5218152745381985
 21
253.4300000000000068
 31
0.0
  0
LINE
  5
B6
100
AcDbEntity
  8
0
 62
256
370
-1
 48
1.0
  6
BYLAYER
100
AcDbLine
 10
115.478184725461972
 20
253.4300000000000352
 30
0.0
 11
118.4781847254620857
 21
253.4300000000000352
 31
0.0
  0
LINE
  5
B7
100
AcDbEntity
  8
0
 62
256
370
-1
 48
1.0
  6
BYLAYER
100
AcDbLine
 10
110.5218152745381985
 20
253.4300000000000068
 30
0.0
 11
110.5218152745381985
 21
247.2899999999999636
 31
0.0
  0
LINE
  5
B8
100
AcDbEntity
  8
0
 62
256
370
-1
 48
1.0
  6
BYLAYER
100
AcDbLine
 10
118.4781847254620857
 20
253.4300000000000352
 30
0.0
 11
118.4781847254610625
 21
247.2900000000000489
 31
0.0
  0
LINE
  5
B9
100
AcDbEntity
  8
0
 62
256
370
-1
 48
1.0
  6
BYLAYER
100
AcDbLine
 10
110.5218152745381985
 20
247.2899999999999636
 30
0.0
 11
113.5218152745381985
 21
247.2899999999999636
 31
0.0
  0
LINE
  5
BA
100
AcDbEntity
  8
0
 62
256
370
-1
 48
1.0
  6
BYLAYER
100
AcDbLine
 10
118.4781847254610625
 20
247.2900000000000489
 30
0.0
 11
115.478184725461972
 21
247.2900000000000489
 31
0.0
  0
LINE
  5
BB
100
AcDbEntity
  8
0
 62
256
370
-1
 48
1.0
  6
BYLAYER
100
AcDbLine
 10
113.5218152745381985
 20
247.2899999999999636
 30
0.0
 11
113.5218152745381985
 21
241.1399999999999864
 31
0.0
  0
LINE
  5
BC
100
AcDbEntity
  8
0
 62
256
370
-1
 48
1.0
  6
BYLAYER
100
AcDbLine
 10
115.478184725461972
 20
247.2900000000000489
 30
0.0
 11
115.478184725461972
 21
241.1400000000000148
 31
0.0
  0
LINE
  5
BD
100
AcDbEntity
  8
0
 62
256
370
-1
 48
1.0
  6
BYLAYER
100
AcDbLine
 10
113.5218152745381985
 20
241.1399999999999864
 30
0.0
 11
110.5218152745381985
 21
241.1399999999999864
 31
0.0
  0
LINE
  5
BE
100
AcDbEntity
  8
0
 62
256
370
-1
 48
1.0
  6
BYLAYER
100
AcDbLine
 10
115.478184725461972
 20
241.1400000000000148
 30
0.0
 11
118.4781847254606078
 21
241.1400000000000716
 31
0.0
  0
LINE
  5
BF
100
AcDbEntity
  8
0
 62
256
370
-1
 48
1.0
  6
BYLAYER
100
AcDbLine
 10
110.5218152745381985
 20
241.1399999999999864
 30
0.0
 11
110.5218152745381985
 21
235.0
 31
0.0
  0
LINE
  5
C0
100
AcDbEntity
  8
0
 62
256
370
-1
 48
1.0
  6
BYLAYER
100
AcDbLine
 10
118.4781847254606078
 20
241.1400000000000716
 30
0.0
 11
118.4781847254609488
 21
235.0000000000000568
 31
0.0
  0
LINE
  5
C1
100
AcDbEntity
  8
0
 62
256
370
-1
 48
1.0
  6
BYLAYER
100
AcDbLine
 10
110.5218152745381985
 20
235.0
 30
0.0
 11
104.8518152745382395
 21
235.0
 31
0.0
  0
LINE
  5
C2
100
AcDbEntity
  8
0
 62
256
370
-1
 48
1.0
  6
BYLAYER
100
AcDbLine
 10
118.4781847254609488
 20
235.0000000000000568
 30
0.0
 11
124.1481847254622721
 21
235.0000000000000568
 31
0.0
  0
LINE
  5
C3
100
AcDbEntity
  8
0
 62
256
370
-1
 48
1.0
  6
BYLAYER
100
AcDbLine
 10
104.8518152745382395
 20
235.0
 30
0.0
 11
104.8518152745382395
 21
238.0
 31
0.0
  0
LINE
  5
C4
100
AcDbEntity
  8
0
 62
256
370
-1
 48
1.0
  6
BYLAYER
100
AcDbLine
 10
124.1481847254622721
 20
235.0000000000000568
 30
0.0
 11
124.1481847254614763
 21
238.0000000000000853
 31
0.0
  0
LINE
  5
C5
100
AcDbEntity
  8
0
 62
256
370
-1
 48
1.0
  6
BYLAYER
100
AcDbLine
 10
104.8518152745382395
 20
238.0
 30
0.0
 11
99.1918152745382713
 21
238.0
 31
0.0
  0
LINE
  5
C6
100
AcDbEntity
  8
0
 62
256
370
-1
 48
1.0
  6
BYLAYER
100
AcDbLine
 10
124.1481847254614763
 20
238.0000000000000853
 30
0.0
 11
129.8081847254614445
 21
238.0000000000000284
 31
0.0
  0
LINE
  5
C7
100
AcDbEntity
  8
0
 62
256
370
-1
 48
1.0
  6
BYLAYER
100
AcDbLine
 10
99.1918152745382713
 20
238.0
 30
0.0
 11
99.1918152745382713
 21
235.0
 31
0.0
  0
LINE
  5
C8
100
AcDbEntity
  8
0
 62
256
370
-1
 48
1.0
  6
BYLAYER
100
AcDbLine
 10
129.8081847254614445
 20
238.0000000000000284
 30
0.0
 11
129.8081847254620129
 21
235.0000000000000568
 31
0.0
  0
LINE
  5
C9
100
AcDbEntity
  8
0
 62
256
370
-1
 48
1.0
  6
BYLAYER
100
AcDbLine
 10
99.1918152745382713
 20
235.0
 30
0.0
 11
93.5218152745381985
 21
235.0
 31
0.0
  0
LINE
  5
CA
100
AcDbEntity
  8
0
 62
256
370
-1
 48
1.0
  6
BYLAYER
100
AcDbLine
 10
129.8081847254620129
 20
235.0000000000000568
 30
0.0
 11
135.4781847254617446
 21
235.0000000000000568
 31
0.0
  0
LINE
  5
CB
100
AcDbEntity
  8
0
 62
256
370
-1
 48
1.0
  6
BYLAYER
100
AcDbLine
 10
93.5218152745381985
 20
235.0
 30
0.0
 11
93.5218152745381985
 21
238.0
 31
0.0
  0
LINE
  5
CC
100
AcDbEntity
  8
0
 62
256
370
-1
 48
1.0
  6
BYLAYER
100
AcDbLine
 10
135.4781847254617446
 20
235.0000000000000568
 30
0.0
 11
135.478184725461972
 21
238.0000000000000853
 31
0.0
  0
LINE
  5
CD
100
AcDbEntity
  8
0
 62
256
370
-1
 48
1.0
  6
BYLAYER
100
AcDbLine
 10
93.5218152745381985
 20
238.0
 30
0.0
 11
87.8518152745382395
 21
238.0
 31
0.0
  0
LINE
  5
CE
100
AcDbEntity
  8
0
 62
256
370
-1
 48
1.0
  6
BYLAYER
100
AcDbLine
 10
135.478184725461972
 20
238.0000000000000853
 30
0.0
 11
141.1481847254619311
 21
238.0000000000000853
 31
0.0
  0
LINE
  5
CF
100
AcDbEntity
  8
0
 62
256
370
-1
 48
1.0
  6
BYLAYER
100
AcDbLine
 10
87.8518152745382395
 20
238.0
 30
0.0
 11
87.8518152745382395
 21
235.0
 31
0.0
  0
LINE
  5
D0
100
AcDbEntity
  8
0
 62
256
370
-1
 48
1.0
  6
BYLAYER
100
AcDbLine
 10
141.1481847254619311
 20
238.0000000000000853
 30
0.0
 11
141.1481847254619311
 21
235.0000000000000568
 31
0.0
  0
LINE
  5
D1
100
AcDbEntity
  8
0
 62
256
370
-1
 48
1.0
  6
BYLAYER
100
AcDbLine
 10
87.8518152745382395
 20
235.0
 30
0.0
 11
82.1918152745382713
 21
235.0
 31
0.0
  0
LINE
  5
D2
100
AcDbEntity
  8
0
 62
256
370
-1
 48
1.0
  6
BYLAYER
100
AcDbLine
 10
141.1481847254619311
 20
235.0000000000000568
 30
0.0
 11
146.8081847254618992
 21
235.0000000000000568
 31
0.0
  0
LINE
  5
D3
100
AcDbEntity
  8
0
 62
256
370
-1
 48
1.0
  6
BYLAYER
100
AcDbLine
 10
82.1918152745382713
 20
235.0
 30
0.0
 11
82.1918152745382713
 21
238.0
 31
0.0
  0
LINE
  5
D4
100
AcDbEntity
  8
0
 62
256
370
-1
 48
1.0
  6
BYLAYER
100
AcDbLine
 10
146.8081847254618992
 20
235.0000000000000568
 30
0.0
 11
146.8081847254619561
 21
237.9999999999999147
 31
0.0
  0
LINE
  5
D5
100
AcDbEntity
  8
0
 62
256
370
-1
 48
1.0
  6
BYLAYER
100
AcDbLine
 10
82.1918152745382713
 20
238.0
 30
0.0
 11
76.5218152745381985
 21
238.0
 31
0.0
  0
LINE
  5
D6
100
AcDbEntity
  8
0
 62
256
370
-1
 48
1.0
  6
BYLAYER
100
AcDbLine
 10
146.8081847254619561
 20
237.9999999999999147
 30
0.0
 11
152.4781847254621994
 21
237.9999999999999716
 31
0.0
  0
LINE
  5
D7
100
AcDbEntity
  8
0
 62
256
370
-1
 48
1.0
  6
BYLAYER
100
AcDbLine
 10
76.5218152745381985
 20
238.0
 30
0.0
 11
76.5218152745381985
 21
235.0
 31
0.0
  0
LINE
  5
D8
100
AcDbEntity
  8
0
 62
256
370
-1
 48
1.0
  6
BYLAYER
100
AcDbLine
 10
152.4781847254621994
 20
237.9999999999999716
 30
0.0
 11
152.4781847254618583
 21
234.9999999999999432
 31
0.0
  0
LINE
  5
D9
100
AcDbEntity
  8
0
 62
256
370
-1
 48
1.0
  6
BYLAYER
100
AcDbLine
 10
76.5218152745381985
 20
235.0
 30
0.0
 11
70.8518152745382395
 21
235.0
 31
0.0
  0
LINE
  5
DA
100
AcDbEntity
  8
0
 62
256
370
-1
 48
1.0
  6
BYLAYER
100
AcDbLine
 10
152.4781847254618583
 20
234.9999999999999432
 30
0.0
 11
158.1481847254618174
 21
235.0000000000000568
 31
0.0
  0
LINE
  5
DB
100
AcDbEntity
  8
0
 62
256
370
-1
 48
1.0
  6
BYLAYER
100
AcDbLine
 10
70.8518152745382395
 20
235.0
 30
0.0
 11
70.8518152745382395
 21
238.0
 31
0.0
  0
LINE
  5
DC
100
AcDbEntity
  8
0
 62
256
370
-1
 48
1.0
  6
BYLAYER
100
AcDbLine
 10
158.1481847254618174
 20
235.0000000000000568
 30
0.0
 11
158.1481847254620448
 21
237.9999999999999716
 31
0.0
  0
LINE
  5
DD
100
AcDbEntity
  8
0
 62
256
370
-1
 48
1.0
  6
BYLAYER
100
AcDbLine
 10
70.8518152745382395
 20
238.0
 30
0.0
 11
65.1918152745382713
 21
238.0
 31
0.0
  0
LINE
  5
DE
100
AcDbEntity
  8
0
 62
256
370
-1
 48
1.0
  6
BYLAYER
100
AcDbLine
 10
31.0999999999999943
 20
10.5
 30
0.0
 11
31.0999999999999943
 21
13.9999999999999858
 31
0.0
  0
LINE
  5
DF
100
AcDbEntity
  8
0
 62
256
370
-1
 48
1.0
  6
BYLAYER
100
AcDbLine
 10
158.1481847254620448
 20
237.9999999999999716
 30
0.0
 11
163.8081847254618992
 21
237.9999999999999147
 31
0.0
  0
LINE
  5
E0
100
AcDbEntity
  8
0
 62
256
370
-1
 48
1.0
  6
BYLAYER
100
AcDbLine
 10
65.1918152745382713
 20
238.0
 30
0.0
 11
65.1918152745382713
 21
235.0
 31
0.0
  0
LINE
  5
E1
100
AcDbEntity
  8
0
 62
256
370
-1
 48
1.0
  6
BYLAYER
100
AcDbLine
 10
18.5
 20
13.9999999999999982
 30
0.0
 11
18.5
 21
10.4999999999999982
 31
0.0
  0
LINE
  5
E2
100
AcDbEntity
  8
0
 62
256
370
-1
 48
1.0
  6
BYLAYER
100
AcDbLine
 10
163.8081847254618992
 20
237.9999999999999147
 30
0.0
 11
163.8081847254618992
 21
234.9999999999999432
 31
0.0
  0
LINE
  5
E3
100
AcDbEntity
  8
0
 62
256
370
-1
 48
1.0
  6
BYLAYER
100
AcDbLine
 10
65.1918152745382713
 20
235.0
 30
0.0
 11
59.5218152745382554
 21
235.0
 31
0.0
  0
LINE
  5
E4
100
AcDbEntity
  8
0
 62
256
370
-1
 48
1.0
  6
BYLAYER
100
AcDbLine
 10
31.1000000000000441
 20
134.9199999999999875
 30
0.0
 11
31.1000000000000867
 21
138.4200000000000159
 31
0.0
  0
LINE
  5
E5
100
AcDbEntity
  8
0
 62
256
370
-1
 48
1.0
  6
BYLAYER
100
AcDbLine
 10
163.8081847254618992
 20
234.9999999999999432
 30
0.0
 11
169.4781847254620857
 21
234.9999999999999432
 31
0.0
  0
LINE
  5
E6
100
AcDbEntity
  8
0
 62
256
370
-1
 48
1.0
  6
BYLAYER
100
AcDbLine
 10
54.8766072330111854
 20
271.8600000000000136
 30
0.0
 11
45.0
 21
235.0
 31
0.0
  0
LINE
  5
E7
100
AcDbEntity
  8
0
 62
256
370
-1
 48
1.0
  6
BYLAYER
100
AcDbLine
 10
18.5000000000000462
 20
138.4200000000000159
 30
0.0
 11
18.5000000000000249
 21
134.9200000000000159
 31
0.0
  0
LINE
  5
E8
100
AcDbEntity
  8
0
 62
256
370
-1
 48
1.0
  6
BYLAYER
100
AcDbLine
 10
174.1233927669883883
 20
271.8599999999999
 30
0.0
 11
184.0
 21
235.0000000000000568
 31
0.0
  0
LINE
  5
E9
100
AcDbEntity
  8
0
 62
256
370
-1
 48
1.0
  6
BYLAYER
100
AcDbLine
 10
31.1000000000000263
 20
39.4999999999999787
 30
0.0
 11
31.1000000000000085
 21
42.6999999999999957
 31
0.0
  0
LINE
  5
EA
100
AcDbEntity
  8
0
 62
256
370
-1
 48
1.0
  6
BYLAYER
100
AcDbLine
 10
31.1000000000000369
 20
71.7399999999999807
 30
0.0
 11
31.1000000000000227
 21
74.4399999999999977
 31
0.0
  0
LINE
  5
EB
100
AcDbEntity
  8
0
 62
256
370
-1
 48
1.0
  6
BYLAYER
100
AcDbLine
 10
56.5218152745382554
 20
235.0
 30
0.0
 11
45.0
 21
235.0
 31
0.0
  0
LINE
  5
EC
100
AcDbEntity
  8
0
 62
256
370
-1
 48
1.0
  6
BYLAYER
100
AcDbLine
 10
31.1000000000000263
 20
102.980000000000004
 30
0.0
 11
31.0999999999999908
 21
109.4199999999999875
 31
0.0
  0
LINE
  5
ED
100
AcDbEntity
  8
0
 62
256
370
-1
 48
1.0
  6
BYLAYER
100
AcDbLine
 10
172.4781847254618583
 20
234.9999999999999432
 30
0.0
 11
184.0
 21
235.0000000000000568
 31
0.0
  0
LINE
  5
EE
100
AcDbEntity
  8
0
 62
256
370
-1
 48
1.0
  6
BYLAYER
100
AcDbLine
 10
18.5
 20
45.9399999999999906
 30
0.0
 11
18.5
 21
39.4999999999999858
 31
0.0
  0
LINE
  5
EF
100
AcDbEntity
  8
0
 62
256
370
-1
 48
1.0
  6
BYLAYER
100
AcDbLine
 10
18.5000000000000142
 20
74.4399999999999977
 30
0.0
 11
18.5000000000000142
 21
71.2399999999999949
 31
0.0
  0
LINE
  5
F0
100
AcDbEntity
  8
0
 62
256
370
-1
 48
1.0
  6
BYLAYER
100
AcDbLine
 10
18.5
 20
106.1800000000000068
 30
0.0
 11
18.5
 21
103.4799999999999898
 31
0.0
  0
LINE
  5
F1
100
AcDbEntity
  8
0
 62
256
370
-1
 48
1.0
  6
BYLAYER
100
AcDbLine
 10
31.1000000000000085
 20
42.7399999999999878
 30
0.0
 11
31.0999999999999908
 21
45.9399999999999906
 31
0.0
  0
LINE
  5
F2
100
AcDbEntity
  8
0
 62
256
370
-1
 48
1.0
  6
BYLAYER
100
AcDbLine
 10
31.1000000000000405
 20
71.2399999999999807
 30
0.0
 11
31.100000000000005
 21
77.6799999999999784
 31
0.0
  0
LINE
  5
F3
100
AcDbEntity
  8
0
 62
256
370
-1
 48
1.0
  6
BYLAYER
100
AcDbLine
 10
31.1000000000000085
 20
106.2199999999999989
 30
0.0
 11
31.0999999999999943
 21
108.9199999999999875
 31
0.0
  0
LINE
  5
F4
100
AcDbEntity
  8
0
 62
256
370
-1
 48
1.0
  6
BYLAYER
100
AcDbLine
 10
18.5000000000000142
 20
45.4399999999999906
 30
0.0
 11
18.5
 21
42.7399999999999878
 31
0.0
  0
LINE
  5
F5
100
AcDbEntity
  8
0
 62
256
370
-1
 48
1.0
  6
BYLAYER
100
AcDbLine
 10
18.500000000000032
 20
77.6799999999999784
 30
0.0
 11
18.5000000000000142
 21
74.4799999999999898
 31
0.0
  0
LINE
  5
F6
100
AcDbEntity
  8
0
 62
256
370
-1
 48
1.0
  6
BYLAYER
100
AcDbLine
 10
18.5
 20
109.4200000000000017
 30
0.0
 11
18.5
 21
102.9799999999999898
 31
0.0
  0
LINE
  5
F7
100
AcDbEntity
  8
0
 62
256
370
-1
 48
1.0
  6
BYLAYER
100
AcDbLine
 10
11.7500000000000853
 20
111.9100000000000108
 30
0.0
 11
14.2500000000000853
 21
111.9100000000000108
 31
0.0
  0
LINE
  5
F8
100
AcDbEntity
  8
0
 62
256
370
-1
 48
1.0
  6
BYLAYER
100
AcDbLine
 10
14.2500000000000853
 20
111.9100000000000108
 30
0.0
 11
14.2500000000000853
 21
132.2300000000000182
 31
0.0
  0
LINE
  5
F9
100
AcDbEntity
  8
0
 62
256
370
-1
 48
1.0
  6
BYLAYER
100
AcDbLine
 10
14.2500000000000853
 20
132.2300000000000182
 30
0.0
 11
11.7500000000000853
 21
132.2300000000000182
 31
0.0
  0
LINE
  5
FA
100
AcDbEntity
  8
0
 62
256
370
-1
 48
1.0
  6
BYLAYER
100
AcDbLine
 10
11.7500000000000853
 20
132.2300000000000182
 30
0.0
 11
11.7500000000000853
 21
111.9100000000000108
 31
0.0
  0
LINE
  5
FB
100
AcDbEntity
  8
0
 62
256
370
-1
 48
1.0
  6
BYLAYER
100
AcDbLine
 10
35.7500000000001137
 20
111.9100000000000108
 30
0.0
 11
38.2500000000001137
 21
111.9100000000000108
 31
0.0
  0
LINE
  5
FC
100
AcDbEntity
  8
0
 62
256
370
-1
 48
1.0
  6
BYLAYER
100
AcDbLine
 10
38.2500000000001137
 20
111.9100000000000108
 30
0.0
 11
38.2500000000001137
 21
132.2300000000000182
 31
0.0
  0
LINE
  5
FD
100
AcDbEntity
  8
0
 62
256
370
-1
 48
1.0
  6
BYLAYER
100
AcDbLine
 10
38.2500000000001137
 20
132.2300000000000182
 30
0.0
 11
35.7500000000001137
 21
132.2300000000000182
 31
0.0
  0
LINE
  5
FE
100
AcDbEntity
  8
0
 62
256
370
-1
 48
1.0
  6
BYLAYER
100
AcDbLine
 10
35.7500000000001137
 20
132.2300000000000182
 30
0.0
 11
35.7500000000001137
 21
111.9100000000000108
 31
0.0
  0
LINE
  5
FF
100
AcDbEntity
  8
0
 62
256
370
-1
 48
1.0
  6
BYLAYER
100
AcDbLine
 10
11.7500000000000853
 20
80.1699999999999875
 30
0.0
 11
14.2500000000000853
 21
80.1699999999999875
 31
0.0
  0
LINE
  5
100
100
AcDbEntity
  8
0
 62
256
370
-1
 48
1.0
  6
BYLAYER
100
AcDbLine
 10
14.2500000000000853
 20
80.1699999999999875
 30
0.0
 11
14.2500000000000853
 21
100.4899999999999807
 31
0.0
  0
LINE
  5
101
100
AcDbEntity
  8
0
 62
256
370
-1
 48
1.0
  6
BYLAYER
100
AcDbLine
 10
14.2500000000000853
 20
100.4899999999999807
 30
0.0
 11
11.7500000000000853
 21
100.4899999999999807
 31
0.0
  0
LINE
  5
102
100
AcDbEntity
  8
0
 62
256
370
-1
 48
1.0
  6
BYLAYER
100
AcDbLine
 10
11.7500000000000853
 20
100.4899999999999807
 30
0.0
 11
11.7500000000000853
 21
80.1699999999999875
 31
0.0
  0
LINE
  5
103
100
AcDbEntity
  8
0
 62
256
370
-1
 48
1.0
  6
BYLAYER
100
AcDbLine
 10
35.7500000000001137
 20
80.1700000000000017
 30
0.0
 11
38.2500000000001137
 21
80.1700000000000017
 31
0.0
  0
LINE
  5
104
100
AcDbEntity
  8
0
 62
256
370
-1
 48
1.0
  6
BYLAYER
100
AcDbLine
 10
38.2500000000001137
 20
80.1700000000000017
 30
0.0
 11
38.2500000000001137
 21
100.4899999999999949
 31
0.0
  0
LINE
  5
105
100
AcDbEntity
  8
0
 62
256
370
-1
 48
1.0
  6
BYLAYER
100
AcDbLine
 10
38.2500000000001137
 20
100.4899999999999949
 30
0.0
 11
35.7500000000001137
 21
100.4899999999999949
 31
0.0
  0
LINE
  5
106
100
AcDbEntity
  8
0
 62
256
370
-1
 48
1.0
  6
BYLAYER
100
AcDbLine
 10
35.7500000000001137
 20
100.4899999999999949
 30
0.0
 11
35.7500000000001137
 21
80.1700000000000017
 31
0.0
  0
LINE
  5
107
100
AcDbEntity
  8
0
 62
256
370
-1
 48
1.0
  6
BYLAYER
100
AcDbLine
 10
11.7500000000000853
 20
48.4299999999999784
 30
0.0
 11
14.2500000000000853
 21
48.4299999999999784
 31
0.0
  0
LINE
  5
108
100
AcDbEntity
  8
0
 62
256
370
-1
 48
1.0
  6
BYLAYER
100
AcDbLine
 10
14.2500000000000853
 20
48.4299999999999784
 30
0.0
 11
14.2500000000000853
 21
68.7499999999999858
 31
0.0
  0
LINE
  5
109
100
AcDbEntity
  8
0
 62
256
370
-1
 48
1.0
  6
BYLAYER
100
AcDbLine
 10
14.2500000000000853
 20
68.7499999999999858
 30
0.0
 11
11.7500000000000853
 21
68.7499999999999858
 31
0.0
  0
LINE
  5
10A
100
AcDbEntity
  8
0
 62
256
370
-1
 48
1.0
  6
BYLAYER
100
AcDbLine
 10
11.7500000000000853
 20
68.7499999999999858
 30
0.0
 11
11.7500000000000853
 21
48.4299999999999784
 31
0.0
  0
LINE
  5
10B
100
AcDbEntity
  8
0
 62
256
370
-1
 48
1.0
  6
BYLAYER
100
AcDbLine
 10
35.7500000000001137
 20
48.4300000000000068
 30
0.0
 11
38.2500000000001137
 21
48.4300000000000068
 31
0.0
  0
LINE
  5
10C
100
AcDbEntity
  8
0
 62
256
370
-1
 48
1.0
  6
BYLAYER
100
AcDbLine
 10
38.2500000000001137
 20
48.4300000000000068
 30
0.0
 11
38.2500000000001137
 21
68.75
 31
0.0
  0
LINE
  5
10D
100
AcDbEntity
  8
0
 62
256
370
-1
 48
1.0
  6
BYLAYER
100
AcDbLine
 10
38.2500000000001137
 20
68.75
 30
0.0
 11
35.7500000000001137
 21
68.75
 31
0.0
  0
LINE
  5
10E
100
AcDbEntity
  8
0
 62
256
370
-1
 48
1.0
  6
BYLAYER
100
AcDbLine
 10
35.7500000000001137
 20
68.75
 30
0.0
 11
35.7500000000001137
 21
48.4300000000000068
 31
0.0
  0
LINE
  5
10F
100
AcDbEntity
  8
0
 62
256
370
-1
 48
1.0
  6
BYLAYER
100
AcDbLine
 10
11.7500000000000853
 20
16.6899999999999835
 30
0.0
 11
14.2500000000000853
 21
16.6899999999999835
 31
0.0
  0
LINE
  5
110
100
AcDbEntity
  8
0
 62
256
370
-1
 48
1.0
  6
BYLAYER
100
AcDbLine
 10
14.2500000000000853
 20
16.6899999999999835
 30
0.0
 11
14.2500000000000853
 21
37.0099999999999909
 31
0.0
  0
LINE
  5
111
100
AcDbEntity
  8
0
 62
256
370
-1
 48
1.0
  6
BYLAYER
100
AcDbLine
 10
14.2500000000000853
 20
37.0099999999999909
 30
0.0
 11
11.7500000000000853
 21
37.0099999999999909
 31
0.0
  0
LINE
  5
112
100
AcDbEntity
  8
0
 62
256
370
-1
 48
1.0
  6
BYLAYER
100
AcDbLine
 10
11.7500000000000853
 20
37.0099999999999909
 30
0.0
 11
11.7500000000000853
 21
16.6899999999999835
 31
0.0
  0
LINE
  5
113
100
AcDbEntity
  8
0
 62
256
370
-1
 48
1.0
  6
BYLAYER
100
AcDbLine
 10
35.7500000000001137
 20
16.6899999999999977
 30
0.0
 11
38.2500000000001137
 21
16.6899999999999977
 31
0.0
  0
LINE
  5
114
100
AcDbEntity
  8
0
 62
256
370
-1
 48
1.0
  6
BYLAYER
100
AcDbLine
 10
38.2500000000001137
 20
16.6899999999999977
 30
0.0
 11
38.2500000000001137
 21
37.0099999999999909
 31
0.0
  0
LINE
  5
115
100
AcDbEntity
  8
0
 62
256
370
-1
 48
1.0
  6
BYLAYER
100
AcDbLine
 10
38.2500000000001137
 20
37.0099999999999909
 30
0.0
 11
35.7500000000001137
 21
37.0099999999999909
 31
0.0
  0
LINE
  5
116
100
AcDbEntity
  8
0
 62
256
370
-1
 48
1.0
  6
BYLAYER
100
AcDbLine
 10
35.7500000000001137
 20
37.0099999999999909
 30
0.0
 11
35.7500000000001137
 21
16.6899999999999977
 31
0.0
  0
LINE
  5
117
100
AcDbEntity
  8
0
 62
256
370
-1
 48
1.0
  6
BYLAYER
100
AcDbLine
 10
63.9999999999999858
 20
41.0
 30
0.0
 11
63.9999999999999858
 21
8.9999999999999982
 31
0.0
  0
LINE
  5
118
100
AcDbEntity
  8
0
 62
256
370
-1
 48
1.0
  6
BYLAYER
100
AcDbLine
 10
192.0
 20
8.9999999999999982
 30
0.0
 11
192.0
 21
41.0
 31
0.0
  0
LINE
  5
119
100
AcDbEntity
  8
0
 62
256
370
-1
 48
1.0
  6
BYLAYER
100
AcDbLine
 10
228.2199999999999989
 20
90.0
 30
0.0
 11
228.2199999999999989
 21
90.0
 31
0.0
  0
LINE
  5
11A
100
AcDbEntity
  8
0
 62
256
370
-1
 48
1.0
  6
BYLAYER
100
AcDbLine
 10
228.2199999999999989
 20
90.0
 30
0.0
 11
224.9999999999999716
 21
90.0
 31
0.0
  0
LINE
  5
11B
100
AcDbEntity
  8
0
 62
256
370
-1
 48
1.0
  6
BYLAYER
100
AcDbLine
 10
237.0
 20
90.0
 30
0.0
 11
233.7800000000000011
 21
90.0
 31
0.0
  0
LINE
  5
11C
100
AcDbEntity
  8
0
 62
256
370
-1
 48
1.0
  6
BYLAYER
100
AcDbLine
 10
79.021815274538227
 20
278.0
 30
0.0
 11
79.021815274538227
 21
266.0
 31
0.0
  0
LINE
  5
11D
100
AcDbEntity
  8
0
 62
256
370
-1
 48
1.0
  6
BYLAYER
100
AcDbLine
 10
91.021815274538227
 20
266.0
 30
0.0
 11
91.021815274538227
 21
278.0
 31
0.0
  0
LINE
  5
11E
100
AcDbEntity
  8
0
 62
256
370
-1
 48
1.0
  6
BYLAYER
100
AcDbLine
 10
137.9781847254620004
 20
277.9999999999999432
 30
0.0
 11
137.9781847254620004
 21
266.0
 31
0.0
  0
LINE
  5
11F
100
AcDbEntity
  8
0
 62
256
370
-1
 48
1.0
  6
BYLAYER
100
AcDbLine
 10
149.9781847254620004
 20
266.0
 30
0.0
 11
149.9781847254620004
 21
277.9999999999999432
 31
0.0
  0
LINE
  5
120
100
AcDbEntity
  8
0
 62
256
370
-1
 48
1.0
  6
BYLAYER
100
AcDbLine
 10
137.9781847254620004
 20
265.9999999999999432
 30
0.0
 11
149.9781847254620004
 21
265.9999999999999432
 31
0.0
  0
LINE
  5
121
100
AcDbEntity
  8
0
 62
256
370
-1
 48
1.0
  6
BYLAYER
100
AcDbLine
 10
79.021815274538227
 20
266.0
 30
0.0
 11
91.021815274538227
 21
266.0
 31
0.0
  0
LINE
  5
122
100
AcDbEntity
  8
0
 62
256
370
-1
 48
1.0
  6
BYLAYER
100
AcDbLine
 10
225.0
 20
90.0
 30
0.0
 11
225.0
 21
81.0
 31
0.0
  0
LINE
  5
123
100
AcDbEntity
  8
0
 62
256
370
-1
 48
1.0
  6
BYLAYER
100
AcDbLine
 10
225.0
 20
81.0
 30
0.0
 11
237.0
 21
81.0
 31
0.0
  0
LINE
  5
124
100
AcDbEntity
  8
0
 62
256
370
-1
 48
1.0
  6
BYLAYER
100
AcDbLine
 10
237.0
 20
81.0
 30
0.0
 11
237.0
 21
90.0
 31
0.0
  0
LINE
  5
125
100
AcDbEntity
  8
0
 62
256
370
-1
 48
1.0
  6
BYLAYER
100
AcDbLine
 10
18.5
 20
10.4999999999999982
 30
0.0
 11
31.0999999999999943
 21
10.4999999999999982
 31
0.0
  0
LINE
  5
126
100
AcDbEntity
  8
0
 62
256
370
-1
 48
1.0
  6
BYLAYER
100
AcDbLine
 10
31.0999999999999943
 20
13.999999999999984
 30
0.0
 11
18.5
 21
13.9999999999999982
 31
0.0
  0
LINE
  5
127
100
AcDbEntity
  8
0
 62
256
370
-1
 48
1.0
  6
BYLAYER
100
AcDbLine
 10
18.5
 20
39.4999999999999929
 30
0.0
 11
31.1000000000000227
 21
39.4999999999999858
 31
0.0
  0
LINE
  5
128
100
AcDbEntity
  8
0
 62
256
370
-1
 48
1.0
  6
BYLAYER
100
AcDbLine
 10
31.0999999999999943
 20
45.9399999999999906
 30
0.0
 11
18.5000000000000142
 21
45.9399999999999906
 31
0.0
  0
LINE
  5
129
100
AcDbEntity
  8
0
 62
256
370
-1
 48
1.0
  6
BYLAYER
100
AcDbLine
 10
18.5000000000000142
 20
71.2399999999999807
 30
0.0
 11
31.1000000000000369
 21
71.2399999999999807
 31
0.0
  0
LINE
  5
12A
100
AcDbEntity
  8
0
 62
256
370
-1
 48
1.0
  6
BYLAYER
100
AcDbLine
 10
31.1000000000000085
 20
77.6799999999999784
 30
0.0
 11
18.5000000000000284
 21
77.6799999999999784
 31
0.0
  0
LINE
  5
12B
100
AcDbEntity
  8
0
 62
256
370
-1
 48
1.0
  6
BYLAYER
100
AcDbLine
 10
18.5
 20
102.9799999999999898
 30
0.0
 11
31.1000000000000227
 21
102.9799999999999898
 31
0.0
  0
LINE
  5
12C
100
AcDbEntity
  8
0
 62
256
370
-1
 48
1.0
  6
BYLAYER
100
AcDbLine
 10
31.0999999999999943
 20
109.4199999999999875
 30
0.0
 11
18.5
 21
109.4199999999999875
 31
0.0
  0
LINE
  5
12D
100
AcDbEntity
  8
0
 62
256
370
-1
 48
1.0
  6
BYLAYER
100
AcDbLine
 10
18.5000000000000284
 20
134.9200000000000159
 30
0.0
 11
31.1000000000000512
 21
134.9199999999999875
 31
0.0
  0
LINE
  5
12E
100
AcDbEntity
  8
0
 62
256
370
-1
 48
1.0
  6
BYLAYER
100
AcDbLine
 10
31.1000000000000796
 20
138.4200000000000159
 30
0.0
 11
18.5000000000000426
 21
138.4200000000000159
 31
0.0
  0
ENDSEC
  0
SECTION
  2
OBJECTS
  0
DICTIONARY
  5
C
100
AcDbDictionary
280
0
281
1
  3
ACAD_GROUP
350
D
  3
ACAD_LAYOUT
350
1A
  3
ACAD_MLINESTYLE
350
17
  3
ACAD_PLOTSETTINGS
350
19
  3
ACAD_PLOTSTYLENAME
350
E
  3
AcDbVariableDictionary
350
12F
  3
QCAD_OBJECTS
350
130
  0
DICTIONARY
  5
D
100
AcDbDictionary
280
0
281
1
  0
ACDBDICTIONARYWDFLT
  5
E
100
AcDbDictionary
281
1
  3
Normal
350
F
100
AcDbDictionaryWithDefault
340
F
  0
ACDBPLACEHOLDER
  5
F
  0
DICTIONARY
  5
17
100
AcDbDictionary
280
0
281
1
  3
Standard
350
18
  0
MLINESTYLE
  5
18
100
AcDbMlineStyle
  2
STANDARD
 70
0
  3

 62
256
 51
90.0
 52
90.0
 71
2
 49
0.5
 62
256
  6
BYLAYER
 49
-0.5
 62
256
  6
BYLAYER
  0
DICTIONARY
  5
19
100
AcDbDictionary
280
0
281
1
  0
DICTIONARY
  5
1A
100
AcDbDictionary
281
1
  3
Layout1
350
1E
  3
Layout2
350
26
  3
Model
350
22
  0
LAYOUT
  5
1E
100
AcDbPlotSettings
  1

  2
none_device
  4

  6

 40
0.0
 41
0.0
 42
0.0
 43
0.0
 44
0.0
 45
0.0
 46
0.0
 47
0.0
 48
0.0
 49
0.0
140
0.0
141
0.0
142
1.0
143
1.0
 70
688
 72
0
 73
0
 74
5
  7

 75
16
147
1.0
148
0.0
149
0.0
100
AcDbLayout
  1
Layout1
 70
1
 71
1
 10
0.0
 20
0.0
 11
420.0
 21
297.0
 12
0.0
 22
0.0
 32
0.0
 14
100000000000000000000.0
 24
100000000000000000000.0
 34
100000000000000000000.0
 15
-100000000000000000000.0
 25
-100000000000000000000.0
 35
-100000000000000000000.0
146
0.0
 13
0.0
 23
0.0
 33
0.0
 16
1.0
 26
0.0
 36
0.0
 17
0.0
 27
1.0
 37
0.0
 76
0
330
1B
  0
LAYOUT
  5
22
100
AcDbPlotSettings
  1

  2
none_device
  4

  6

 40
0.0
 41
0.0
 42
0.0
 43
0.0
 44
0.0
 45
0.0
 46
0.0
 47
0.0
 48
0.0
 49
0.0
140
0.0
141
0.0
142
1.0
143
1.0
 70
1712
 72
0
 73
0
 74
0
  7

 75
0
147
1.0
148
0.0
149
0.0
100
AcDbLayout
  1
Model
 70
1
 71
0
 10
0.0
 20
0.0
 11
12.0
 21
9.0
 12
0.0
 22
0.0
 32
0.0
 14
0.0
 24
0.0
 34
0.0
 15
0.0
 25
0.0
 35
0.0
146
0.0
 13
0.0
 23
0.0
 33
0.0
 16
1.0
 26
0.0
 36
0.0
 17
0.0
 27
1.0
 37
0.0
 76
0
330
1F
  0
LAYOUT
  5
26
100
AcDbPlotSettings
  1

  2
none_device
  4

  6

 40
0.0
 41
0.0
 42
0.0
 43
0.0
 44
0.0
 45
0.0
 46
0.0
 47
0.0
 48
0.0
 49
0.0
140
0.0
141
0.0
142
1.0
143
1.0
 70
688
 72
0
 73
0
 74
5
  7

 75
16
147
1.0
148
0.0
149
0.0
100
AcDbLayout
  1
Layout2
 70
1
 71
2
 10
0.0
 20
0.0
 11
12.0
 21
9.0
 12
0.0
 22
0.0
 32
0.0
 14
0.0
 24
0.0
 34
0.0
 15
0.0
 25
0.0
 35
0.0
146
0.0
 13
0.0
 23
0.0
 33
0.0
 16
1.0
 26
0.0
 36
0.0
 17
0.0
 27
1.0
 37
0.0
 76
0
330
23
  0
DICTIONARY
  5
12F
100
AcDbDictionary
281
1
  3
DIMASSOC
350
132
  3
HIDETEXT
350
131
  0
DICTIONARYVAR
  5
131
100
DictionaryVariables
280
0
  1
2
  0
DICTIONARYVAR
  5
132
100
DictionaryVariables
280
0
  1
1
  0
DICTIONARY
  5
130
100
AcDbDictionary
281
1
  3
ColorSettings/BackgroundColor
350
133
  3
ColorSettings/ColorMode
350
134
  3
Grid/DisplayGrid00
350
135
  3
Grid/DisplayGrid01
350
136
  3
Grid/DisplayGrid02
350
137
  3
Grid/DisplayGrid03
350
138
  3
Grid/GridSpacingX00
350
139
  3
Grid/GridSpacingX01
350
13A
  3
Grid/GridSpacingX02
350
13B
  3
Grid/GridSpacingX03
350
13C
  3
Grid/GridSpacingY00
350
13D
  3
Grid/GridSpacingY01
350
13E
  3
Grid/GridSpacingY02
350
13F
  3
Grid/GridSpacingY03
350
140
  3
Grid/IsometricGrid00
350
141
  3
Grid/IsometricGrid01
350
142
  3
Grid/IsometricGrid02
350
143
  3
Grid/IsometricGrid03
350
144
  3
Grid/IsometricProjection00
350
145
  3
Grid/IsometricProjection01
350
146
  3
Grid/IsometricProjection02
350
147
  3
Grid/IsometricProjection03
350
148
  3
Grid/MetaGridSpacingX00
350
149
  3
Grid/MetaGridSpacingX01
350
14A
  3
Grid/MetaGridSpacingX02
350
14B
  3
Grid/MetaGridSpacingX03
350
14C
  3
Grid/MetaGridSpacingY00
350
14D
  3
Grid/MetaGridSpacingY01
350
14E
  3
Grid/MetaGridSpacingY02
350
14F
  3
Grid/MetaGridSpacingY03
350
150
  3
MultiPageSettings/Columns
350
151
  3
MultiPageSettings/GlueMarginsBottom
350
152
  3
MultiPageSettings/GlueMarginsLeft
350
153
  3
MultiPageSettings/GlueMarginsRight
350
154
  3
MultiPageSettings/GlueMarginsTop
350
155
  3
MultiPageSettings/PrintCropMarks
350
156
  3
MultiPageSettings/Rows
350
157
  3
PageSettings/OffsetX
350
158
  3
PageSettings/OffsetY
350
159
  3
PageSettings/PageOrientation
350
15A
  3
PageSettings/PaperHeight
350
15B
  3
PageSettings/PaperWidth
350
15C
  3
PageSettings/Scale
350
15D
  3
PageSettings/ShowPaperBorders
350
15E
  3
QCADVersion
350
15F
  3
UnitSettings/PaperUnit
350
160
  3
ViewportCenter
350
161
  3
ViewportHeight
350
162
  3
ViewportWidth
350
163
  0
XRECORD
  5
133
330
130
100
AcDbXrecord
280
1
1000
Blanc
  0
XRECORD
  5
134
330
130
100
AcDbXrecord
280
1
1000
FullColor
  0
XRECORD
  5
135
330
130
100
AcDbXrecord
280
1
290
1
  0
XRECORD
  5
136
330
130
100
AcDbXrecord
280
1
290
1
  0
XRECORD
  5
137
330
130
100
AcDbXrecord
280
1
290
1
  0
XRECORD
  5
138
330
130
100
AcDbXrecord
280
1
290
1
  0
XRECORD
  5
139
330
130
100
AcDbXrecord
280
1
1000
auto
  0
XRECORD
  5
13A
330
130
100
AcDbXrecord
280
1
1000
auto
  0
XRECORD
  5
13B
330
130
100
AcDbXrecord
280
1
1000
auto
  0
XRECORD
  5
13C
330
130
100
AcDbXrecord
280
1
1000
auto
  0
XRECORD
  5
13D
330
130
100
AcDbXrecord
280
1
1000
auto
  0
XRECORD
  5
13E
330
130
100
AcDbXrecord
280
1
1000
auto
  0
XRECORD
  5
13F
330
130
100
AcDbXrecord
280
1
1000
auto
  0
XRECORD
  5
140
330
130
100
AcDbXrecord
280
1
1000
auto
  0
XRECORD
  5
141
330
130
100
AcDbXrecord
280
1
290
0
  0
XRECORD
  5
142
330
130
100
AcDbXrecord
280
1
290
0
  0
XRECORD
  5
143
330
130
100
AcDbXrecord
280
1
290
0
  0
XRECORD
  5
144
330
130
100
AcDbXrecord
280
1
290
0
  0
XRECORD
  5
145
330
130
100
AcDbXrecord
280
1
 90
65537
  0
XRECORD
  5
146
330
130
100
AcDbXrecord
280
1
 90
65537
  0
XRECORD
  5
147
330
130
100
AcDbXrecord
280
1
 90
65537
  0
XRECORD
  5
148
330
130
100
AcDbXrecord
280
1
 90
65537
  0
XRECORD
  5
149
330
130
100
AcDbXrecord
280
1
1000
auto
  0
XRECORD
  5
14A
330
130
100
AcDbXrecord
280
1
1000
auto
  0
XRECORD
  5
14B
330
130
100
AcDbXrecord
280
1
1000
auto
  0
XRECORD
  5
14C
330
130
100
AcDbXrecord
280
1
1000
auto
  0
XRECORD
  5
14D
330
130
100
AcDbXrecord
280
1
1000
auto
  0
XRECORD
  5
14E
330
130
100
AcDbXrecord
280
1
1000
auto
  0
XRECORD
  5
14F
330
130
100
AcDbXrecord
280
1
1000
auto
  0
XRECORD
  5
150
330
130
100
AcDbXrecord
280
1
1000
auto
  0
XRECORD
  5
151
330
130
100
AcDbXrecord
280
1
 90
1
  0
XRECORD
  5
152
330
130
100
AcDbXrecord
280
1
 40
10.0
  0
XRECORD
  5
153
330
130
100
AcDbXrecord
280
1
 40
10.0
  0
XRECORD
  5
154
330
130
100
AcDbXrecord
280
1
 40
10.0
  0
XRECORD
  5
155
330
130
100
AcDbXrecord
280
1
 40
10.0
  0
XRECORD
  5
156
330
130
100
AcDbXrecord
280
1
290
0
  0
XRECORD
  5
157
330
130
100
AcDbXrecord
280
1
 90
1
  0
XRECORD
  5
158
330
130
100
AcDbXrecord
280
1
 40
0.0
  0
XRECORD
  5
159
330
130
100
AcDbXrecord
280
1
 40
0.0
  0
XRECORD
  5
15A
330
130
100
AcDbXrecord
280
1
1000
Landscape
  0
XRECORD
  5
15B
330
130
100
AcDbXrecord
280
1
 40
297.0
  0
XRECORD
  5
15C
330
130
100
AcDbXrecord
280
1
 40
210.0
  0
XRECORD
  5
15D
330
130
100
AcDbXrecord
280
1
1000
1:1
  0
XRECORD
  5
15E
330
130
100
AcDbXrecord
280
1
290
1
  0
XRECORD
  5
15F
330
130
100
AcDbXrecord
280
1
1000
3.21.3.17
  0
XRECORD
  5
160
330
130
100
AcDbXrecord
280
1
 90
4
  0
XRECORD
  5
162
330
130
100
AcDbXrecord
280
1
 40
275.8312822315987205
  0
XRECORD
  5
163
330
130
100
AcDbXrecord
280
1
 40
639.0151781528364836
  0
ENDSEC
  0
EOF
